  0
SECTION
  2
HEADER
  9
$ACADVER
  1
AC1014
  9
$ACADMAINTVER
 70
     0
  9
$DWGCODEPAGE
  3
ANSI_932
  9
$INSBASE
 10
0.0
 20
0.0
 30
0.0
  9
$EXTMIN
 10
-17.756577
 20
-44.4
 30
0.0
  9
$EXTMAX
 10
18.043423
 20
74.269037
 30
0.0
  9
$LIMMIN
 10
-15.5
 20
-44.4
  9
$LIMMAX
 10
15.5
 20
29.4
  9
$ORTHOMODE
 70
     0
  9
$REGENMODE
 70
     1
  9
$FILLMODE
 70
     1
  9
$QTEXTMODE
 70
     0
  9
$MIRRTEXT
 70
     1
  9
$DRAGMODE
 70
     2
  9
$LTSCALE
 40
1.0
  9
$OSMODE
 70
     0
  9
$ATTMODE
 70
     1
  9
$TEXTSIZE
 40
3.5
  9
$TRACEWID
 40
0.5
  9
$TEXTSTYLE
  7
STANDARD
  9
$CLAYER
  8
0
  9
$CELTYPE
  6
BYLAYER
  9
$CECOLOR
 62
   256
  9
$CELTSCALE
 40
1.0
  9
$DELOBJ
 70
     1
  9
$DISPSILH
 70
     0
  9
$DIMSCALE
 40
1.0
  9
$DIMASZ
 40
0.18
  9
$DIMEXO
 40
0.0625
  9
$DIMDLI
 40
0.38
  9
$DIMRND
 40
0.0
  9
$DIMDLE
 40
0.0
  9
$DIMEXE
 40
0.18
  9
$DIMTP
 40
0.0
  9
$DIMTM
 40
0.0
  9
$DIMTXT
 40
0.18
  9
$DIMCEN
 40
0.09
  9
$DIMTSZ
 40
0.0
  9
$DIMTOL
 70
     0
  9
$DIMLIM
 70
     0
  9
$DIMTIH
 70
     1
  9
$DIMTOH
 70
     1
  9
$DIMSE1
 70
     0
  9
$DIMSE2
 70
     0
  9
$DIMTAD
 70
     0
  9
$DIMZIN
 70
     0
  9
$DIMBLK
  1

  9
$DIMASO
 70
     1
  9
$DIMSHO
 70
     1
  9
$DIMPOST
  1

  9
$DIMAPOST
  1

  9
$DIMALT
 70
     0
  9
$DIMALTD
 70
     2
  9
$DIMALTF
 40
25.4
  9
$DIMLFAC
 40
1.0
  9
$DIMTOFL
 70
     0
  9
$DIMTVP
 40
0.0
  9
$DIMTIX
 70
     0
  9
$DIMSOXD
 70
     0
  9
$DIMSAH
 70
     0
  9
$DIMBLK1
  1

  9
$DIMBLK2
  1

  9
$DIMSTYLE
  2
STANDARD
  9
$DIMCLRD
 70
     0
  9
$DIMCLRE
 70
     0
  9
$DIMCLRT
 70
     0
  9
$DIMTFAC
 40
1.0
  9
$DIMGAP
 40
0.09
  9
$DIMJUST
 70
     0
  9
$DIMSD1
 70
     0
  9
$DIMSD2
 70
     0
  9
$DIMTOLJ
 70
     1
  9
$DIMTZIN
 70
     0
  9
$DIMALTZ
 70
     0
  9
$DIMALTTZ
 70
     0
  9
$DIMFIT
 70
     3
  9
$DIMUPT
 70
     0
  9
$DIMUNIT
 70
     2
  9
$DIMDEC
 70
     4
  9
$DIMTDEC
 70
     4
  9
$DIMALTU
 70
     2
  9
$DIMALTTD
 70
     2
  9
$DIMTXSTY
  7
STANDARD
  9
$DIMAUNIT
 70
     0
  9
$LUNITS
 70
     2
  9
$LUPREC
 70
     4
  9
$SKETCHINC
 40
0.1
  9
$FILLETRAD
 40
2.0
  9
$AUNITS
 70
     0
  9
$AUPREC
 70
     0
  9
$MENU
  1
ACAD
  9
$ELEVATION
 40
0.0
  9
$PELEVATION
 40
0.0
  9
$THICKNESS
 40
0.0
  9
$LIMCHECK
 70
     0
  9
$BLIPMODE
 70
     1
  9
$CHAMFERA
 40
0.0
  9
$CHAMFERB
 40
0.0
  9
$CHAMFERC
 40
0.0
  9
$CHAMFERD
 40
0.0
  9
$SKPOLY
 70
     0
  9
$TDCREATE
 40
0.0000000000
  9
$TDUPDATE
 40
2453553.747673611
  9
$TDINDWG
 40
0.0006465278
  9
$TDUSRTIMER
 40
0.0006465278
  9
$USRTIMER
 70
     1
  9
$ANGBASE
 50
0.0
  9
$ANGDIR
 70
     0
  9
$PDMODE
 70
     0
  9
$PDSIZE
 40
0.0
  9
$PLINEWID
 40
0.0
  9
$COORDS
 70
     2
  9
$SPLFRAME
 70
     0
  9
$SPLINETYPE
 70
     6
  9
$SPLINESEGS
 70
     8
  9
$ATTDIA
 70
     0
  9
$ATTREQ
 70
     1
  9
$HANDLING
 70
     1
  9
$HANDSEED
  5
8B
  9
$SURFTAB1
 70
     6
  9
$SURFTAB2
 70
     6
  9
$SURFTYPE
 70
     6
  9
$SURFU
 70
     6
  9
$SURFV
 70
     6
  9
$UCSNAME
  2

  9
$UCSORG
 10
0.0
 20
0.0
 30
0.0
  9
$UCSXDIR
 10
1.0
 20
0.0
 30
0.0
  9
$UCSYDIR
 10
0.0
 20
1.0
 30
0.0
  9
$PUCSNAME
  2

  9
$PUCSORG
 10
0.0
 20
0.0
 30
0.0
  9
$PUCSXDIR
 10
1.0
 20
0.0
 30
0.0
  9
$PUCSYDIR
 10
0.0
 20
1.0
 30
0.0
  9
$USERI1
 70
     0
  9
$USERI2
 70
     0
  9
$USERI3
 70
     0
  9
$USERI4
 70
     0
  9
$USERI5
 70
     0
  9
$USERR1
 40
0.0
  9
$USERR2
 40
0.0
  9
$USERR3
 40
0.0
  9
$USERR4
 40
0.0
  9
$USERR5
 40
0.0
  9
$WORLDVIEW
 70
     1
  9
$SHADEDGE
 70
     3
  9
$SHADEDIF
 70
    70
  9
$TILEMODE
 70
     1
  9
$MAXACTVP
 70
    48
  9
$PINSBASE
 10
0.0
 20
0.0
 30
0.0
  9
$PLIMCHECK
 70
     0
  9
$PEXTMIN
 10
1.000000E+20
 20
1.000000E+20
 30
1.000000E+20
  9
$PEXTMAX
 10
-1.000000E+20
 20
-1.000000E+20
 30
-1.000000E+20
  9
$PLIMMIN
 10
0.0
 20
0.0
  9
$PLIMMAX
 10
12.0
 20
9.0
  9
$UNITMODE
 70
     0
  9
$VISRETAIN
 70
     1
  9
$PLINEGEN
 70
     0
  9
$PSLTSCALE
 70
     1
  9
$TREEDEPTH
 70
  3020
  9
$PICKSTYLE
 70
     1
  9
$CMLSTYLE
  2
STANDARD
  9
$CMLJUST
 70
     0
  9
$CMLSCALE
 40
1.0
  9
$PROXYGRAPHICS
 70
     1
  9
$MEASUREMENT
 70
     0
  0
ENDSEC
  0
SECTION
  2
CLASSES
  0
ENDSEC
  0
SECTION
  2
TABLES
  0
TABLE
  2
VPORT
  5
8
100
AcDbSymbolTable
 70
     2
  0
VPORT
  5
8A
100
AcDbSymbolTableRecord
100
AcDbViewportTableRecord
  2
*ACTIVE
 70
     0
 10
0.0
 20
0.0
 11
1.0
 21
1.0
 12
16.598885
 22
14.082156
 13
0.0
 23
0.0
 14
1.0
 24
1.0
 15
0.0
 25
0.0
 16
0.0
 26
0.0
 36
1.0
 17
0.0
 27
0.0
 37
0.0
 40
147.6
 41
1.434944
 42
50.0
 43
0.0
 44
0.0
 50
0.0
 51
0.0
 71
     0
 72
   100
 73
     1
 74
     1
 75
     0
 76
     0
 77
     0
 78
     0
  0
ENDTAB
  0
TABLE
  2
LTYPE
  5
5
100
AcDbSymbolTable
 70
     9
  0
LTYPE
  5
12
100
AcDbSymbolTableRecord
100
AcDbLinetypeTableRecord
  2
BYBLOCK
 70
     0
  3

 72
    65
 73
     0
 40
0.0
  0
LTYPE
  5
13
100
AcDbSymbolTableRecord
100
AcDbLinetypeTableRecord
  2
BYLAYER
 70
     0
  3

 72
    65
 73
     0
 40
0.0
  0
LTYPE
  5
14
100
AcDbSymbolTableRecord
100
AcDbLinetypeTableRecord
  2
CONTINUOUS
 70
     0
  3
Solid line
 72
    65
 73
     0
 40
0.0
  0
LTYPE
  5
1F
100
AcDbSymbolTableRecord
100
AcDbLinetypeTableRecord
  2
BORDER
 70
     0
  3
__ __ . __ __ .
 72
    65
 73
     6
 40
3.398684
 49
0.971053
 74
     0
 49
-0.485526
 74
     0
 49
0.971053
 74
     0
 49
-0.485526
 74
     0
 49
0.0
 74
     0
 49
-0.485526
 74
     0
  0
LTYPE
  5
20
100
AcDbSymbolTableRecord
100
AcDbLinetypeTableRecord
  2
CENTER
 70
     0
  3
____ _ ____ _
 72
    65
 73
     4
 40
3.884211
 49
2.427632
 74
     0
 49
-0.485526
 74
     0
 49
0.485526
 74
     0
 49
-0.485526
 74
     0
  0
LTYPE
  5
21
100
AcDbSymbolTableRecord
100
AcDbLinetypeTableRecord
  2
DASHDOT
 70
     0
  3
__ . __ . __ .
 72
    65
 73
     4
 40
1.942105
 49
0.971053
 74
     0
 49
-0.485526
 74
     0
 49
0.0
 74
     0
 49
-0.485526
 74
     0
  0
LTYPE
  5
22
100
AcDbSymbolTableRecord
100
AcDbLinetypeTableRecord
  2
DASHED
 70
     0
  3
__ __ __ __ __
 72
    65
 73
     2
 40
1.456579
 49
0.971053
 74
     0
 49
-0.485526
 74
     0
  0
LTYPE
  5
23
100
AcDbSymbolTableRecord
100
AcDbLinetypeTableRecord
  2
DIVIDE
 70
     0
  3
__ . . __ . . 
 72
    65
 73
     6
 40
2.427632
 49
0.971053
 74
     0
 49
-0.485526
 74
     0
 49
0.0
 74
     0
 49
-0.485526
 74
     0
 49
0.0
 74
     0
 49
-0.485526
 74
     0
  0
LTYPE
  5
24
100
AcDbSymbolTableRecord
100
AcDbLinetypeTableRecord
  2
DOT
 70
     0
  3
..............
 72
    65
 73
     4
 40
0.971053
 49
0.0
 74
     0
 49
-0.485526
 74
     0
 49
0.0
 74
     0
 49
-0.485526
 74
     0
  0
LTYPE
  5
25
100
AcDbSymbolTableRecord
100
AcDbLinetypeTableRecord
  2
HIDDEN
 70
     0
  3
_ _ _ _ _ _ _
 72
    65
 73
     2
 40
0.728289
 49
0.485526
 74
     0
 49
-0.242763
 74
     0
  0
LTYPE
  5
26
100
AcDbSymbolTableRecord
100
AcDbLinetypeTableRecord
  2
PHANTOM
 70
     0
  3
_____ _ _ _____ _ _ 
 72
    65
 73
     6
 40
4.855263
 49
2.427632
 74
     0
 49
-0.485526
 74
     0
 49
0.485526
 74
     0
 49
-0.485526
 74
     0
 49
0.485526
 74
     0
 49
-0.485526
 74
     0
  0
ENDTAB
  0
TABLE
  2
LAYER
  5
2
100
AcDbSymbolTable
 70
     4
  0
LAYER
  5
E
100
AcDbSymbolTableRecord
100
AcDbLayerTableRecord
  2
0
 70
     0
 62
     7
  6
CONTINUOUS
  0
LAYER
  5
27
100
AcDbSymbolTableRecord
100
AcDbLayerTableRecord
  2
HALDER_NORMTEILE
 70
     0
 62
     7
  6
CONTINUOUS
  0
LAYER
  5
28
100
AcDbSymbolTableRecord
100
AcDbLayerTableRecord
  2
HALDER_NORMTEILE_MITTELLINIE
 70
     0
 62
     7
  6
CONTINUOUS
  0
LAYER
  5
29
100
AcDbSymbolTableRecord
100
AcDbLayerTableRecord
  2
HALDER_INFO
 70
     0
 62
     7
  6
CONTINUOUS
  0
ENDTAB
  0
TABLE
  2
STYLE
  5
3
100
AcDbSymbolTable
 70
     4
  0
STYLE
  5
F
100
AcDbSymbolTableRecord
100
AcDbTextStyleTableRecord
  2
STANDARD
 70
     0
 40
0.0
 41
1.0
 50
0.0
 71
     0
 42
3.5
  3
txt
  4

  0
STYLE
  5
2A
100
AcDbSymbolTableRecord
100
AcDbTextStyleTableRecord
  2
SIMPLEX
 70
     0
 40
0.0
 41
1.0
 50
0.0
 71
     0
 42
3.5
  3
simplex
  4

  0
STYLE
  5
2B
100
AcDbSymbolTableRecord
100
AcDbTextStyleTableRecord
  2
COMPLEX
 70
     0
 40
0.0
 41
1.0
 50
0.0
 71
     0
 42
3.5
  3
complex
  4

  0
STYLE
  5
2C
100
AcDbSymbolTableRecord
100
AcDbTextStyleTableRecord
  2
ITALIC
 70
     0
 40
0.0
 41
1.0
 50
0.0
 71
     0
 42
3.5
  3
italic
  4

  0
ENDTAB
  0
TABLE
  2
VIEW
  5
6
100
AcDbSymbolTable
 70
     0
  0
ENDTAB
  0
TABLE
  2
UCS
  5
7
100
AcDbSymbolTable
 70
     0
  0
ENDTAB
  0
TABLE
  2
APPID
  5
9
100
AcDbSymbolTable
 70
     1
  0
APPID
  5
10
100
AcDbSymbolTableRecord
100
AcDbRegAppTableRecord
  2
ACAD
 70
     0
  0
ENDTAB
  0
TABLE
  2
DIMSTYLE
  5
A
100
AcDbSymbolTable
 70
     1
  0
DIMSTYLE
105
7F
100
AcDbSymbolTableRecord
100
AcDbDimStyleTableRecord
  2
STANDARD
 70
     0
  3

  4

  5

  6

  7

 40
1.0
 41
0.18
 42
0.0625
 43
0.38
 44
0.18
 45
0.0
 46
0.0
 47
0.0
 48
0.0
140
0.18
141
0.09
142
0.0
143
25.4
144
1.0
145
0.0
146
1.0
147
0.09
 71
     0
 72
     0
 73
     1
 74
     1
 75
     0
 76
     0
 77
     0
 78
     0
170
     0
171
     2
172
     0
173
     0
174
     0
175
     0
176
     0
177
     0
178
     0
270
     2
271
     4
272
     4
273
     2
274
     2
340
F
275
     0
280
     0
281
     0
282
     0
283
     1
284
     0
285
     0
286
     0
287
     3
288
     0
  0
ENDTAB
  0
TABLE
  2
BLOCK_RECORD
  5
1
100
AcDbSymbolTable
 70
     2
  0
BLOCK_RECORD
  5
18
100
AcDbSymbolTableRecord
100
AcDbBlockTableRecord
  2
*MODEL_SPACE
  0
BLOCK_RECORD
  5
15
100
AcDbSymbolTableRecord
100
AcDbBlockTableRecord
  2
*PAPER_SPACE
  0
BLOCK_RECORD
  5
30
100
AcDbSymbolTableRecord
100
AcDbBlockTableRecord
  2
HALDER-ET_2212048_A
  0
BLOCK_RECORD
  5
80
100
AcDbSymbolTableRecord
100
AcDbBlockTableRecord
  2
A$C6D523780
  0
ENDTAB
  0
ENDSEC
  0
SECTION
  2
BLOCKS
  0
BLOCK
  5
19
100
AcDbEntity
  8
0
100
AcDbBlockBegin
  2
*MODEL_SPACE
 70
     0
 10
0.0
 20
0.0
 30
0.0
  3
*MODEL_SPACE
  1

  0
ENDBLK
  5
1A
100
AcDbEntity
  8
0
100
AcDbBlockEnd
  0
BLOCK
  5
16
100
AcDbEntity
 67
     1
  8
0
100
AcDbBlockBegin
  2
*PAPER_SPACE
 70
     0
 10
0.0
 20
0.0
 30
0.0
  3
*PAPER_SPACE
  1

  0
ENDBLK
  5
17
100
AcDbEntity
 67
     1
  8
0
100
AcDbBlockEnd
  0
BLOCK
  5
31
100
AcDbEntity
  8
0
100
AcDbBlockBegin
  2
HALDER-ET_2212048_A
 70
     0
 10
-15.5
 20
-44.4
 30
0.0
  3
HALDER-ET_2212048_A
  1

  0
LINE
  5
32
100
AcDbEntity
  8
HALDER_NORMTEILE_MITTELLINIE
  6
DASHDOT
 62
     2
100
AcDbLine
 10
0.0
 20
-44.4
 30
0.0
 11
0.0
 21
29.4
 31
0.0
  0
LINE
  5
33
100
AcDbEntity
  8
HALDER_NORMTEILE
  6
DASHED
 62
     3
100
AcDbLine
 10
4.0
 20
0.0
 30
0.0
 11
4.0
 21
-8.0
 31
0.0
  0
LINE
  5
34
100
AcDbEntity
  8
HALDER_NORMTEILE
  6
DASHED
 62
     3
100
AcDbLine
 10
-4.0
 20
0.0
 30
0.0
 11
-4.0
 21
-8.0
 31
0.0
  0
LINE
  5
35
100
AcDbEntity
  8
HALDER_NORMTEILE
 62
     7
100
AcDbLine
 10
-4.0
 20
-39.0
 30
0.0
 11
4.0
 21
-39.0
 31
0.0
  0
LINE
  5
36
100
AcDbEntity
  8
HALDER_NORMTEILE
 62
     7
100
AcDbLine
 10
-10.2
 20
18.0
 30
0.0
 11
10.2
 21
18.0
 31
0.0
  0
LINE
  5
37
100
AcDbEntity
  8
HALDER_NORMTEILE
 62
     7
100
AcDbLine
 10
13.0
 20
18.0
 30
0.0
 11
10.2
 21
18.0
 31
0.0
  0
LINE
  5
38
100
AcDbEntity
  8
HALDER_NORMTEILE
 62
     7
100
AcDbLine
 10
15.5
 20
25.5
 30
0.0
 11
15.5
 21
20.5
 31
0.0
  0
LINE
  5
39
100
AcDbEntity
  8
HALDER_NORMTEILE
 62
     7
100
AcDbLine
 10
-14.0
 20
27.0
 30
0.0
 11
14.0
 21
27.0
 31
0.0
  0
LINE
  5
3A
100
AcDbEntity
  8
HALDER_NORMTEILE
 62
     7
100
AcDbLine
 10
-15.5
 20
20.5
 30
0.0
 11
-15.5
 21
25.5
 31
0.0
  0
LINE
  5
3B
100
AcDbEntity
  8
HALDER_NORMTEILE
 62
     7
100
AcDbLine
 10
-10.2
 20
18.0
 30
0.0
 11
-13.0
 21
18.0
 31
0.0
  0
LINE
  5
3C
100
AcDbEntity
  8
HALDER_NORMTEILE
 62
     7
100
AcDbLine
 10
4.0
 20
-39.0
 30
0.0
 11
4.0
 21
-34.0
 31
0.0
  0
LINE
  5
3D
100
AcDbEntity
  8
HALDER_NORMTEILE
 62
     7
100
AcDbLine
 10
3.5
 20
-41.0
 30
0.0
 11
4.0
 21
-39.0
 31
0.0
  0
LINE
  5
3E
100
AcDbEntity
  8
HALDER_NORMTEILE
 62
     7
100
AcDbLine
 10
-3.5
 20
-41.0
 30
0.0
 11
3.5
 21
-41.0
 31
0.0
  0
LINE
  5
3F
100
AcDbEntity
  8
HALDER_NORMTEILE
 62
     7
100
AcDbLine
 10
-4.0
 20
-39.0
 30
0.0
 11
-3.5
 21
-41.0
 31
0.0
  0
LINE
  5
40
100
AcDbEntity
  8
HALDER_NORMTEILE
 62
     7
100
AcDbLine
 10
-4.0
 20
-34.0
 30
0.0
 11
-4.0
 21
-39.0
 31
0.0
  0
LINE
  5
41
100
AcDbEntity
  8
HALDER_NORMTEILE
 62
     7
100
AcDbLine
 10
9.2
 20
0.0
 30
0.0
 11
9.2
 21
17.0
 31
0.0
  0
LINE
  5
42
100
AcDbEntity
  8
HALDER_NORMTEILE
 62
     7
100
AcDbLine
 10
-9.2
 20
0.0
 30
0.0
 11
9.2
 21
0.0
 31
0.0
  0
LINE
  5
43
100
AcDbEntity
  8
HALDER_NORMTEILE
 62
     7
100
AcDbLine
 10
-9.2
 20
17.0
 30
0.0
 11
-9.2
 21
0.0
 31
0.0
  0
LINE
  5
44
100
AcDbEntity
  8
HALDER_NORMTEILE
 62
     2
100
AcDbLine
 10
-14.0
 20
27.0
 30
0.0
 11
-14.0
 21
24.5
 31
0.0
  0
LINE
  5
45
100
AcDbEntity
  8
HALDER_NORMTEILE
 62
     2
100
AcDbLine
 10
-13.0
 20
27.0
 30
0.0
 11
-13.0
 21
24.5
 31
0.0
  0
LINE
  5
46
100
AcDbEntity
  8
HALDER_NORMTEILE
 62
     2
100
AcDbLine
 10
-12.0
 20
27.0
 30
0.0
 11
-12.0
 21
24.5
 31
0.0
  0
LINE
  5
47
100
AcDbEntity
  8
HALDER_NORMTEILE
 62
     2
100
AcDbLine
 10
-11.0
 20
27.0
 30
0.0
 11
-11.0
 21
24.5
 31
0.0
  0
LINE
  5
48
100
AcDbEntity
  8
HALDER_NORMTEILE
 62
     2
100
AcDbLine
 10
-10.0
 20
27.0
 30
0.0
 11
-10.0
 21
24.5
 31
0.0
  0
LINE
  5
49
100
AcDbEntity
  8
HALDER_NORMTEILE
 62
     2
100
AcDbLine
 10
-9.0
 20
27.0
 30
0.0
 11
-9.0
 21
24.5
 31
0.0
  0
LINE
  5
4A
100
AcDbEntity
  8
HALDER_NORMTEILE
 62
     2
100
AcDbLine
 10
-8.0
 20
27.0
 30
0.0
 11
-8.0
 21
24.5
 31
0.0
  0
LINE
  5
4B
100
AcDbEntity
  8
HALDER_NORMTEILE
 62
     2
100
AcDbLine
 10
-7.0
 20
27.0
 30
0.0
 11
-7.0
 21
24.5
 31
0.0
  0
LINE
  5
4C
100
AcDbEntity
  8
HALDER_NORMTEILE
 62
     2
100
AcDbLine
 10
-6.0
 20
27.0
 30
0.0
 11
-6.0
 21
24.5
 31
0.0
  0
LINE
  5
4D
100
AcDbEntity
  8
HALDER_NORMTEILE
 62
     2
100
AcDbLine
 10
-5.0
 20
27.0
 30
0.0
 11
-5.0
 21
24.5
 31
0.0
  0
LINE
  5
4E
100
AcDbEntity
  8
HALDER_NORMTEILE
 62
     2
100
AcDbLine
 10
-4.0
 20
27.0
 30
0.0
 11
-4.0
 21
24.5
 31
0.0
  0
LINE
  5
4F
100
AcDbEntity
  8
HALDER_NORMTEILE
 62
     2
100
AcDbLine
 10
-3.0
 20
27.0
 30
0.0
 11
-3.0
 21
24.5
 31
0.0
  0
LINE
  5
50
100
AcDbEntity
  8
HALDER_NORMTEILE
 62
     2
100
AcDbLine
 10
-2.0
 20
27.0
 30
0.0
 11
-2.0
 21
24.5
 31
0.0
  0
LINE
  5
51
100
AcDbEntity
  8
HALDER_NORMTEILE
 62
     2
100
AcDbLine
 10
-1.0
 20
27.0
 30
0.0
 11
-1.0
 21
24.5
 31
0.0
  0
LINE
  5
52
100
AcDbEntity
  8
HALDER_NORMTEILE
 62
     2
100
AcDbLine
 10
14.0
 20
27.0
 30
0.0
 11
14.0
 21
24.5
 31
0.0
  0
LINE
  5
53
100
AcDbEntity
  8
HALDER_NORMTEILE
 62
     2
100
AcDbLine
 10
13.0
 20
27.0
 30
0.0
 11
13.0
 21
24.5
 31
0.0
  0
LINE
  5
54
100
AcDbEntity
  8
HALDER_NORMTEILE
 62
     2
100
AcDbLine
 10
12.0
 20
27.0
 30
0.0
 11
12.0
 21
24.5
 31
0.0
  0
LINE
  5
55
100
AcDbEntity
  8
HALDER_NORMTEILE
 62
     2
100
AcDbLine
 10
11.0
 20
27.0
 30
0.0
 11
11.0
 21
24.5
 31
0.0
  0
LINE
  5
56
100
AcDbEntity
  8
HALDER_NORMTEILE
 62
     2
100
AcDbLine
 10
10.0
 20
27.0
 30
0.0
 11
10.0
 21
24.5
 31
0.0
  0
LINE
  5
57
100
AcDbEntity
  8
HALDER_NORMTEILE
 62
     2
100
AcDbLine
 10
9.0
 20
27.0
 30
0.0
 11
9.0
 21
24.5
 31
0.0
  0
LINE
  5
58
100
AcDbEntity
  8
HALDER_NORMTEILE
 62
     2
100
AcDbLine
 10
8.0
 20
27.0
 30
0.0
 11
8.0
 21
24.5
 31
0.0
  0
LINE
  5
59
100
AcDbEntity
  8
HALDER_NORMTEILE
 62
     2
100
AcDbLine
 10
7.0
 20
27.0
 30
0.0
 11
7.0
 21
24.5
 31
0.0
  0
LINE
  5
5A
100
AcDbEntity
  8
HALDER_NORMTEILE
 62
     2
100
AcDbLine
 10
6.0
 20
27.0
 30
0.0
 11
6.0
 21
24.5
 31
0.0
  0
LINE
  5
5B
100
AcDbEntity
  8
HALDER_NORMTEILE
 62
     2
100
AcDbLine
 10
5.0
 20
27.0
 30
0.0
 11
5.0
 21
24.5
 31
0.0
  0
LINE
  5
5C
100
AcDbEntity
  8
HALDER_NORMTEILE
 62
     2
100
AcDbLine
 10
4.0
 20
27.0
 30
0.0
 11
4.0
 21
24.5
 31
0.0
  0
LINE
  5
5D
100
AcDbEntity
  8
HALDER_NORMTEILE
 62
     2
100
AcDbLine
 10
3.0
 20
27.0
 30
0.0
 11
3.0
 21
24.5
 31
0.0
  0
LINE
  5
5E
100
AcDbEntity
  8
HALDER_NORMTEILE
 62
     2
100
AcDbLine
 10
2.0
 20
27.0
 30
0.0
 11
2.0
 21
24.5
 31
0.0
  0
LINE
  5
5F
100
AcDbEntity
  8
HALDER_NORMTEILE
 62
     2
100
AcDbLine
 10
1.0
 20
27.0
 30
0.0
 11
1.0
 21
24.5
 31
0.0
  0
LINE
  5
60
100
AcDbEntity
  8
HALDER_NORMTEILE
 62
     2
100
AcDbLine
 10
-14.75
 20
26.799038
 30
0.0
 11
-14.75
 21
24.5
 31
0.0
  0
LINE
  5
61
100
AcDbEntity
  8
HALDER_NORMTEILE
 62
     2
100
AcDbLine
 10
14.75
 20
26.799038
 30
0.0
 11
14.75
 21
24.5
 31
0.0
  0
LINE
  5
62
100
AcDbEntity
  8
HALDER_NORMTEILE
 62
     2
100
AcDbLine
 10
0.0
 20
27.0
 30
0.0
 11
0.0
 21
24.5
 31
0.0
  0
LINE
  5
63
100
AcDbEntity
  8
HALDER_NORMTEILE
 62
     2
100
AcDbLine
 10
-15.5
 20
24.5
 30
0.0
 11
15.5
 21
24.5
 31
0.0
  0
ARC
  5
64
100
AcDbEntity
  8
HALDER_NORMTEILE
 62
     7
100
AcDbCircle
 10
0.0
 20
-35.375
 30
0.0
 40
6.625
100
AcDbArc
 50
238.109208
 51
301.890792
  0
ARC
  5
65
100
AcDbEntity
  8
HALDER_NORMTEILE
 62
     7
100
AcDbCircle
 10
10.2
 20
17.0
 30
0.0
 40
1.0
100
AcDbArc
 50
90.0
 51
180.0
  0
ARC
  5
66
100
AcDbEntity
  8
HALDER_NORMTEILE
 62
     7
100
AcDbCircle
 10
13.0
 20
20.5
 30
0.0
 40
2.5
100
AcDbArc
 50
270.0
 51
0.0
  0
ARC
  5
67
100
AcDbEntity
  8
HALDER_NORMTEILE
 62
     7
100
AcDbCircle
 10
14.0
 20
25.5
 30
0.0
 40
1.5
100
AcDbArc
 50
0.0
 51
90.0
  0
ARC
  5
68
100
AcDbEntity
  8
HALDER_NORMTEILE
 62
     7
100
AcDbCircle
 10
-14.0
 20
25.5
 30
0.0
 40
1.5
100
AcDbArc
 50
90.0
 51
180.0
  0
ARC
  5
69
100
AcDbEntity
  8
HALDER_NORMTEILE
 62
     7
100
AcDbCircle
 10
-13.0
 20
20.5
 30
0.0
 40
2.5
100
AcDbArc
 50
180.0
 51
270.0
  0
ARC
  5
6A
100
AcDbEntity
  8
HALDER_NORMTEILE
 62
     7
100
AcDbCircle
 10
-10.2
 20
17.0
 30
0.0
 40
1.0
100
AcDbArc
 50
0.0
 51
90.0
  0
ENDBLK
  5
6B
100
AcDbEntity
  8
0
100
AcDbBlockEnd
  0
BLOCK
  5
87
100
AcDbEntity
  8
0
100
AcDbBlockBegin
  2
A$C6D523780
 70
     0
 10
0.0
 20
0.0
 30
0.0
  3
A$C6D523780
  1

  0
CIRCLE
  5
81
100
AcDbEntity
  8
HALDER_NORMTEILE
 62
     7
100
AcDbCircle
 10
17.9
 20
17.9
 30
0.0
 40
15.5
  0
CIRCLE
  5
82
100
AcDbEntity
  8
HALDER_NORMTEILE
  6
DASHED
 62
     3
100
AcDbCircle
 10
17.9
 20
17.9
 30
0.0
 40
4.0
  0
CIRCLE
  5
83
100
AcDbEntity
  8
HALDER_NORMTEILE
  6
DASHED
 62
     3
100
AcDbCircle
 10
17.9
 20
17.9
 30
0.0
 40
8.0
  0
ARC
  5
84
100
AcDbEntity
  8
HALDER_NORMTEILE
  6
DASHED
 62
     3
100
AcDbCircle
 10
17.9
 20
17.9
 30
0.0
 40
7.0
100
AcDbArc
 50
170.0
 51
100.0
  0
LINE
  5
85
100
AcDbEntity
  8
HALDER_NORMTEILE_MITTELLINIE
  6
DASHDOT
 62
     2
100
AcDbLine
 10
0.0
 20
17.9
 30
0.0
 11
35.8
 21
17.9
 31
0.0
  0
LINE
  5
86
100
AcDbEntity
  8
HALDER_NORMTEILE_MITTELLINIE
  6
DASHDOT
 62
     2
100
AcDbLine
 10
17.9
 20
0.0
 30
0.0
 11
17.9
 21
35.8
 31
0.0
  0
ENDBLK
  5
88
100
AcDbEntity
  8
0
100
AcDbBlockEnd
  0
ENDSEC
  0
SECTION
  2
ENTITIES
  0
LINE
  5
6C
100
AcDbEntity
  8
HALDER_NORMTEILE
 62
     2
100
AcDbLine
 10
7.0
 20
0.0
 30
0.0
 11
7.0
 21
-34.0
 31
0.0
  0
LINE
  5
6D
100
AcDbEntity
  8
HALDER_NORMTEILE
 62
     2
100
AcDbLine
 10
-7.0
 20
-34.0
 30
0.0
 11
-7.0
 21
0.0
 31
0.0
  0
LINE
  5
6E
100
AcDbEntity
  8
HALDER_NORMTEILE
 62
     7
100
AcDbLine
 10
0.6
 20
-1.0
 30
0.0
 11
8.0
 21
-1.0
 31
0.0
  0
LINE
  5
6F
100
AcDbEntity
  8
HALDER_NORMTEILE
 62
     7
100
AcDbLine
 10
-8.0
 20
-1.0
 30
0.0
 11
-0.6
 21
-1.0
 31
0.0
  0
LINE
  5
70
100
AcDbEntity
  8
HALDER_NORMTEILE
 62
     7
100
AcDbLine
 10
-8.0
 20
-33.0
 30
0.0
 11
8.0
 21
-33.0
 31
0.0
  0
LINE
  5
71
100
AcDbEntity
  8
HALDER_NORMTEILE
 62
     7
100
AcDbLine
 10
7.0
 20
-34.0
 30
0.0
 11
-7.0
 21
-34.0
 31
0.0
  0
LINE
  5
72
100
AcDbEntity
  8
HALDER_NORMTEILE
 62
     7
100
AcDbLine
 10
8.0
 20
-33.0
 30
0.0
 11
7.0
 21
-34.0
 31
0.0
  0
LINE
  5
73
100
AcDbEntity
  8
HALDER_NORMTEILE
 62
     7
100
AcDbLine
 10
8.0
 20
-1.0
 30
0.0
 11
8.0
 21
-33.0
 31
0.0
  0
LINE
  5
74
100
AcDbEntity
  8
HALDER_NORMTEILE
 62
     7
100
AcDbLine
 10
7.0
 20
0.0
 30
0.0
 11
8.0
 21
-1.0
 31
0.0
  0
LINE
  5
75
100
AcDbEntity
  8
HALDER_NORMTEILE
 62
     7
100
AcDbLine
 10
0.6
 20
0.0
 30
0.0
 11
7.0
 21
0.0
 31
0.0
  0
LINE
  5
76
100
AcDbEntity
  8
HALDER_NORMTEILE
 62
     7
100
AcDbLine
 10
0.6
 20
-1.2
 30
0.0
 11
0.6
 21
0.0
 31
0.0
  0
LINE
  5
77
100
AcDbEntity
  8
HALDER_NORMTEILE
 62
     7
100
AcDbLine
 10
-0.6
 20
-1.2
 30
0.0
 11
0.6
 21
-1.2
 31
0.0
  0
LINE
  5
78
100
AcDbEntity
  8
HALDER_NORMTEILE
 62
     7
100
AcDbLine
 10
-0.6
 20
0.0
 30
0.0
 11
-0.6
 21
-1.2
 31
0.0
  0
LINE
  5
79
100
AcDbEntity
  8
HALDER_NORMTEILE
 62
     7
100
AcDbLine
 10
-7.0
 20
0.0
 30
0.0
 11
-0.6
 21
0.0
 31
0.0
  0
LINE
  5
7A
100
AcDbEntity
  8
HALDER_NORMTEILE
 62
     7
100
AcDbLine
 10
-8.0
 20
-1.0
 30
0.0
 11
-7.0
 21
0.0
 31
0.0
  0
LINE
  5
7B
100
AcDbEntity
  8
HALDER_NORMTEILE
 62
     7
100
AcDbLine
 10
-8.0
 20
-33.0
 30
0.0
 11
-8.0
 21
-1.0
 31
0.0
  0
LINE
  5
7C
100
AcDbEntity
  8
HALDER_NORMTEILE
 62
     7
100
AcDbLine
 10
-7.0
 20
-34.0
 30
0.0
 11
-8.0
 21
-33.0
 31
0.0
  0
INSERT
  5
7E
100
AcDbEntity
  8
0
100
AcDbBlockReference
  2
HALDER-ET_2212048_A
 10
-15.5
 20
-44.4
 30
0.0
  0
INSERT
  5
89
100
AcDbEntity
  8
0
100
AcDbBlockReference
  2
A$C6D523780
 10
-17.756577
 20
38.469037
 30
0.0
  0
ENDSEC
  0
SECTION
  2
OBJECTS
  0
DICTIONARY
  5
C
100
AcDbDictionary
  3
ACAD_GROUP
350
D
  3
ACAD_MLINESTYLE
350
1B
  0
DICTIONARY
  5
D
102
{ACAD_REACTORS
330
C
102
}
100
AcDbDictionary
  0
DICTIONARY
  5
1B
102
{ACAD_REACTORS
330
C
102
}
100
AcDbDictionary
  3
STANDARD
350
1C
  0
MLINESTYLE
  5
1C
102
{ACAD_REACTORS
330
1B
102
}
100
AcDbMlineStyle
  2
STANDARD
 70
     0
  3

 62
   256
 51
90.0
 52
90.0
 71
     2
 49
0.5
 62
   256
  6
BYLAYER
 49
-0.5
 62
   256
  6
BYLAYER
  0
ENDSEC
  0
EOF
