  0
SECTION
  2
HEADER
  9
$ACADVER
  1
AC1015
  9
$ACADMAINTVER
 70
    13
  9
$DWGCODEPAGE
  3
ANSI_932
  9
$INSBASE
 10
0.0
 20
0.0
 30
0.0
  9
$EXTMIN
 10
245.2837563503182
 20
85.20142717783793
 30
0.0
  9
$EXTMAX
 10
422.6423119600402
 20
259.3369073113157
 30
0.0
  9
$LIMMIN
 10
0.0
 20
0.0
  9
$LIMMAX
 10
400.0
 20
277.0
  9
$ORTHOMODE
 70
     1
  9
$REGENMODE
 70
     1
  9
$FILLMODE
 70
     1
  9
$QTEXTMODE
 70
     0
  9
$MIRRTEXT
 70
     1
  9
$LTSCALE
 40
5.0
  9
$ATTMODE
 70
     1
  9
$TEXTSIZE
 40
2.5
  9
$TRACEWID
 40
1.0
  9
$TEXTSTYLE
  7
STANDARD
  9
$CLAYER
  8
CONTINUOUS
  9
$CELTYPE
  6
ByLayer
  9
$CECOLOR
 62
   256
  9
$CELTSCALE
 40
1.0
  9
$DISPSILH
 70
     0
  9
$DIMSCALE
 40
1.0
  9
$DIMASZ
 40
2.5
  9
$DIMEXO
 40
1.0
  9
$DIMDLI
 40
6.0
  9
$DIMRND
 40
0.0
  9
$DIMDLE
 40
0.0
  9
$DIMEXE
 40
1.0
  9
$DIMTP
 40
495.0
  9
$DIMTM
 40
0.0
  9
$DIMTXT
 40
3.0
  9
$DIMCEN
 40
0.0
  9
$DIMTSZ
 40
0.0
  9
$DIMTOL
 70
     0
  9
$DIMLIM
 70
     0
  9
$DIMTIH
 70
     0
  9
$DIMTOH
 70
     0
  9
$DIMSE1
 70
     0
  9
$DIMSE2
 70
     0
  9
$DIMTAD
 70
     3
  9
$DIMZIN
 70
     8
  9
$DIMBLK
  1

  9
$DIMASO
 70
     0
  9
$DIMSHO
 70
     1
  9
$DIMPOST
  1

  9
$DIMAPOST
  1

  9
$DIMALT
 70
     0
  9
$DIMALTD
 70
     2
  9
$DIMALTF
 40
25.4
  9
$DIMLFAC
 40
1.0
  9
$DIMTOFL
 70
     1
  9
$DIMTVP
 40
0.0
  9
$DIMTIX
 70
     1
  9
$DIMSOXD
 70
     0
  9
$DIMSAH
 70
     0
  9
$DIMBLK1
  1

  9
$DIMBLK2
  1

  9
$DIMSTYLE
  2
ITM
  9
$DIMCLRD
 70
     0
  9
$DIMCLRE
 70
     0
  9
$DIMCLRT
 70
     0
  9
$DIMTFAC
 40
1.0
  9
$DIMGAP
 40
0.5
  9
$DIMJUST
 70
     0
  9
$DIMSD1
 70
     0
  9
$DIMSD2
 70
     0
  9
$DIMTOLJ
 70
     1
  9
$DIMTZIN
 70
     0
  9
$DIMALTZ
 70
     0
  9
$DIMALTTZ
 70
     0
  9
$DIMUPT
 70
     0
  9
$DIMDEC
 70
     4
  9
$DIMTDEC
 70
     4
  9
$DIMALTU
 70
     2
  9
$DIMALTTD
 70
     2
  9
$DIMTXSTY
  7
STANDARD
  9
$DIMAUNIT
 70
     0
  9
$DIMADEC
 70
     0
  9
$DIMALTRND
 40
0.0
  9
$DIMAZIN
 70
     0
  9
$DIMDSEP
 70
    46
  9
$DIMATFIT
 70
     3
  9
$DIMFRAC
 70
     0
  9
$DIMLDRBLK
  1

  9
$DIMLUNIT
 70
     2
  9
$DIMLWD
 70
    -2
  9
$DIMLWE
 70
    -2
  9
$DIMTMOVE
 70
     0
  9
$LUNITS
 70
     2
  9
$LUPREC
 70
     2
  9
$SKETCHINC
 40
1.0
  9
$FILLETRAD
 40
0.0
  9
$AUNITS
 70
     0
  9
$AUPREC
 70
     0
  9
$MENU
  1
.
  9
$ELEVATION
 40
0.0
  9
$PELEVATION
 40
0.0
  9
$THICKNESS
 40
0.0
  9
$LIMCHECK
 70
     0
  9
$CHAMFERA
 40
10.0
  9
$CHAMFERB
 40
10.0
  9
$CHAMFERC
 40
0.0
  9
$CHAMFERD
 40
0.0
  9
$SKPOLY
 70
     0
  9
$TDCREATE
 40
2451449.221914896
  9
$TDUCREATE
 40
2451448.846914896
  9
$TDUPDATE
 40
2454132.356148182
  9
$TDUUPDATE
 40
2454131.981148182
  9
$TDINDWG
 40
0.2290562269
  9
$TDUSRTIMER
 40
0.0039753241
  9
$USRTIMER
 70
     1
  9
$ANGBASE
 50
0.0
  9
$ANGDIR
 70
     0
  9
$PDMODE
 70
     0
  9
$PDSIZE
 40
0.0
  9
$PLINEWID
 40
0.0
  9
$SPLFRAME
 70
     0
  9
$SPLINETYPE
 70
     6
  9
$SPLINESEGS
 70
     8
  9
$HANDSEED
  5
278
  9
$SURFTAB1
 70
     6
  9
$SURFTAB2
 70
     6
  9
$SURFTYPE
 70
     6
  9
$SURFU
 70
     6
  9
$SURFV
 70
     6
  9
$UCSBASE
  2

  9
$UCSNAME
  2

  9
$UCSORG
 10
0.0
 20
0.0
 30
0.0
  9
$UCSXDIR
 10
1.0
 20
0.0
 30
0.0
  9
$UCSYDIR
 10
0.0
 20
1.0
 30
0.0
  9
$UCSORTHOREF
  2

  9
$UCSORTHOVIEW
 70
     0
  9
$UCSORGTOP
 10
0.0
 20
0.0
 30
0.0
  9
$UCSORGBOTTOM
 10
0.0
 20
0.0
 30
0.0
  9
$UCSORGLEFT
 10
0.0
 20
0.0
 30
0.0
  9
$UCSORGRIGHT
 10
0.0
 20
0.0
 30
0.0
  9
$UCSORGFRONT
 10
0.0
 20
0.0
 30
0.0
  9
$UCSORGBACK
 10
0.0
 20
0.0
 30
0.0
  9
$PUCSBASE
  2

  9
$PUCSNAME
  2

  9
$PUCSORG
 10
0.0
 20
0.0
 30
0.0
  9
$PUCSXDIR
 10
1.0
 20
0.0
 30
0.0
  9
$PUCSYDIR
 10
0.0
 20
1.0
 30
0.0
  9
$PUCSORTHOREF
  2

  9
$PUCSORTHOVIEW
 70
     0
  9
$PUCSORGTOP
 10
0.0
 20
0.0
 30
0.0
  9
$PUCSORGBOTTOM
 10
0.0
 20
0.0
 30
0.0
  9
$PUCSORGLEFT
 10
0.0
 20
0.0
 30
0.0
  9
$PUCSORGRIGHT
 10
0.0
 20
0.0
 30
0.0
  9
$PUCSORGFRONT
 10
0.0
 20
0.0
 30
0.0
  9
$PUCSORGBACK
 10
0.0
 20
0.0
 30
0.0
  9
$USERI1
 70
     3
  9
$USERI2
 70
     1
  9
$USERI3
 70
     1
  9
$USERI4
 70
     0
  9
$USERI5
 70
     0
  9
$USERR1
 40
1.0
  9
$USERR2
 40
3.0
  9
$USERR3
 40
3.0
  9
$USERR4
 40
2.5
  9
$USERR5
 40
10.0
  9
$WORLDVIEW
 70
     1
  9
$SHADEDGE
 70
     3
  9
$SHADEDIF
 70
    70
  9
$TILEMODE
 70
     1
  9
$MAXACTVP
 70
    16
  9
$PINSBASE
 10
0.0
 20
0.0
 30
0.0
  9
$PLIMCHECK
 70
     0
  9
$PEXTMIN
 10
-1.000000000000000E+20
 20
-1.000000000000000E+20
 30
-1.000000000000000E+20
  9
$PEXTMAX
 10
1.000000000000000E+20
 20
1.000000000000000E+20
 30
1.000000000000000E+20
  9
$PLIMMIN
 10
0.0
 20
0.0
  9
$PLIMMAX
 10
420.0
 20
297.0
  9
$UNITMODE
 70
     0
  9
$VISRETAIN
 70
     0
  9
$PLINEGEN
 70
     0
  9
$PSLTSCALE
 70
     1
  9
$TREEDEPTH
 70
  3020
  9
$CMLSTYLE
  2
Standard
  9
$CMLJUST
 70
     0
  9
$CMLSCALE
 40
1.0
  9
$PROXYGRAPHICS
 70
     1
  9
$MEASUREMENT
 70
     0
  9
$CELWEIGHT
370
    -1
  9
$ENDCAPS
280
     0
  9
$JOINSTYLE
280
     0
  9
$LWDISPLAY
290
     0
  9
$INSUNITS
 70
     0
  9
$HYPERLINKBASE
  1

  9
$STYLESHEET
  1

  9
$XEDIT
290
     1
  9
$CEPSNTYPE
380
     0
  9
$PSTYLEMODE
290
     1
  9
$FINGERPRINTGUID
  2
{F79279B6-3E1C-4EB6-B6EA-BACBEFD07459}
  9
$VERSIONGUID
  2
{36FD5D1F-3EBC-4063-BAC9-7FD43C6AA8EC}
  9
$EXTNAMES
290
     1
  9
$PSVPSCALE
 40
0.0
  9
$OLESTARTUP
290
     0
  0
ENDSEC
  0
SECTION
  2
CLASSES
  0
CLASS
  1
ACDBDICTIONARYWDFLT
  2
AcDbDictionaryWithDefault
  3
AutoCAD 2000
 90
        0
280
     0
281
     0
  0
CLASS
  1
ACDBPLACEHOLDER
  2
AcDbPlaceHolder
  3
AutoCAD 2000
 90
        0
280
     0
281
     0
  0
CLASS
  1
LAYOUT
  2
AcDbLayout
  3
AutoCAD 2000
 90
        0
280
     0
281
     0
  0
CLASS
  1
AMGSETTINGSOBJ
  2
AmgSettingsObj
  3
"AcadM|Product Description: AutoCAD Mechanical 2000|Company: Autodesk"
 90
        0
280
     0
281
     0
  0
CLASS
  1
ACME_DOCUMENT
  2
AcMeDbDoc
  3
AcMeServices
 90
        0
280
     0
281
     0
  0
CLASS
  1
ACMESCOPE
  2
AcMeScope
  3
AcMeServices
 90
        0
280
     0
281
     0
  0
CLASS
  1
ACMECOMMANDHISTORY
  2
AcMeCommandHistory
  3
AcMeServices
 90
        0
280
     0
281
     0
  0
CLASS
  1
ACIMSYSVARMAN
  2
AcImSysVarManager
  3
AcMeServices
 90
        0
280
     0
281
     0
  0
CLASS
  1
ACIMREALSYSVAR
  2
AcImRealSysVar
  3
AcMeServices
 90
        0
280
     0
281
     0
  0
CLASS
  1
ACIMINTSYSVAR
  2
AcImIntSysVar
  3
AcMeServices
 90
        0
280
     0
281
     0
  0
CLASS
  1
ACMEDRAWINGMAN
  2
AcMeDrawingMan
  3
AcMeServices
 90
        0
280
     0
281
     0
  0
CLASS
  1
ACMEVIEW
  2
AcMeView
  3
AcMeServices
 90
        0
280
     0
281
     0
  0
CLASS
  1
ACDBENTITYCACHE
  2
AcMeEntityCache
  3
AcMeServices
 90
        0
280
     0
281
     0
  0
CLASS
  1
GSMANAGER
  2
AcMeGSManager
  3
AcMeServices
 90
        0
280
     0
281
     0
  0
CLASS
  1
AMDTINTERNALREACTOR
  2
AmdtInternalReactor
  3
AcMeServices
 90
        0
280
     0
281
     0
  0
CLASS
  1
ACMESTATEMGR
  2
AcMeStateMgr
  3
AcMeServices
 90
        0
280
     0
281
     0
  0
CLASS
  1
ACGREFMASTER
  2
AcGrefMaster
  3
AcAttribServices
 90
        0
280
     0
281
     0
  0
CLASS
  1
AM_DRAWING_MGR
  2
AcDmDwgMgr
  3
AcMechDwgViewMgmt
 90
        0
280
     0
281
     0
  0
CLASS
  1
AM_DWG_DOCUMENT
  2
AcDmDwgDocument
  3
AcMechDwgViewMgmt
 90
        0
280
     0
281
     0
  0
CLASS
  1
AM_DWG_SHEET
  2
AcDmSheet
  3
AcMechDwgViewMgmt
 90
        0
280
     0
281
     0
  0
CLASS
  1
AM_VIEWDIMPARMAP
  2
AcDmViewDimParMap
  3
AcMechDwgViewMgmt
 90
        0
280
     0
281
     0
  0
CLASS
  1
AM_DWGMGR_NAME
  2
AcDmDwgMgrName
  3
AcMechDwgViewMgmt
 90
        0
280
     0
281
     0
  0
CLASS
  1
ACME_DATABASE
  2
AcMeDbDatabase
  3
AcMeServices
 90
        0
280
     0
281
     0
  0
CLASS
  1
ACRFINSADJUSTERMGR
  2
AcRfInsAdjusterMgr
  3
AcMeServices
 90
        0
280
     0
281
     0
  0
CLASS
  1
ACGREFACADMASTER
  2
AcGrefacadMaster
  3
AcGrefServices
 90
        0
280
     0
281
     0
  0
CLASS
  1
AMDTMENUSTATEMGR
  2
AmdtMenuStateMgr
  3
McadcomServices
 90
        0
280
     0
281
     0
  0
CLASS
  1
AMDTMCOMMENUSTATE
  2
AmdtMcomMenuState
  3
McadcomServices
 90
        0
280
     0
281
     0
  0
CLASS
  1
AMIMASTER
  2
AmiMaster
  3
AmiServices
 90
        0
280
     0
281
     0
  0
CLASS
  1
ASAPP
  2
AcAsAppObject
  3
AutoSurfServices
 90
        0
280
     0
281
     0
  0
CLASS
  1
IM_STATIC_MAN
  2
AcImStaticVarManager
  3
AcMeServices
 90
        0
280
     0
281
     0
  0
CLASS
  1
ACIMSTRSYSVAR
  2
AcImStrSysVar
  3
AcMeServices
 90
        0
280
     0
281
     0
  0
CLASS
  1
ACIMDBLSTATICVAR
  2
AcImDblStaticVar
  3
AcMeServices
 90
        0
280
     0
281
     0
  0
CLASS
  1
ACIMSTRSTATICVAR
  2
AcImStrStaticVar
  3
AcMeServices
 90
        0
280
     0
281
     0
  0
CLASS
  1
ACIMINTSTATICVAR
  2
AcImIntStaticVar
  3
AcMeServices
 90
        0
280
     0
281
     0
  0
CLASS
  1
ACASGREFMASTER
  2
AcAsGrefMaster
  3
AutoSurfResolverServices
 90
        0
280
     0
281
     0
  0
CLASS
  1
ACADGREFMODULE
  2
AcAdGrefModule
  3
AdGrefServices
 90
        0
280
     0
281
     0
  0
CLASS
  1
AMDTMAPISURFMOUDULE
  2
AmdtMApiSurfModule
  3
MApiSurfServices
 90
        0
280
     0
281
     0
  0
CLASS
  1
MAPIAMMOUDLE
  2
MApiAmModule
  3
MApiAmServices
 90
        0
280
     0
281
     0
  0
CLASS
  1
AMDTADMENUSTATE
  2
AmdtAdMenuState
  3
DesignerServices
 90
        0
280
     0
281
     0
  0
CLASS
  1
ADAPPL
  2
AcAdAppl
  3
DesignerServices
 90
        0
280
     0
281
     0
  0
CLASS
  1
DEPMGR
  2
AcAdDepMgr
  3
DesignerServices
 90
        0
280
     0
281
     0
  0
CLASS
  1
PARAMMGR
  2
AcAdParamMgr
  3
DesignerServices
 90
        0
280
     0
281
     0
  0
CLASS
  1
PARAMSCOPE
  2
AcAdParamScope
  3
DesignerServices
 90
        0
280
     0
281
     0
  0
CLASS
  1
NAMEDAPPL
  2
AcAdNamedAppl
  3
DesignerServices
 90
        0
280
     0
281
     0
  0
CLASS
  1
AMDTDMMENUSTATE
  2
AmdtDmMenuState
  3
AcMechDwgViewMgmt
 90
        0
280
     0
281
     0
  0
CLASS
  1
MAPIADMODULE
  2
MApiAdModule
  3
MApiAdServices
 90
        0
280
     0
281
     0
  0
CLASS
  1
AMDTAMMENUSTATE
  2
AmdtAmMenuState
  3
DesignerAssemblies
 90
        0
280
     0
281
     0
  0
CLASS
  1
ACAMPROJECT
  2
AcAmProject
  3
DesignerAssemblies
 90
        0
280
     0
281
     0
  0
CLASS
  1
ACAMGRCOMPDEF
  2
AcAmGrCompDef
  3
DesignerAssemblies
 90
        0
280
     0
281
     0
  0
CLASS
  1
ACCMCONTEXT
  2
AcCmContext
  3
DesignerAssemblies
 90
        0
280
     0
281
     0
  0
CLASS
  1
ACAMCOMPDEF
  2
AcAmCompDef
  3
DesignerAssemblies
 90
        0
280
     0
281
     0
  0
CLASS
  1
ACAMCOMPDEFMGR
  2
AcAmCompDefMgr
  3
DesignerAssemblies
 90
        0
280
     0
281
     0
  0
CLASS
  1
AMCONTEXTMGR
  2
AcAmContextMgr
  3
DesignerAssemblies
 90
        0
280
     0
281
     0
  0
CLASS
  1
ACAMCONTEXTMODELER
  2
AcAmContextModeler
  3
DesignerAssemblies
 90
        0
280
     0
281
     0
  0
CLASS
  1
ACMDATADICTIONARY
  2
AcmDataDictionary
  3
"AcmSymBB|Product Description: AutoCAD Mechanical 2000|Company: Autodesk"
 90
        0
280
     0
281
     0
  0
CLASS
  1
ACMDATAENTRYBLOCK
  2
AcmDataEntryBlock
  3
"AcmSymBB|Product Description: AutoCAD Mechanical 2000|Company: Autodesk"
 90
        0
280
     0
281
     0
  0
CLASS
  1
CATALOGSTATE
  2
AcAmCatalogState
  3
DesignerAssemblies
 90
        0
280
     0
281
     0
  0
CLASS
  1
ACAMGRCOMPDEFSET
  2
AcAmGrCompDefSet
  3
DesignerAssemblies
 90
        0
280
     0
281
     0
  0
CLASS
  1
AMDTBROWSERDBTAB
  2
AmdtBrowserDbTab
  3
McadcomServices
 90
        0
280
     0
281
     0
  0
CLASS
  1
CBROWSERAPPOBJECT
  2
CBrowserAppObject
  3
McadcomServices
 90
        0
280
     0
281
     0
  0
CLASS
  1
DM_PLACEHOLDER
  2
AcDmSelsetPlaceholder
  3
AcMechDwgViewMgmt
 90
        0
280
     0
281
     0
  0
CLASS
  1
AMGOBJPROPCFG
  2
AmgObjPropCfg
  3
"AmgLay|Product Description: AutoCAD Mechanical 2000|Company: Autodesk"
 90
        1
280
     0
281
     0
  0
CLASS
  1
ACAMGFILTERDAT
  2
AcAmgFilterDat
  3
"AcadM|Product Description: AutoCAD Mechanical 2000|Company: Autodesk"
 90
        0
280
     0
281
     0
  0
CLASS
  1
AMDTFORMULAUPDATEDISPATCHER
  2
AmdtFormulaUpdateDispatcher
  3
AcMeServices
 90
        0
280
     0
281
     0
  0
CLASS
  1
LAYER_INDEX
  2
AcDbLayerIndex
  3
AutoCAD 2000
 90
        0
280
     0
281
     0
  0
CLASS
  1
IDBUFFER
  2
AcDbIdBuffer
  3
AutoCAD 2000
 90
        0
280
     0
281
     0
  0
CLASS
  1
DICTIONARYVAR
  2
AcDbDictionaryVar
  3
AutoCAD 2000
 90
        0
280
     0
281
     0
  0
ENDSEC
  0
SECTION
  2
TABLES
  0
TABLE
  2
VPORT
  5
8
330
0
100
AcDbSymbolTable
 70
     5
  0
VPORT
  5
277
330
8
100
AcDbSymbolTableRecord
100
AcDbViewportTableRecord
  2
*Active
 70
     0
 10
0.0
 20
0.0
 11
1.0
 21
1.0
 12
0.0
 22
0.0
 13
0.0
 23
0.0
 14
10.0
 24
10.0
 15
10.0
 25
10.0
 16
0.0
 26
0.0
 36
1.0
 17
344.805909
 27
170.6136433693248
 37
0.0
 40
323.2343034772993
 41
1.462378640776698
 42
50.0
 43
0.0
 44
0.0
 50
0.0
 51
0.0
 71
     0
 72
   100
 73
     1
 74
     0
 75
     0
 76
     0
 77
     0
 78
     0
281
     0
 65
     0
110
0.0
120
0.0
130
0.0
111
1.0
121
0.0
131
0.0
112
0.0
122
1.0
132
0.0
 79
     0
146
0.0
  0
ENDTAB
  0
TABLE
  2
LTYPE
  5
5
330
0
100
AcDbSymbolTable
 70
    16
  0
LTYPE
  5
13
330
5
100
AcDbSymbolTableRecord
100
AcDbLinetypeTableRecord
  2
ByBlock
 70
     0
  3

 72
    65
 73
     0
 40
0.0
  0
LTYPE
  5
14
330
5
100
AcDbSymbolTableRecord
100
AcDbLinetypeTableRecord
  2
ByLayer
 70
     0
  3

 72
    65
 73
     0
 40
0.0
  0
LTYPE
  5
15
330
5
100
AcDbSymbolTableRecord
100
AcDbLinetypeTableRecord
  2
CONTINUOUS
 70
     0
  3
Solid line
 72
    65
 73
     0
 40
0.0
  0
LTYPE
  5
23
330
5
100
AcDbSymbolTableRecord
100
AcDbLinetypeTableRecord
  2
CENTER
 70
     0
  3
____ _ ____ _ ____ _ ____ _ ____ _ ____ _ ____
 72
    65
 73
     4
 40
2.0
 49
1.25
 74
     0
 49
-0.25
 74
     0
 49
0.25
 74
     0
 49
-0.25
 74
     0
  0
LTYPE
  5
B4
330
5
100
AcDbSymbolTableRecord
100
AcDbLinetypeTableRecord
  2
HIDDEN
 70
     0
  3
Hidden __ __ __ __ __ __ __ __ __ __ __ __ __ _
 72
    65
 73
     2
 40
0.375
 49
0.25
 74
     0
 49
-0.125
 74
     0
  0
LTYPE
  5
B5
330
5
100
AcDbSymbolTableRecord
100
AcDbLinetypeTableRecord
  2
PHANTOM2
 70
     0
  3
Phantom (.5x) ___ _ _ ___ _ _ ___ _ _ ___ _ _
 72
    65
 73
     6
 40
1.25
 49
0.625
 74
     0
 49
-0.125
 74
     0
 49
0.125
 74
     0
 49
-0.125
 74
     0
 49
0.125
 74
     0
 49
-0.125
 74
     0
  0
LTYPE
  5
117
330
5
100
AcDbSymbolTableRecord
100
AcDbLinetypeTableRecord
  2
ASULTYPE
 70
     0
  3
実線
 72
    65
 73
     2
 40
3.0
 49
2.5
 74
     0
 49
0.5
 74
     0
  0
LTYPE
  5
118
330
5
100
AcDbSymbolTableRecord
100
AcDbLinetypeTableRecord
  2
ASVLTYPE
 70
     0
  3
__ __ __ __ __ __ __ __ __ __ __ __ __ __ __ __ __ __ __ __ __
 72
    65
 73
     2
 40
0.75
 49
0.5
 74
     0
 49
-0.25
 74
     0
  0
LTYPE
  5
159
330
5
100
AcDbSymbolTableRecord
100
AcDbLinetypeTableRecord
  2
AM_ISO02W050
 70
     0
  3
__ __ __ __ __ __ __ __ __ __ __ __ __ __ __
 72
    65
 73
     2
 40
7.5
 49
6.0
 74
     0
 49
-1.5
 74
     0
  0
LTYPE
  5
15A
330
5
100
AcDbSymbolTableRecord
100
AcDbLinetypeTableRecord
  2
AM_ISO08W050
 70
     0
  3
____ . ____ . ____ . ____ . ____ . ____ . ____
 72
    65
 73
     4
 40
18.0
 49
12.0
 74
     0
 49
-1.5
 74
     0
 49
3.0
 74
     0
 49
-1.5
 74
     0
  0
LTYPE
  5
15B
330
5
100
AcDbSymbolTableRecord
100
AcDbLinetypeTableRecord
  2
AM_ISO09W050
 70
     0
  3
_____ . . _____ . . _____ . . ____ .. ____
 72
    65
 73
     6
 40
22.5
 49
12.0
 74
     0
 49
-1.5
 74
     0
 49
3.0
 74
     0
 49
-1.5
 74
     0
 49
3.0
 74
     0
 49
-1.5
 74
     0
  0
LTYPE
  5
15C
330
5
100
AcDbSymbolTableRecord
100
AcDbLinetypeTableRecord
  2
Amconstr
 70
     0
  3
_______________________
 72
    65
 73
     2
 40
9999.0
 49
9999.0
 74
     0
 49
0.0
 74
     0
  0
LTYPE
  5
15D
330
5
100
AcDbSymbolTableRecord
100
AcDbLinetypeTableRecord
  2
AM_ISO08W050x2
 70
     0
  3
__ . __ . __ . __ . __ . __
 72
    65
 73
     4
 40
9.0
 49
6.0
 74
     0
 49
-0.75
 74
     0
 49
1.5
 74
     0
 49
-0.75
 74
     0
  0
LTYPE
  5
15E
330
5
100
AcDbSymbolTableRecord
100
AcDbLinetypeTableRecord
  2
AM_ISO02W050x2
 70
     0
  3
 _ _ _ _ _ _ _ _ _ _ _ _
 72
    65
 73
     2
 40
3.75
 49
3.0
 74
     0
 49
-0.75
 74
     0
  0
LTYPE
  5
161
330
5
100
AcDbSymbolTableRecord
100
AcDbLinetypeTableRecord
  2
Amzigzag
 70
     0
  3
/\/-/\/-/\/-/\/-/\/-/\/
 72
    65
 73
     2
 40
11.00009999999999
 49
0.0001
 74
     4
 75
   135
340
160
 46
0.04
 50
0.0
 44
0.0
 45
0.0
 49
-11.0
 74
     0
  0
LTYPE
  5
162
330
5
100
AcDbSymbolTableRecord
100
AcDbLinetypeTableRecord
  2
CENTER2
 70
     0
  3
Center (.5x) ___ _ ___ _ ___ _ ___ _ ___ _ ___
 72
    65
 73
     4
 40
1.125
 49
0.75
 74
     0
 49
-0.125
 74
     0
 49
0.125
 74
     0
 49
-0.125
 74
     0
  0
LTYPE
  5
163
330
5
100
AcDbSymbolTableRecord
100
AcDbLinetypeTableRecord
  2
HIDDEN2
 70
     0
  3
Hidden (.5x) _ _ _ _ _ _ _ _ _ _ _ _ _ _ _ _ _
 72
    65
 73
     2
 40
0.1875
 49
0.125
 74
     0
 49
-0.0625
 74
     0
  0
LTYPE
  5
164
330
5
100
AcDbSymbolTableRecord
100
AcDbLinetypeTableRecord
  2
Amzigzag2
 70
     0
  3
/\/-/\/-/\/-/\/-/\/-/\/
 72
    65
 73
     2
 40
0.4401
 49
0.0001
 74
     4
 75
   135
340
160
 46
0.0016
 50
0.0
 44
0.0
 45
0.0
 49
-0.4400000000000001
 74
     0
  0
ENDTAB
  0
TABLE
  2
LAYER
  5
2
330
0
100
AcDbSymbolTable
 70
     8
  0
LAYER
  5
10
330
2
100
AcDbSymbolTableRecord
100
AcDbLayerTableRecord
  2
0
 70
     0
 62
     7
  6
CONTINUOUS
370
    -3
390
F
  0
LAYER
  5
22
330
2
100
AcDbSymbolTableRecord
100
AcDbLayerTableRecord
  2
CONTINUOUS
 70
     0
 62
     7
  6
CONTINUOUS
370
    -3
390
F
  0
LAYER
  5
24
330
2
100
AcDbSymbolTableRecord
100
AcDbLayerTableRecord
  2
CENTER
 70
     0
 62
     1
  6
CENTER
370
    -3
390
F
  0
LAYER
  5
25
330
2
100
AcDbSymbolTableRecord
100
AcDbLayerTableRecord
  2
DIVIDE
 70
     0
 62
     2
  6
CONTINUOUS
370
    -3
390
F
  0
LAYER
  5
26
330
2
100
AcDbSymbolTableRecord
100
AcDbLayerTableRecord
  2
TEXT
 70
     0
 62
     3
  6
CONTINUOUS
370
    -3
390
F
  0
LAYER
  5
27
330
2
100
AcDbSymbolTableRecord
100
AcDbLayerTableRecord
  2
THIN
 70
     0
 62
     4
  6
CONTINUOUS
370
    -3
390
F
  0
LAYER
  5
16F
330
2
100
AcDbSymbolTableRecord
100
AcDbLayerTableRecord
  2
1
 70
     0
 62
     1
  6
CENTER
370
    -3
390
F
  0
LAYER
  5
170
330
2
100
AcDbSymbolTableRecord
100
AcDbLayerTableRecord
  2
2
 70
     0
 62
     2
  6
HIDDEN
370
    -3
390
F
  0
ENDTAB
  0
TABLE
  2
STYLE
  5
3
330
0
100
AcDbSymbolTable
 70
     3
  0
STYLE
  5
11
330
3
100
AcDbSymbolTableRecord
100
AcDbTextStyleTableRecord
  2
STANDARD
 70
     0
 40
0.0
 41
1.0
 50
0.0
 71
     0
 42
2.5
  3
ROMANS.shx
  4
EXTFONT.shx
  0
STYLE
  5
28
330
3
100
AcDbSymbolTableRecord
100
AcDbTextStyleTableRecord
  2
K
 70
     0
 40
0.0
 41
1.0
 50
15.0
 71
     0
 42
1.0
  3
ROMANS
  4
EXTFONT
  0
STYLE
  5
160
330
3
100
AcDbSymbolTableRecord
100
AcDbTextStyleTableRecord
  2

 70
     1
 40
0.0
 41
1.0
 50
0.0
 71
     0
 42
2.5
  3
ltypeshp.shx
  4

  0
ENDTAB
  0
TABLE
  2
VIEW
  5
6
330
0
100
AcDbSymbolTable
 70
     0
  0
ENDTAB
  0
TABLE
  2
UCS
  5
7
330
0
100
AcDbSymbolTable
 70
     0
  0
ENDTAB
  0
TABLE
  2
APPID
  5
9
330
0
100
AcDbSymbolTable
 70
    12
  0
APPID
  5
12
330
9
100
AcDbSymbolTableRecord
100
AcDbRegAppTableRecord
  2
ACAD
 70
     0
  0
APPID
  5
93
330
9
100
AcDbSymbolTableRecord
100
AcDbRegAppTableRecord
  2
GENIUS_GENDIM_13
 70
     0
  0
APPID
  5
94
330
9
100
AcDbSymbolTableRecord
100
AcDbRegAppTableRecord
  2
GENIUS_GENDTOL_13
 70
     0
  0
APPID
  5
95
330
9
100
AcDbSymbolTableRecord
100
AcDbRegAppTableRecord
  2
GENIUS_GE3DTOL_13
 70
     0
  0
APPID
  5
97
330
9
100
AcDbSymbolTableRecord
100
AcDbRegAppTableRecord
  2
MCAD_NO_VIS
 70
     0
  0
APPID
  5
98
330
9
100
AcDbSymbolTableRecord
100
AcDbRegAppTableRecord
  2
ACAD_TEMP_GRAPHIC
 70
     0
  0
APPID
  5
CA
330
9
100
AcDbSymbolTableRecord
100
AcDbRegAppTableRecord
  2
AD_DRAW
 70
     0
  0
APPID
  5
CD
330
9
100
AcDbSymbolTableRecord
100
AcDbRegAppTableRecord
  2
ACATTRIBSERVICES
 70
     0
  0
APPID
  5
119
330
9
100
AcDbSymbolTableRecord
100
AcDbRegAppTableRecord
  2
ASURF_PCURVE_APPNAME
 70
     0
  0
APPID
  5
148
330
9
100
AcDbSymbolTableRecord
100
AcDbRegAppTableRecord
  2
DESIGNERASSEMBLIES
 70
     0
  0
APPID
  5
150
330
9
100
AcDbSymbolTableRecord
100
AcDbRegAppTableRecord
  2
ACADM_DIM_EDIT
 70
     0
  0
APPID
  5
151
330
9
100
AcDbSymbolTableRecord
100
AcDbRegAppTableRecord
  2
AMDT_DM_ADJ
 70
     0
  0
ENDTAB
  0
TABLE
  2
DIMSTYLE
  5
A
330
0
100
AcDbSymbolTable
 70
     2
100
AcDbDimStyleTable
 71
     0
  0
DIMSTYLE
105
29
330
A
100
AcDbSymbolTableRecord
100
AcDbDimStyleTableRecord
  2
ITM
 70
     0
 41
1.5
 42
1.0
 43
6.0
 44
1.0
 47
495.0
 73
     0
 74
     0
 77
     3
 78
     8
140
3.0
141
0.0
147
0.5
172
     1
173
     1
174
     1
271
     2
272
     2
279
     2
284
     8
285
     8
286
     8
340
11
  0
DIMSTYLE
105
171
330
A
100
AcDbSymbolTableRecord
100
AcDbDimStyleTableRecord
  2
STANDARD
 70
     0
279
     2
340
11
  0
ENDTAB
  0
TABLE
  2
BLOCK_RECORD
  5
1
330
0
100
AcDbSymbolTable
 70
     2
  0
BLOCK_RECORD
  5
1E
102
{ACAD_XDICTIONARY
360
266
102
}
330
1
100
AcDbSymbolTableRecord
100
AcDbBlockTableRecord
  2
*Model_Space
340
21
  0
BLOCK_RECORD
  5
1A
330
1
100
AcDbSymbolTableRecord
100
AcDbBlockTableRecord
  2
*Paper_Space
340
1D
  0
BLOCK_RECORD
  5
13F
330
1
100
AcDbSymbolTableRecord
100
AcDbBlockTableRecord
  2
*U0
340
0
  0
ENDTAB
  0
ENDSEC
  0
SECTION
  2
BLOCKS
  0
BLOCK
  5
1F
330
1E
100
AcDbEntity
  8
0
100
AcDbBlockBegin
  2
*Model_Space
 70
     0
 10
0.0
 20
0.0
 30
0.0
  3
*Model_Space
  1

  0
ENDBLK
  5
20
330
1E
100
AcDbEntity
  8
0
100
AcDbBlockEnd
  0
BLOCK
  5
1B
330
1A
100
AcDbEntity
 67
     1
  8
0
100
AcDbBlockBegin
  2
*Paper_Space
 70
     0
 10
0.0
 20
0.0
 30
0.0
  3
*Paper_Space
  1

  0
ENDBLK
  5
1C
330
1A
100
AcDbEntity
 67
     1
  8
0
100
AcDbBlockEnd
  0
BLOCK
  5
140
330
13F
100
AcDbEntity
  8
0
100
AcDbBlockBegin
  2
*U0
 70
     1
 10
0.0
 20
0.0
 30
0.0
  3
*U0
  1

  0
ENDBLK
  5
141
330
13F
100
AcDbEntity
  8
0
100
AcDbBlockEnd
  0
ENDSEC
  0
SECTION
  2
ENTITIES
  0
LINE
  5
2D
330
1E
100
AcDbEntity
  8
CENTER
100
AcDbLine
 10
344.800765
 20
108.4450979999999
 30
0.0
 11
344.800765
 21
150.949081
 31
0.0
  0
LINE
  5
2E
330
1E
100
AcDbEntity
  8
CONTINUOUS
100
AcDbLine
 10
352.800765
 20
132.949081
 30
0.0
 11
352.800765
 21
142.949081
 31
0.0
  0
LINE
  5
2F
330
1E
100
AcDbEntity
  8
THIN
100
AcDbLine
 10
351.800765
 20
139.949081
 30
0.0
 11
351.800765
 21
132.949081
 31
0.0
  0
LINE
  5
30
330
1E
100
AcDbEntity
  8
THIN
100
AcDbLine
 10
337.800765
 20
132.949081
 30
0.0
 11
337.800765
 21
139.949081
 31
0.0
  0
LINE
  5
31
330
1E
100
AcDbEntity
  8
CONTINUOUS
100
AcDbLine
 10
336.800765
 20
142.949081
 30
0.0
 11
336.800765
 21
132.949081
 31
0.0
  0
ARC
  5
34
330
1E
100
AcDbEntity
  8
CONTINUOUS
100
AcDbCircle
 10
356.4468299999999
 20
121.3813389999999
 30
0.0
 40
11.573046
100
AcDbArc
 50
88.26526800000001
 51
114.0578929999999
  0
LINE
  5
35
330
1E
100
AcDbEntity
  8
CONTINUOUS
100
AcDbLine
 10
356.797171
 20
132.949081
 30
0.0
 11
332.8043579999999
 21
132.949081
 31
0.0
  0
LINE
  5
36
330
1E
100
AcDbEntity
  8
CONTINUOUS
100
AcDbLine
 10
332.8043579999999
 20
124.949081
 30
0.0
 11
356.797171
 21
124.949081
 31
0.0
  0
ARC
  5
37
330
1E
100
AcDbEntity
  8
CONTINUOUS
100
AcDbCircle
 10
356.4468299999999
 20
136.5168229999999
 30
0.0
 40
11.573046
100
AcDbArc
 50
245.9421069999999
 51
271.734732
  0
LINE
  5
38
330
1E
100
AcDbEntity
  8
CONTINUOUS
100
AcDbLine
 10
348.800765
 20
111.549081
 30
0.0
 11
348.800765
 21
116.949081
 31
0.0
  0
LINE
  5
39
330
1E
100
AcDbEntity
  8
CONTINUOUS
100
AcDbLine
 10
340.800765
 20
116.949081
 30
0.0
 11
340.800765
 21
111.549081
 31
0.0
  0
LINE
  5
3A
330
1E
100
AcDbEntity
  8
CONTINUOUS
100
AcDbLine
 10
348.300765
 20
109.749081
 30
0.0
 11
348.800765
 21
111.549081
 31
0.0
  0
LINE
  5
3B
330
1E
100
AcDbEntity
  8
CONTINUOUS
100
AcDbLine
 10
340.800765
 20
111.549081
 30
0.0
 11
348.800765
 21
111.549081
 31
0.0
  0
LINE
  5
3C
330
1E
100
AcDbEntity
  8
CONTINUOUS
100
AcDbLine
 10
340.800765
 20
111.549081
 30
0.0
 11
341.300765
 21
109.749081
 31
0.0
  0
ARC
  5
3D
330
1E
100
AcDbEntity
  8
CONTINUOUS
100
AcDbCircle
 10
344.800765
 20
117.005331
 30
0.0
 40
8.05625
100
AcDbArc
 50
244.249997
 51
295.7500029999999
  0
LINE
  5
3E
330
1E
100
AcDbEntity
  8
CONTINUOUS
100
AcDbLine
 10
341.300765
 20
109.749081
 30
0.0
 11
348.300765
 21
109.749081
 31
0.0
  0
ARC
  5
3F
330
1E
100
AcDbEntity
  8
CONTINUOUS
100
AcDbCircle
 10
344.800765
 20
108.449081
 30
0.0
 40
24.5
100
AcDbArc
 50
73.57357900000001
 51
106.4264209999999
  0
ARC
  5
40
330
1E
100
AcDbEntity
  8
CONTINUOUS
100
AcDbCircle
 10
344.800765
 20
149.449081
 30
0.0
 40
24.5
100
AcDbArc
 50
253.5735789999999
 51
286.4264209999999
  0
LINE
  5
41
330
1E
100
AcDbEntity
  8
CONTINUOUS
100
AcDbLine
 10
337.800765
 20
116.949081
 30
0.0
 11
351.800765
 21
116.949081
 31
0.0
  0
LINE
  5
42
330
1E
100
AcDbEntity
  8
CONTINUOUS
100
AcDbLine
 10
352.800765
 20
117.949081
 30
0.0
 11
336.800765
 21
117.949081
 31
0.0
  0
LINE
  5
43
330
1E
100
AcDbEntity
  8
CONTINUOUS
100
AcDbLine
 10
337.872562
 20
131.949081
 30
0.0
 11
337.872562
 21
125.949081
 31
0.0
  0
LINE
  5
44
330
1E
100
AcDbEntity
  8
CONTINUOUS
100
AcDbLine
 10
330.944358
 20
131.949081
 30
0.0
 11
330.944358
 21
125.949081
 31
0.0
  0
ARC
  5
45
330
1E
100
AcDbEntity
  8
CONTINUOUS
100
AcDbCircle
 10
333.1547
 20
136.5168229999999
 30
0.0
 40
11.573046
100
AcDbArc
 50
268.265268
 51
294.057893
  0
LINE
  5
46
330
1E
100
AcDbEntity
  8
CONTINUOUS
100
AcDbLine
 10
332.8043579999999
 20
124.949081
 30
0.0
 11
330.944358
 21
125.949081
 31
0.0
  0
LINE
  5
47
330
1E
100
AcDbEntity
  8
THIN
100
AcDbLine
 10
337.800765
 20
116.949081
 30
0.0
 11
337.800765
 21
124.949081
 31
0.0
  0
LINE
  5
48
330
1E
100
AcDbEntity
  8
CONTINUOUS
100
AcDbLine
 10
336.800765
 20
124.949081
 30
0.0
 11
336.800765
 21
117.949081
 31
0.0
  0
LINE
  5
49
330
1E
100
AcDbEntity
  8
CONTINUOUS
100
AcDbLine
 10
336.800765
 20
117.949081
 30
0.0
 11
337.800765
 21
116.949081
 31
0.0
  0
ARC
  5
4A
330
1E
100
AcDbEntity
  8
CONTINUOUS
100
AcDbCircle
 10
333.1547
 20
121.3813389999999
 30
0.0
 40
11.573046
100
AcDbArc
 50
65.94210699999999
 51
91.73473199999998
  0
LINE
  5
4B
330
1E
100
AcDbEntity
  8
CONTINUOUS
100
AcDbLine
 10
332.8043579999999
 20
132.949081
 30
0.0
 11
330.944358
 21
131.949081
 31
0.0
  0
LINE
  5
4C
330
1E
100
AcDbEntity
  8
CONTINUOUS
100
AcDbLine
 10
351.728968
 20
131.949081
 30
0.0
 11
351.728968
 21
125.949081
 31
0.0
  0
LINE
  5
4D
330
1E
100
AcDbEntity
  8
THIN
100
AcDbLine
 10
351.800765
 20
124.949081
 30
0.0
 11
351.800765
 21
116.949081
 31
0.0
  0
LINE
  5
4E
330
1E
100
AcDbEntity
  8
CONTINUOUS
100
AcDbLine
 10
352.800765
 20
117.949081
 30
0.0
 11
352.800765
 21
124.949081
 31
0.0
  0
LINE
  5
4F
330
1E
100
AcDbEntity
  8
CONTINUOUS
100
AcDbLine
 10
351.800765
 20
116.949081
 30
0.0
 11
352.800765
 21
117.949081
 31
0.0
  0
LINE
  5
50
330
1E
100
AcDbEntity
  8
CONTINUOUS
100
AcDbLine
 10
358.657171
 20
125.949081
 30
0.0
 11
358.657171
 21
131.949081
 31
0.0
  0
LINE
  5
51
330
1E
100
AcDbEntity
  8
CONTINUOUS
100
AcDbLine
 10
356.797171
 20
124.949081
 30
0.0
 11
358.657171
 21
125.949081
 31
0.0
  0
LINE
  5
52
330
1E
100
AcDbEntity
  8
CONTINUOUS
100
AcDbLine
 10
356.797171
 20
132.949081
 30
0.0
 11
358.657171
 21
131.949081
 31
0.0
  0
POLYLINE
  5
53
330
1E
100
AcDbEntity
  8
CONTINUOUS
100
AcDb2dPolyline
 66
     1
 10
0.0
 20
0.0
 30
0.0
 70
     1
  0
VERTEX
  5
54
330
53
100
AcDbEntity
  8
CONTINUOUS
100
AcDbVertex
100
AcDb2dVertex
 10
337.872562
 20
236.8177119999999
 30
0.0
  0
VERTEX
  5
55
330
53
100
AcDbEntity
  8
CONTINUOUS
100
AcDbVertex
100
AcDb2dVertex
 10
330.944358
 20
224.817712
 30
0.0
  0
VERTEX
  5
56
330
53
100
AcDbEntity
  8
CONTINUOUS
100
AcDbVertex
100
AcDb2dVertex
 10
337.872562
 20
212.817712
 30
0.0
  0
VERTEX
  5
57
330
53
100
AcDbEntity
  8
CONTINUOUS
100
AcDbVertex
100
AcDb2dVertex
 10
351.728968
 20
212.817712
 30
0.0
  0
VERTEX
  5
58
330
53
100
AcDbEntity
  8
CONTINUOUS
100
AcDbVertex
100
AcDb2dVertex
 10
358.657171
 20
224.817712
 30
0.0
  0
VERTEX
  5
59
330
53
100
AcDbEntity
  8
CONTINUOUS
100
AcDbVertex
100
AcDb2dVertex
 10
351.728968
 20
236.8177119999999
 30
0.0
  0
SEQEND
  5
5A
330
53
100
AcDbEntity
  8
CONTINUOUS
  0
CIRCLE
  5
5B
330
1E
100
AcDbEntity
  8
CONTINUOUS
100
AcDbCircle
 10
344.800765
 20
224.817712
 30
0.0
 40
12.0
  0
CIRCLE
  5
5C
330
1E
100
AcDbEntity
  8
CONTINUOUS
100
AcDbCircle
 10
344.800765
 20
224.817712
 30
0.0
 40
9.5
  0
CIRCLE
  5
5D
330
1E
100
AcDbEntity
  8
CONTINUOUS
100
AcDbCircle
 10
344.800765
 20
224.817712
 30
0.0
 40
4.0
  0
CIRCLE
  5
5E
330
1E
100
AcDbEntity
  8
THIN
100
AcDbCircle
 10
344.800765
 20
224.817712
 30
0.0
 40
3.399999999999999
  0
POLYLINE
  5
5F
330
1E
100
AcDbEntity
  8
CONTINUOUS
100
AcDb2dPolyline
 66
     1
 10
0.0
 20
0.0
 30
0.0
 70
     1
  0
VERTEX
  5
60
330
5F
100
AcDbEntity
  8
CONTINUOUS
100
AcDbVertex
100
AcDb2dVertex
 10
339.315937
 20
234.317712
 30
0.0
  0
VERTEX
  5
61
330
5F
100
AcDbEntity
  8
CONTINUOUS
100
AcDbVertex
100
AcDb2dVertex
 10
333.83111
 20
224.817712
 30
0.0
  0
VERTEX
  5
62
330
5F
100
AcDbEntity
  8
CONTINUOUS
100
AcDbVertex
100
AcDb2dVertex
 10
339.315937
 20
215.317712
 30
0.0
  0
VERTEX
  5
63
330
5F
100
AcDbEntity
  8
CONTINUOUS
100
AcDbVertex
100
AcDb2dVertex
 10
350.285592
 20
215.317712
 30
0.0
  0
VERTEX
  5
64
330
5F
100
AcDbEntity
  8
CONTINUOUS
100
AcDbVertex
100
AcDb2dVertex
 10
355.7704199999999
 20
224.817712
 30
0.0
  0
VERTEX
  5
65
330
5F
100
AcDbEntity
  8
CONTINUOUS
100
AcDbVertex
100
AcDb2dVertex
 10
350.285592
 20
234.317712
 30
0.0
  0
SEQEND
  5
66
330
5F
100
AcDbEntity
  8
CONTINUOUS
  0
LINE
  5
67
330
1E
100
AcDbEntity
  8
CENTER
100
AcDbLine
 10
344.800765
 20
237.817712
 30
0.0
 11
344.800765
 21
211.8177119999999
 31
0.0
  0
LINE
  5
6C
330
1E
100
AcDbEntity
  8
CONTINUOUS
100
AcDbLine
 10
354.02042
 20
150.949081
 30
0.0
 11
335.58111
 21
150.949081
 31
0.0
  0
ARC
  5
6D
330
1E
100
AcDbEntity
  8
CONTINUOUS
100
AcDbCircle
 10
344.800765
 20
135.4074139999999
 30
0.0
 40
15.541667
100
AcDbArc
 50
69.33452199999999
 51
110.665478
  0
ARC
  5
6E
330
1E
100
AcDbEntity
  8
CONTINUOUS
100
AcDbCircle
 10
344.800765
 20
158.490747
 30
0.0
 40
15.541667
100
AcDbArc
 50
249.334522
 51
290.665478
  0
LINE
  5
6F
330
1E
100
AcDbEntity
  8
CONTINUOUS
100
AcDbLine
 10
335.58111
 20
142.949081
 30
0.0
 11
354.02042
 21
142.949081
 31
0.0
  0
LINE
  5
70
330
1E
100
AcDbEntity
  8
CONTINUOUS
100
AcDbLine
 10
336.800765
 20
139.949081
 30
0.0
 11
352.800765
 21
139.949081
 31
0.0
  0
LINE
  5
71
330
1E
100
AcDbEntity
  8
CONTINUOUS
100
AcDbLine
 10
339.315937
 20
149.949081
 30
0.0
 11
339.315937
 21
143.949081
 31
0.0
  0
LINE
  5
72
330
1E
100
AcDbEntity
  8
CONTINUOUS
100
AcDbLine
 10
333.83111
 20
149.949081
 30
0.0
 11
333.83111
 21
143.949081
 31
0.0
  0
LINE
  5
73
330
1E
100
AcDbEntity
  8
CONTINUOUS
100
AcDbLine
 10
335.58111
 20
142.949081
 30
0.0
 11
333.83111
 21
143.949081
 31
0.0
  0
ARC
  5
74
330
1E
100
AcDbEntity
  8
CONTINUOUS
100
AcDbCircle
 10
335.2200349999999
 20
151.772103
 30
0.0
 40
8.830407000000001
100
AcDbArc
 50
272.343477
 51
297.635223
  0
LINE
  5
75
330
1E
100
AcDbEntity
  8
THIN
100
AcDbLine
 10
337.800765
 20
139.949081
 30
0.0
 11
336.800765
 21
141.681132
 31
0.0
  0
ARC
  5
76
330
1E
100
AcDbEntity
  8
CONTINUOUS
100
AcDbCircle
 10
335.2200349999999
 20
142.1260589999999
 30
0.0
 40
8.830407000000001
100
AcDbArc
 50
62.36477700000001
 51
87.65652299999999
  0
LINE
  5
77
330
1E
100
AcDbEntity
  8
CONTINUOUS
100
AcDbLine
 10
335.58111
 20
150.949081
 30
0.0
 11
333.83111
 21
149.949081
 31
0.0
  0
LINE
  5
78
330
1E
100
AcDbEntity
  8
CONTINUOUS
100
AcDbLine
 10
355.7704199999999
 20
143.949081
 30
0.0
 11
355.7704199999999
 21
149.949081
 31
0.0
  0
LINE
  5
79
330
1E
100
AcDbEntity
  8
CONTINUOUS
100
AcDbLine
 10
350.285592
 20
149.949081
 30
0.0
 11
350.285592
 21
143.949081
 31
0.0
  0
LINE
  5
7A
330
1E
100
AcDbEntity
  8
CONTINUOUS
100
AcDbLine
 10
354.02042
 20
142.949081
 30
0.0
 11
355.7704199999999
 21
143.949081
 31
0.0
  0
ARC
  5
7B
330
1E
100
AcDbEntity
  8
CONTINUOUS
100
AcDbCircle
 10
354.381495
 20
151.772103
 30
0.0
 40
8.830407000000001
100
AcDbArc
 50
242.364777
 51
267.656523
  0
LINE
  5
7C
330
1E
100
AcDbEntity
  8
THIN
100
AcDbLine
 10
351.800765
 20
139.949081
 30
0.0
 11
352.800765
 21
141.681132
 31
0.0
  0
ARC
  5
80
330
1E
100
AcDbEntity
  8
CONTINUOUS
100
AcDbCircle
 10
354.381495
 20
142.1260589999999
 30
0.0
 40
8.830407000000001
100
AcDbArc
 50
92.34347700000002
 51
117.6352229999999
  0
LINE
  5
81
330
1E
100
AcDbEntity
  8
CONTINUOUS
100
AcDbLine
 10
354.02042
 20
150.949081
 30
0.0
 11
355.7704199999999
 21
149.949081
 31
0.0
  0
LINE
  5
8E
330
1E
100
AcDbEntity
  8
CENTER
100
AcDbLine
 10
329.944358
 20
224.817712
 30
0.0
 11
359.657171
 21
224.817712
 31
0.0
  0
LINE
  5
1D2
330
1E
100
AcDbEntity
  8
2
100
AcDbLine
 10
348.1242649999999
 20
152.1490809999999
 30
0.0
 11
341.4772649999998
 21
152.1490809999999
 31
0.0
  0
LINE
  5
1D3
330
1E
100
AcDbEntity
  8
2
100
AcDbLine
 10
341.4772649999997
 20
175.9490809999999
 30
0.0
 11
348.124265
 21
175.9490809999999
 31
0.0
  0
LINE
  5
1D4
330
1E
100
AcDbEntity
  8
2
100
AcDbLine
 10
340.8007649999999
 20
170.9490809999999
 30
0.0
 11
348.8007649999999
 21
170.9490809999999
 31
0.0
  0
LINE
  5
1D5
330
1E
100
AcDbEntity
  8
2
100
AcDbLine
 10
341.4772649999997
 20
175.9490809999999
 30
0.0
 11
344.8007649999999
 21
177.9460412673381
 31
0.0
  0
LINE
  5
1D6
330
1E
100
AcDbEntity
  8
0
100
AcDbLine
 10
350.8007649999999
 20
150.9490809999999
 30
0.0
 11
338.8007649999999
 21
150.9490809999999
 31
0.0
  0
ARC
  5
1D7
330
1E
100
AcDbEntity
  8
0
100
AcDbCircle
 10
344.8007649999998
 20
-93.11341900000213
 30
0.0
 40
281.5625000000021
100
AcDbArc
 50
83.62206447328716
 51
96.37793552671283
  0
LINE
  5
1D8
330
1E
100
AcDbEntity
  8
0
100
AcDbLine
 10
351.5507649999999
 20
151.2490809999999
 30
0.0
 11
338.0507649999998
 21
151.2490809999999
 31
0.0
  0
ARC
  5
1D9
330
1E
100
AcDbEntity
  8
0
100
AcDbCircle
 10
344.8007649999999
 20
7.617711999999926
 30
0.0
 40
225.7000000000001
100
AcDbArc
 50
82.01644385444486
 51
97.98355614555513
  0
ARC
  5
1DA
330
1E
100
AcDbEntity
  8
0
100
AcDbCircle
 10
344.800765
 20
442.0177120000006
 30
0.0
 40
225.7000000000005
100
AcDbArc
 50
262.0164438544448
 51
277.9835561455551
  0
LINE
  5
1DB
330
1E
100
AcDbEntity
  8
2
100
AcDbLine
 10
350.5507649999998
 20
233.067712
 30
0.0
 11
339.0507649999999
 21
233.067712
 31
0.0
  0
LINE
  5
1DC
330
1E
100
AcDbEntity
  8
2
100
AcDbLine
 10
350.5507649999998
 20
216.567712
 30
0.0
 11
339.0507649999999
 21
216.567712
 31
0.0
  0
LINE
  5
1DD
330
1E
100
AcDbEntity
  8
2
100
AcDbLine
 10
341.4772649999997
 20
152.1490809999999
 30
0.0
 11
341.4772649999997
 21
175.9490809999999
 31
0.0
  0
LINE
  5
1DE
330
1E
100
AcDbEntity
  8
2
100
AcDbLine
 10
340.8007649999999
 20
151.472581
 30
0.0
 11
340.8007649999999
 21
170.9490809999999
 31
0.0
  0
LINE
  5
1DF
330
1E
100
AcDbEntity
  8
0
100
AcDbLine
 10
336.5507649999999
 20
170.5533179854783
 30
0.0
 11
336.5507649999999
 21
152.7490809999999
 31
0.0
  0
ARC
  5
1E0
330
1E
100
AcDbEntity
  8
0
100
AcDbCircle
 10
338.0507649999998
 20
152.7490809999999
 30
0.0
 40
1.5
100
AcDbArc
 50
180.0
 51
270.0
  0
LINE
  5
1E1
330
1E
100
AcDbEntity
  8
2
100
AcDbLine
 10
341.4772649999998
 20
152.1490809999999
 30
0.0
 11
340.2772649999998
 21
150.9490809999999
 31
0.0
  0
LINE
  5
1E2
330
1E
100
AcDbEntity
  8
0
100
AcDbLine
 10
338.8007649999999
 20
151.2490809999999
 30
0.0
 11
338.8007649999999
 21
150.9490809999999
 31
0.0
  0
ARC
  5
1E3
330
1E
100
AcDbEntity
  8
0
100
AcDbCircle
 10
313.8007649999999
 20
184.2218995338101
 30
0.0
 40
2.5
100
AcDbArc
 50
96.37793552671119
 51
180.0
  0
ARC
  5
1E4
330
1E
100
AcDbEntity
  8
0
100
AcDbCircle
 10
313.8007649999999
 20
178.2524852913112
 30
0.0
 40
2.5
100
AcDbArc
 50
180.0
 51
276.2652189532796
  0
LINE
  5
1E5
330
1E
100
AcDbEntity
  8
0
100
AcDbLine
 10
311.3007649999998
 20
178.2524852913112
 30
0.0
 11
311.3007649999998
 21
184.2218995338101
 31
0.0
  0
ARC
  5
1E6
330
1E
100
AcDbEntity
  8
0
100
AcDbCircle
 10
330.0507649999998
 20
170.5533179854783
 30
0.0
 40
6.5
100
AcDbArc
 50
0.0
 51
93.07391338503382
  0
LINE
  5
1E7
330
1E
100
AcDbEntity
  8
2
100
AcDbLine
 10
340.8007649999999
 20
170.9490809999999
 30
0.0
 11
341.4772649999998
 21
172.1208133713201
 31
0.0
  0
ARC
  5
1E8
330
1E
100
AcDbEntity
  8
0
100
AcDbCircle
 10
344.8007649999998
 20
-104.1134190000021
 30
0.0
 40
281.5625000000021
100
AcDbArc
 50
93.07391338503382
 51
96.26521895327957
  0
ARC
  5
1E9
330
1E
100
AcDbEntity
  8
0
100
AcDbCircle
 10
313.800765
 20
228.654451027701
 30
0.0
 40
2.5
100
AcDbArc
 50
97.98355614555513
 51
179.9999999999983
  0
ARC
  5
1EA
330
1E
100
AcDbEntity
  8
0
100
AcDbCircle
 10
313.800765
 20
220.9809729722989
 30
0.0
 40
2.5
100
AcDbArc
 50
179.9999999999983
 51
262.0164438544448
  0
LINE
  5
1EB
330
1E
100
AcDbEntity
  8
0
100
AcDbLine
 10
311.3007649999998
 20
220.9809729722989
 30
0.0
 11
311.3007649999998
 21
228.654451027701
 31
0.0
  0
ARC
  5
1EC
330
1E
100
AcDbEntity
  8
2
100
AcDbCircle
 10
339.0507649999999
 20
230.5677119999999
 30
0.0
 40
2.5
100
AcDbArc
 50
90.0
 51
180.0
  0
LINE
  5
1ED
330
1E
100
AcDbEntity
  8
2
100
AcDbLine
 10
336.550765
 20
230.5677119999999
 30
0.0
 11
336.550765
 21
219.067712
 31
0.0
  0
ARC
  5
1EE
330
1E
100
AcDbEntity
  8
2
100
AcDbCircle
 10
339.0507649999999
 20
219.067712
 30
0.0
 40
2.5
100
AcDbArc
 50
180.0
 51
270.0
  0
LINE
  5
1EF
330
1E
100
AcDbEntity
  8
2
100
AcDbLine
 10
348.8007649999999
 20
151.472581
 30
0.0
 11
348.8007649999999
 21
170.9490809999999
 31
0.0
  0
LINE
  5
1F0
330
1E
100
AcDbEntity
  8
2
100
AcDbLine
 10
348.1242649999999
 20
152.1490809999999
 30
0.0
 11
348.124265
 21
175.9490809999999
 31
0.0
  0
LINE
  5
1F1
330
1E
100
AcDbEntity
  8
1
100
AcDbLine
 10
344.8007649999999
 20
193.4490809999998
 30
0.0
 11
344.800765
 21
150.9490809999999
 31
0.0
  0
LINE
  5
1F2
330
1E
100
AcDbEntity
  8
0
100
AcDbLine
 10
353.0507649999999
 20
170.5533179854783
 30
0.0
 11
353.0507649999999
 21
152.7490809999999
 31
0.0
  0
LINE
  5
1F3
330
1E
100
AcDbEntity
  8
2
100
AcDbLine
 10
348.1242649999999
 20
152.1490809999999
 30
0.0
 11
349.3242649999999
 21
150.9490809999999
 31
0.0
  0
ARC
  5
1F4
330
1E
100
AcDbEntity
  8
0
100
AcDbCircle
 10
351.5507649999999
 20
152.7490809999999
 30
0.0
 40
1.5
100
AcDbArc
 50
270.0
 51
0.0
  0
LINE
  5
1F5
330
1E
100
AcDbEntity
  8
0
100
AcDbLine
 10
350.8007649999999
 20
151.2490809999999
 30
0.0
 11
350.8007649999999
 21
150.9490809999999
 31
0.0
  0
ARC
  5
1F6
330
1E
100
AcDbEntity
  8
0
100
AcDbCircle
 10
344.8007649999998
 20
-104.1134190000021
 30
0.0
 40
281.5625000000021
100
AcDbArc
 50
83.73477936777218
 51
86.92608661496619
  0
ARC
  5
1F7
330
1E
100
AcDbEntity
  8
0
100
AcDbCircle
 10
359.5507649999998
 20
170.5533179854783
 30
0.0
 40
6.5
100
AcDbArc
 50
86.92608661496619
 51
180.0
  0
LINE
  5
1F8
330
1E
100
AcDbEntity
  8
2
100
AcDbLine
 10
348.8007649999999
 20
170.9490809999999
 30
0.0
 11
348.1242649999999
 21
172.1208133713201
 31
0.0
  0
LINE
  5
1F9
330
1E
100
AcDbEntity
  8
2
100
AcDbLine
 10
348.124265
 20
175.9490809999999
 30
0.0
 11
344.8007649999999
 21
177.9460412673381
 31
0.0
  0
ARC
  5
1FA
330
1E
100
AcDbEntity
  8
0
100
AcDbCircle
 10
375.8007649999999
 20
184.2218995338101
 30
0.0
 40
2.5
100
AcDbArc
 50
0.0
 51
83.62206447328716
  0
LINE
  5
1FB
330
1E
100
AcDbEntity
  8
0
100
AcDbLine
 10
378.3007649999998
 20
184.2219004874844
 30
0.0
 11
378.3007649999998
 21
178.2524866400103
 31
0.0
  0
ARC
  5
1FC
330
1E
100
AcDbEntity
  8
0
100
AcDbCircle
 10
375.8007649999999
 20
178.2524852913112
 30
0.0
 40
2.5
100
AcDbArc
 50
263.734781046722
 51
0.0
  0
LINE
  5
1FD
330
1E
100
AcDbEntity
  8
2
100
AcDbLine
 10
412.7859059600401
 20
151.472581
 30
0.0
 11
412.7859059600401
 21
170.949081
 31
0.0
  0
LINE
  5
1FE
330
1E
100
AcDbEntity
  8
2
100
AcDbLine
 10
412.1094059600402
 20
152.1490809999999
 30
0.0
 11
412.1094059600402
 21
175.949081
 31
0.0
  0
LINE
  5
1FF
330
1E
100
AcDbEntity
  8
2
100
AcDbLine
 10
405.46240596004
 20
152.1490809999999
 30
0.0
 11
405.4624059600401
 21
175.949081
 31
0.0
  0
LINE
  5
200
330
1E
100
AcDbEntity
  8
2
100
AcDbLine
 10
404.7859059600402
 20
151.472581
 30
0.0
 11
404.7859059600402
 21
170.949081
 31
0.0
  0
LINE
  5
201
330
1E
100
AcDbEntity
  8
1
100
AcDbLine
 10
408.7859059600402
 20
193.4490809999998
 30
0.0
 11
408.7859059600402
 21
150.949081
 31
0.0
  0
LINE
  5
202
330
1E
100
AcDbEntity
  8
0
100
AcDbLine
 10
400.5359059600401
 20
178.4635932495936
 30
0.0
 11
400.5359059600401
 21
152.7490809999999
 31
0.0
  0
LINE
  5
203
330
1E
100
AcDbEntity
  8
0
100
AcDbLine
 10
417.0359059600401
 20
178.4635932495923
 30
0.0
 11
417.0359059600401
 21
152.7490809999999
 31
0.0
  0
LINE
  5
204
330
1E
100
AcDbEntity
  8
2
100
AcDbLine
 10
412.1094059600402
 20
152.1490809999999
 30
0.0
 11
405.4624059600401
 21
152.1490809999999
 31
0.0
  0
LINE
  5
205
330
1E
100
AcDbEntity
  8
0
100
AcDbLine
 10
414.7859059600402
 20
150.949081
 30
0.0
 11
402.7859059600402
 21
150.949081
 31
0.0
  0
LINE
  5
206
330
1E
100
AcDbEntity
  8
0
100
AcDbLine
 10
415.5359059600402
 20
151.2490809999999
 30
0.0
 11
402.0359059600401
 21
151.2490809999999
 31
0.0
  0
ARC
  5
207
330
1E
100
AcDbEntity
  8
0
100
AcDbCircle
 10
402.0359059600401
 20
152.7490809999999
 30
0.0
 40
1.5
100
AcDbArc
 50
180.0
 51
270.0
  0
LINE
  5
208
330
1E
100
AcDbEntity
  8
2
100
AcDbLine
 10
405.4624059600402
 20
152.1490809999999
 30
0.0
 11
404.2624059600401
 21
150.949081
 31
0.0
  0
LINE
  5
209
330
1E
100
AcDbEntity
  8
0
100
AcDbLine
 10
402.7859059600402
 20
151.2490809999999
 30
0.0
 11
402.7859059600402
 21
150.949081
 31
0.0
  0
ARC
  5
20A
330
1E
100
AcDbEntity
  8
0
100
AcDbCircle
 10
415.5359059600402
 20
152.7490809999999
 30
0.0
 40
1.5
100
AcDbArc
 50
270.0
 51
0.0
  0
LINE
  5
20B
330
1E
100
AcDbEntity
  8
2
100
AcDbLine
 10
412.1094059600402
 20
152.1490809999999
 30
0.0
 11
413.3094059600402
 21
150.949081
 31
0.0
  0
LINE
  5
20C
330
1E
100
AcDbEntity
  8
0
100
AcDbLine
 10
414.7859059600402
 20
151.2490809999999
 30
0.0
 11
414.7859059600402
 21
150.949081
 31
0.0
  0
LINE
  5
20D
330
1E
100
AcDbEntity
  8
2
100
AcDbLine
 10
404.7859059600402
 20
170.949081
 30
0.0
 11
412.7859059600401
 21
170.949081
 31
0.0
  0
LINE
  5
20E
330
1E
100
AcDbEntity
  8
2
100
AcDbLine
 10
404.7859059600402
 20
170.949081
 30
0.0
 11
405.4624059600402
 21
172.1208133713202
 31
0.0
  0
LINE
  5
20F
330
1E
100
AcDbEntity
  8
2
100
AcDbLine
 10
412.7859059600401
 20
170.949081
 30
0.0
 11
412.1094059600402
 21
172.1208133713202
 31
0.0
  0
LINE
  5
210
330
1E
100
AcDbEntity
  8
0
100
AcDbLine
 10
405.2859059600402
 20
186.449081
 30
0.0
 11
412.2859059600401
 21
186.449081
 31
0.0
  0
LINE
  5
211
330
1E
100
AcDbEntity
  8
0
100
AcDbLine
 10
405.28590596004
 20
175.7524852913113
 30
0.0
 11
412.2859059600401
 21
175.7524852913113
 31
0.0
  0
LINE
  5
212
330
1E
100
AcDbEntity
  8
0
100
AcDbLine
 10
402.7859059600402
 20
188.449081
 30
0.0
 11
414.7859059600402
 21
188.449081
 31
0.0
  0
LINE
  5
213
330
1E
100
AcDbEntity
  8
2
100
AcDbLine
 10
405.4624059600401
 20
175.949081
 30
0.0
 11
412.1094059600402
 21
175.949081
 31
0.0
  0
LINE
  5
214
330
1E
100
AcDbEntity
  8
2
100
AcDbLine
 10
412.1094059600403
 20
175.949081
 30
0.0
 11
408.7859059600402
 21
177.9460412673381
 31
0.0
  0
ARC
  5
215
330
1E
100
AcDbEntity
  8
0
100
AcDbCircle
 10
405.2859059600402
 20
183.949081
 30
0.0
 40
2.5
100
AcDbArc
 50
90.0
 51
180.0
  0
LINE
  5
216
330
1E
100
AcDbEntity
  8
0
100
AcDbLine
 10
400.2859059600401
 20
185.949081
 30
0.0
 11
400.2859059600401
 21
179.5533179854784
 31
0.0
  0
ARC
  5
217
330
1E
100
AcDbEntity
  8
0
100
AcDbCircle
 10
402.7859059600402
 20
179.5533179854784
 30
0.0
 40
2.5
100
AcDbArc
 50
180.0
 51
242.5106032652545
  0
LINE
  5
218
330
1E
100
AcDbEntity
  8
0
100
AcDbLine
 10
402.7859059600402
 20
183.949081
 30
0.0
 11
402.7859059600401
 21
178.2524852913113
 31
0.0
  0
ARC
  5
219
330
1E
100
AcDbEntity
  8
0
100
AcDbCircle
 10
405.28590596004
 20
178.2524852913113
 30
0.0
 40
2.5
100
AcDbArc
 50
180.0
 51
270.0
  0
LINE
  5
21A
330
1E
100
AcDbEntity
  8
0
100
AcDbLine
 10
401.6319427037824
 20
177.3355784148328
 30
0.0
 11
404.1319427037825
 21
176.0347457206657
 31
0.0
  0
LINE
  5
21B
330
1E
100
AcDbEntity
  8
2
100
AcDbLine
 10
405.46240596004
 20
175.949081
 30
0.0
 11
408.7859059600402
 21
177.9460412673381
 31
0.0
  0
LINE
  5
21C
330
1E
100
AcDbEntity
  8
0
100
AcDbLine
 10
401.4904663314835
 20
187.3389860934386
 30
0.0
 11
403.0472964164945
 21
186.0935220254297
 31
0.0
  0
ARC
  5
21D
330
1E
100
AcDbEntity
  8
0
100
AcDbCircle
 10
402.7859059600402
 20
185.949081
 30
0.0
 40
2.5
100
AcDbArc
 50
90.0
 51
180.0
  0
ARC
  5
21E
330
1E
100
AcDbEntity
  8
0
100
AcDbCircle
 10
412.2859059600401
 20
183.949081
 30
0.0
 40
2.5
100
AcDbArc
 50
0.0
 51
90.0
  0
LINE
  5
21F
330
1E
100
AcDbEntity
  8
0
100
AcDbLine
 10
417.2859059600402
 20
185.949081
 30
0.0
 11
417.28590596004
 21
179.5533179854784
 31
0.0
  0
ARC
  5
220
330
1E
100
AcDbEntity
  8
0
100
AcDbCircle
 10
414.7859059600402
 20
179.5533179854784
 30
0.0
 40
2.5
100
AcDbArc
 50
297.4894515748463
 51
0.0
  0
LINE
  5
221
330
1E
100
AcDbEntity
  8
0
100
AcDbLine
 10
414.7859059600402
 20
183.949081
 30
0.0
 11
414.7859059600402
 21
178.2524852913113
 31
0.0
  0
ARC
  5
222
330
1E
100
AcDbEntity
  8
0
100
AcDbCircle
 10
412.2859059600401
 20
178.2524852913113
 30
0.0
 40
2.5
100
AcDbArc
 50
270.0
 51
0.0
  0
LINE
  5
223
330
1E
100
AcDbEntity
  8
0
100
AcDbLine
 10
415.9398692162978
 20
177.3355784148328
 30
0.0
 11
413.4398692162977
 21
176.0347457206657
 31
0.0
  0
ARC
  5
224
330
1E
100
AcDbEntity
  8
0
100
AcDbCircle
 10
414.7859059600402
 20
185.949081
 30
0.0
 40
2.5
100
AcDbArc
 50
0.0
 51
90.0
  0
LINE
  5
225
330
1E
100
AcDbEntity
  8
0
100
AcDbLine
 10
414.5245155035846
 20
186.0935220254287
 30
0.0
 11
416.0813455885932
 21
187.3389860934356
 31
0.0
  0
ARC
  5
227
330
1E
100
AcDbEntity
  8
2
100
AcDbCircle
 10
350.5507649999998
 20
230.5677119999999
 30
0.0
 40
2.5
100
AcDbArc
 50
0.0
 51
90.0
  0
LINE
  5
228
330
1E
100
AcDbEntity
  8
2
100
AcDbLine
 10
353.050765
 20
230.5677119999999
 30
0.0
 11
353.050765
 21
219.067712
 31
0.0
  0
ARC
  5
229
330
1E
100
AcDbEntity
  8
2
100
AcDbCircle
 10
350.5507649999998
 20
219.067712
 30
0.0
 40
2.5
100
AcDbArc
 50
270.0
 51
0.0
  0
LINE
  5
22A
330
1E
100
AcDbEntity
  8
0
100
AcDbLine
 10
378.3007649999999
 20
228.6544510277012
 30
0.0
 11
378.3007649999999
 21
220.9809748796476
 31
0.0
  0
ARC
  5
22B
330
1E
100
AcDbEntity
  8
0
100
AcDbCircle
 10
375.800765
 20
220.9809729722989
 30
0.0
 40
2.5
100
AcDbArc
 50
277.9835561455551
 51
0.0
  0
ARC
  5
22C
330
1E
100
AcDbEntity
  8
0
100
AcDbCircle
 10
375.800765
 20
228.654451027701
 30
0.0
 40
2.5
100
AcDbArc
 50
0.0
 51
82.01644385444486
  0
LINE
  5
22E
330
1E
100
AcDbEntity
  8
CENTER
100
AcDbLine
 10
408.7859059600402
 20
108.4450979999999
 30
0.0
 11
408.7859059600402
 21
150.949081
 31
0.0
  0
LINE
  5
22F
330
1E
100
AcDbEntity
  8
CONTINUOUS
100
AcDbLine
 10
400.7859059600402
 20
142.949081
 30
0.0
 11
400.7859059600402
 21
132.949081
 31
0.0
  0
LINE
  5
230
330
1E
100
AcDbEntity
  8
THIN
100
AcDbLine
 10
401.7859059600402
 20
132.949081
 30
0.0
 11
401.7859059600402
 21
139.949081
 31
0.0
  0
LINE
  5
231
330
1E
100
AcDbEntity
  8
THIN
100
AcDbLine
 10
415.7859059600402
 20
139.949081
 30
0.0
 11
415.7859059600402
 21
132.949081
 31
0.0
  0
LINE
  5
232
330
1E
100
AcDbEntity
  8
CONTINUOUS
100
AcDbLine
 10
416.7859059600401
 20
132.949081
 30
0.0
 11
416.7859059600401
 21
142.949081
 31
0.0
  0
ARC
  5
233
330
1E
100
AcDbEntity
  8
CONTINUOUS
100
AcDbCircle
 10
420.4319709600402
 20
136.5168229999999
 30
0.0
 40
11.573046
100
AcDbArc
 50
245.9421069999999
 51
271.734732
  0
LINE
  5
234
330
1E
100
AcDbEntity
  8
CONTINUOUS
100
AcDbLine
 10
396.7894989600401
 20
124.949081
 30
0.0
 11
420.7823119600401
 21
124.949081
 31
0.0
  0
LINE
  5
235
330
1E
100
AcDbEntity
  8
CONTINUOUS
100
AcDbLine
 10
420.7823119600401
 20
132.949081
 30
0.0
 11
396.7894989600401
 21
132.949081
 31
0.0
  0
ARC
  5
236
330
1E
100
AcDbEntity
  8
CONTINUOUS
100
AcDbCircle
 10
420.4319709600402
 20
121.3813389999999
 30
0.0
 40
11.573046
100
AcDbArc
 50
88.26526800000001
 51
114.0578929999999
  0
LINE
  5
237
330
1E
100
AcDbEntity
  8
CONTINUOUS
100
AcDbLine
 10
404.7859059600402
 20
116.949081
 30
0.0
 11
404.7859059600402
 21
111.549081
 31
0.0
  0
LINE
  5
238
330
1E
100
AcDbEntity
  8
CONTINUOUS
100
AcDbLine
 10
412.7859059600401
 20
111.549081
 30
0.0
 11
412.7859059600401
 21
116.949081
 31
0.0
  0
LINE
  5
239
330
1E
100
AcDbEntity
  8
CONTINUOUS
100
AcDbLine
 10
404.7859059600402
 20
111.549081
 30
0.0
 11
412.7859059600401
 21
111.549081
 31
0.0
  0
LINE
  5
23A
330
1E
100
AcDbEntity
  8
CONTINUOUS
100
AcDbLine
 10
412.2859059600401
 20
109.749081
 30
0.0
 11
412.7859059600401
 21
111.549081
 31
0.0
  0
LINE
  5
23B
330
1E
100
AcDbEntity
  8
CONTINUOUS
100
AcDbLine
 10
404.7859059600402
 20
111.549081
 30
0.0
 11
405.2859059600402
 21
109.749081
 31
0.0
  0
LINE
  5
23C
330
1E
100
AcDbEntity
  8
CONTINUOUS
100
AcDbLine
 10
405.2859059600402
 20
109.749081
 30
0.0
 11
412.2859059600401
 21
109.749081
 31
0.0
  0
ARC
  5
23D
330
1E
100
AcDbEntity
  8
CONTINUOUS
100
AcDbCircle
 10
408.7859059600402
 20
117.005331
 30
0.0
 40
8.05625
100
AcDbArc
 50
244.249997
 51
295.7500029999999
  0
LINE
  5
23E
330
1E
100
AcDbEntity
  8
CONTINUOUS
100
AcDbLine
 10
416.7859059600401
 20
117.949081
 30
0.0
 11
400.7859059600402
 21
117.949081
 31
0.0
  0
LINE
  5
23F
330
1E
100
AcDbEntity
  8
CONTINUOUS
100
AcDbLine
 10
401.7859059600402
 20
116.949081
 30
0.0
 11
415.7859059600402
 21
116.949081
 31
0.0
  0
ARC
  5
240
330
1E
100
AcDbEntity
  8
CONTINUOUS
100
AcDbCircle
 10
408.7859059600402
 20
149.449081
 30
0.0
 40
24.5
100
AcDbArc
 50
253.5735789999999
 51
286.4264209999999
  0
ARC
  5
241
330
1E
100
AcDbEntity
  8
CONTINUOUS
100
AcDbCircle
 10
408.7859059600402
 20
108.449081
 30
0.0
 40
24.5
100
AcDbArc
 50
73.57357900000001
 51
106.4264209999999
  0
LINE
  5
242
330
1E
100
AcDbEntity
  8
CONTINUOUS
100
AcDbLine
 10
394.9294989600402
 20
131.949081
 30
0.0
 11
394.9294989600402
 21
125.949081
 31
0.0
  0
LINE
  5
243
330
1E
100
AcDbEntity
  8
CONTINUOUS
100
AcDbLine
 10
401.8577029600402
 20
131.949081
 30
0.0
 11
401.8577029600402
 21
125.949081
 31
0.0
  0
ARC
  5
244
330
1E
100
AcDbEntity
  8
CONTINUOUS
100
AcDbCircle
 10
397.1398409600402
 20
136.5168229999999
 30
0.0
 40
11.573046
100
AcDbArc
 50
268.265268
 51
294.057893
  0
LINE
  5
245
330
1E
100
AcDbEntity
  8
CONTINUOUS
100
AcDbLine
 10
396.7894989600401
 20
124.949081
 30
0.0
 11
394.9294989600402
 21
125.949081
 31
0.0
  0
LINE
  5
246
330
1E
100
AcDbEntity
  8
CONTINUOUS
100
AcDbLine
 10
400.7859059600402
 20
124.949081
 30
0.0
 11
400.7859059600402
 21
117.949081
 31
0.0
  0
LINE
  5
247
330
1E
100
AcDbEntity
  8
THIN
100
AcDbLine
 10
401.7859059600402
 20
116.949081
 30
0.0
 11
401.7859059600402
 21
124.949081
 31
0.0
  0
LINE
  5
248
330
1E
100
AcDbEntity
  8
CONTINUOUS
100
AcDbLine
 10
400.7859059600402
 20
117.949081
 30
0.0
 11
401.7859059600402
 21
116.949081
 31
0.0
  0
ARC
  5
249
330
1E
100
AcDbEntity
  8
CONTINUOUS
100
AcDbCircle
 10
397.1398409600402
 20
121.3813389999999
 30
0.0
 40
11.573046
100
AcDbArc
 50
65.94210699999999
 51
91.73473199999998
  0
LINE
  5
24A
330
1E
100
AcDbEntity
  8
CONTINUOUS
100
AcDbLine
 10
396.7894989600401
 20
132.949081
 30
0.0
 11
394.9294989600402
 21
131.949081
 31
0.0
  0
LINE
  5
24B
330
1E
100
AcDbEntity
  8
CONTINUOUS
100
AcDbLine
 10
415.7141089600401
 20
131.949081
 30
0.0
 11
415.7141089600401
 21
125.949081
 31
0.0
  0
LINE
  5
24C
330
1E
100
AcDbEntity
  8
CONTINUOUS
100
AcDbLine
 10
416.7859059600401
 20
117.949081
 30
0.0
 11
416.7859059600401
 21
124.949081
 31
0.0
  0
LINE
  5
24D
330
1E
100
AcDbEntity
  8
THIN
100
AcDbLine
 10
415.7859059600402
 20
124.949081
 30
0.0
 11
415.7859059600402
 21
116.949081
 31
0.0
  0
LINE
  5
24E
330
1E
100
AcDbEntity
  8
CONTINUOUS
100
AcDbLine
 10
415.7859059600402
 20
116.949081
 30
0.0
 11
416.7859059600401
 21
117.949081
 31
0.0
  0
LINE
  5
24F
330
1E
100
AcDbEntity
  8
CONTINUOUS
100
AcDbLine
 10
422.6423119600402
 20
125.949081
 30
0.0
 11
422.6423119600402
 21
131.949081
 31
0.0
  0
LINE
  5
250
330
1E
100
AcDbEntity
  8
CONTINUOUS
100
AcDbLine
 10
420.7823119600401
 20
124.949081
 30
0.0
 11
422.6423119600402
 21
125.949081
 31
0.0
  0
LINE
  5
251
330
1E
100
AcDbEntity
  8
CONTINUOUS
100
AcDbLine
 10
420.7823119600401
 20
132.949081
 30
0.0
 11
422.6423119600402
 21
131.949081
 31
0.0
  0
LINE
  5
252
330
1E
100
AcDbEntity
  8
CONTINUOUS
100
AcDbLine
 10
400.7859059600402
 20
139.949081
 30
0.0
 11
416.7859059600401
 21
139.949081
 31
0.0
  0
LINE
  5
253
330
1E
100
AcDbEntity
  8
CONTINUOUS
100
AcDbLine
 10
399.5662509600402
 20
142.949081
 30
0.0
 11
418.0055609600402
 21
142.949081
 31
0.0
  0
ARC
  5
254
330
1E
100
AcDbEntity
  8
CONTINUOUS
100
AcDbCircle
 10
408.7859059600402
 20
158.490747
 30
0.0
 40
15.541667
100
AcDbArc
 50
249.334522
 51
290.665478
  0
ARC
  5
255
330
1E
100
AcDbEntity
  8
CONTINUOUS
100
AcDbCircle
 10
408.7859059600402
 20
135.4074139999999
 30
0.0
 40
15.541667
100
AcDbArc
 50
69.33452199999999
 51
110.665478
  0
LINE
  5
256
330
1E
100
AcDbEntity
  8
CONTINUOUS
100
AcDbLine
 10
418.0055609600402
 20
150.949081
 30
0.0
 11
399.5662509600402
 21
150.949081
 31
0.0
  0
LINE
  5
257
330
1E
100
AcDbEntity
  8
CONTINUOUS
100
AcDbLine
 10
397.8162509600402
 20
149.949081
 30
0.0
 11
397.8162509600402
 21
143.949081
 31
0.0
  0
LINE
  5
258
330
1E
100
AcDbEntity
  8
CONTINUOUS
100
AcDbLine
 10
403.3010779600401
 20
149.949081
 30
0.0
 11
403.3010779600401
 21
143.949081
 31
0.0
  0
ARC
  5
259
330
1E
100
AcDbEntity
  8
CONTINUOUS
100
AcDbCircle
 10
399.2051759600402
 20
151.772103
 30
0.0
 40
8.830407000000001
100
AcDbArc
 50
272.343477
 51
297.635223
  0
LINE
  5
25A
330
1E
100
AcDbEntity
  8
CONTINUOUS
100
AcDbLine
 10
399.5662509600402
 20
142.949081
 30
0.0
 11
397.8162509600402
 21
143.949081
 31
0.0
  0
LINE
  5
25B
330
1E
100
AcDbEntity
  8
THIN
100
AcDbLine
 10
401.7859059600402
 20
139.949081
 30
0.0
 11
400.7859059600402
 21
141.681132
 31
0.0
  0
ARC
  5
25C
330
1E
100
AcDbEntity
  8
CONTINUOUS
100
AcDbCircle
 10
399.2051759600402
 20
142.1260589999999
 30
0.0
 40
8.830407000000001
100
AcDbArc
 50
62.36477700000001
 51
87.65652299999999
  0
LINE
  5
25D
330
1E
100
AcDbEntity
  8
CONTINUOUS
100
AcDbLine
 10
399.5662509600402
 20
150.949081
 30
0.0
 11
397.8162509600402
 21
149.949081
 31
0.0
  0
LINE
  5
25E
330
1E
100
AcDbEntity
  8
CONTINUOUS
100
AcDbLine
 10
414.2707329600402
 20
149.949081
 30
0.0
 11
414.2707329600402
 21
143.949081
 31
0.0
  0
LINE
  5
25F
330
1E
100
AcDbEntity
  8
CONTINUOUS
100
AcDbLine
 10
419.7555609600402
 20
143.949081
 30
0.0
 11
419.7555609600402
 21
149.949081
 31
0.0
  0
ARC
  5
260
330
1E
100
AcDbEntity
  8
CONTINUOUS
100
AcDbCircle
 10
418.3666359600402
 20
151.772103
 30
0.0
 40
8.830407000000001
100
AcDbArc
 50
242.364777
 51
267.656523
  0
LINE
  5
261
330
1E
100
AcDbEntity
  8
CONTINUOUS
100
AcDbLine
 10
418.0055609600402
 20
142.949081
 30
0.0
 11
419.7555609600402
 21
143.949081
 31
0.0
  0
LINE
  5
262
330
1E
100
AcDbEntity
  8
THIN
100
AcDbLine
 10
415.7859059600402
 20
139.949081
 30
0.0
 11
416.7859059600401
 21
141.681132
 31
0.0
  0
ARC
  5
263
330
1E
100
AcDbEntity
  8
CONTINUOUS
100
AcDbCircle
 10
418.3666359600402
 20
142.1260589999999
 30
0.0
 40
8.830407000000001
100
AcDbArc
 50
92.34347700000002
 51
117.6352229999999
  0
LINE
  5
264
330
1E
100
AcDbEntity
  8
CONTINUOUS
100
AcDbLine
 10
418.0055609600402
 20
150.949081
 30
0.0
 11
419.7555609600402
 21
149.949081
 31
0.0
  0
TEXT
  5
275
330
1E
100
AcDbEntity
  8
CONTINUOUS
100
AcDbText
 10
299.1438070020481
 20
85.20142717783798
 30
0.0
 40
2.5
  1
IP-6-16
100
AcDbText
  0
ENDSEC
  0
SECTION
  2
OBJECTS
  0
DICTIONARY
  5
C
330
0
100
AcDbDictionary
281
     1
  3
ACAD_GROUP
350
D
  3
ACAD_LAYOUT
350
19
  3
ACAD_MLINESTYLE
350
16
  3
ACAD_PLOTSETTINGS
350
18
  3
ACAD_PLOTSTYLENAME
350
E
  3
AcDbVariableDictionary
350
272
  3
AcmDictionary
350
149
  3
AMG
350
90
  3
AMGSNAPSETTINGS
350
166
  3
DWGPROPS
350
16E
  3
MAPISURF_MODULE
350
11C
  0
DICTIONARY
  5
266
330
1E
100
AcDbDictionary
280
     1
281
     1
  3
ACAD_INDEX
360
267
  0
DICTIONARY
  5
D
102
{ACAD_REACTORS
330
C
102
}
330
C
100
AcDbDictionary
281
     1
  0
DICTIONARY
  5
19
102
{ACAD_REACTORS
330
C
102
}
330
C
100
AcDbDictionary
281
     1
  3
Model
350
21
  3
ﾚｲｱｳﾄ1
350
1D
  0
DICTIONARY
  5
16
102
{ACAD_REACTORS
330
C
102
}
330
C
100
AcDbDictionary
281
     1
  3
Standard
350
17
  0
DICTIONARY
  5
18
102
{ACAD_REACTORS
330
C
102
}
330
C
100
AcDbDictionary
281
     1
  0
ACDBDICTIONARYWDFLT
  5
E
102
{ACAD_REACTORS
330
C
102
}
330
C
100
AcDbDictionary
281
     1
  3
Normal
350
F
100
AcDbDictionaryWithDefault
340
F
  0
DICTIONARY
  5
272
102
{ACAD_REACTORS
330
C
102
}
330
C
100
AcDbDictionary
281
     1
  3
DIMASSOC
350
274
  3
INDEXCTL
350
273
  0
DICTIONARY
  5
149
102
{ACAD_REACTORS
330
C
102
}
330
C
100
AcDbDictionary
281
     1
  3
AcmBOMDATA
350
14A
  0
DICTIONARY
  5
90
102
{ACAD_REACTORS
330
C
102
}
330
C
100
AcDbDictionary
281
     1
  3
AcMgSettings
350
91
  3
AMGLAYCFG
350
156
  0
DICTIONARY
  5
166
102
{ACAD_REACTORS
330
C
102
}
330
C
100
AcDbDictionary
281
     1
  3
DIMENSION
350
16B
  3
FEA
350
16A
  3
HATCH (1)
350
167
  3
HATCH (2)
350
168
  3
SIMPLE WELD
350
16C
  3
SYMBOLS
350
169
  0
XRECORD
  5
16E
102
{ACAD_REACTORS
330
C
102
}
330
C
100
AcDbXrecord
280
     1
  1
DWGPROPS COOKIE
  2

  3

  4

  6

  7

  8

  9

300
AmdtFileType=84
301
=
302
=
303
=
304
=
305
=
306
=
307
=
308
=
309
=
 40
0.2267685416666667
 41
2451449.221914896
 42
2454070.366585648
  1

 90
        1
  0
DICTIONARY
  5
267
102
{ACAD_REACTORS
330
266
102
}
330
266
100
AcDbDictionary
281
     1
  3
*A1
350
268
  0
LAYOUT
  5
21
102
{ACAD_REACTORS
330
19
102
}
330
19
100
AcDbPlotSettings
  1

  2
EPSON PM-3700C
  4

  6

 40
0.0
 41
0.0
 42
0.0
 43
0.0
 44
0.0
 45
0.0
 46
0.0
 47
0.0
 48
0.0
 49
0.0
140
0.0
141
0.0
142
1.0
143
1.0
 70
  1712
 72
     0
 73
     0
 74
     0
  7

 75
     0
147
1.0
148
0.0
149
0.0
100
AcDbLayout
  1
Model
 70
     1
 71
     0
 10
0.0
 20
0.0
 11
12.0
 21
9.0
 12
0.0
 22
0.0
 32
0.0
 14
0.0
 24
0.0
 34
0.0
 15
0.0
 25
0.0
 35
0.0
146
0.0
 13
0.0
 23
0.0
 33
0.0
 16
1.0
 26
0.0
 36
0.0
 17
0.0
 27
1.0
 37
0.0
 76
     0
330
1E
  0
LAYOUT
  5
1D
102
{ACAD_REACTORS
330
19
102
}
330
19
100
AcDbPlotSettings
  1

  2
EPSON PM-3700C
  4

  6

 40
0.0
 41
0.0
 42
0.0
 43
0.0
 44
0.0
 45
0.0
 46
0.0
 47
0.0
 48
0.0
 49
0.0
140
0.0
141
0.0
142
1.0
143
1.0
 70
   688
 72
     0
 73
     0
 74
     5
  7

 75
    16
147
1.0
148
0.0
149
0.0
100
AcDbLayout
  1
ﾚｲｱｳﾄ1
 70
     1
 71
     1
 10
0.0
 20
0.0
 11
420.0
 21
297.0
 12
0.0
 22
0.0
 32
0.0
 14
-1.000000000000000E+20
 24
-1.000000000000000E+20
 34
-1.000000000000000E+20
 15
1.000000000000000E+20
 25
1.000000000000000E+20
 35
1.000000000000000E+20
146
0.0
 13
0.0
 23
0.0
 33
0.0
 16
1.0
 26
0.0
 36
0.0
 17
0.0
 27
1.0
 37
0.0
 76
     0
330
1A
  0
MLINESTYLE
  5
17
102
{ACAD_REACTORS
330
16
102
}
330
16
100
AcDbMlineStyle
  2
STANDARD
 70
     0
  3

 62
   256
 51
90.0
 52
90.0
 71
     2
 49
0.5
 62
   256
  6
BYLAYER
 49
-0.5
 62
   256
  6
BYLAYER
  0
ACDBPLACEHOLDER
  5
F
102
{ACAD_REACTORS
330
E
102
}
330
E
  0
DICTIONARYVAR
  5
274
102
{ACAD_REACTORS
330
272
102
}
330
272
100
DictionaryVariables
280
     0
  1
0
  0
DICTIONARYVAR
  5
273
102
{ACAD_REACTORS
330
272
102
}
330
272
100
DictionaryVariables
280
     0
  1
1
  0
ACMDATADICTIONARY
  5
14A
102
{ACAD_REACTORS
330
149
102
}
330
149
100
AcDbDictionary
281
     1
  3
*A1
350
14B
100
AcmDataDictionary
  0
DICTIONARY
  5
91
102
{ACAD_REACTORS
330
90
102
}
330
90
100
AcDbDictionary
281
     1
  3
DWGSETTINGS
350
92
  0
ACAMGFILTERDAT
  5
16B
102
{ACAD_REACTORS
330
166
102
}
330
166
100
AcAmgFilterDat
 70
    15
  1
DIMENSION,AMDT_*_DIM
  2
*
  3
*
  4
*
  5
*
290
     1
  0
ACAMGFILTERDAT
  5
16A
102
{ACAD_REACTORS
330
166
102
}
330
166
100
AcAmgFilterDat
 70
    15
  1
*
  2
AM_FEA-AM_*
  3
*
  4
*
  5
*
290
     1
  0
ACAMGFILTERDAT
  5
167
102
{ACAD_REACTORS
330
166
102
}
330
166
100
AcAmgFilterDat
 70
    15
  1
HATCH
  2
*
  3
*
  4
*
  5
*
290
     1
  0
ACAMGFILTERDAT
  5
168
102
{ACAD_REACTORS
330
166
102
}
330
166
100
AcAmgFilterDat
 70
    15
  1
LINE
  2
8,8N,*-8,*-8N,AM_8,AM_8N,*-AM_8,*-AM_8N
  3
*
  4
*
  5
INSERT,STDPART2D
290
     1
  0
ACAMGFILTERDAT
  5
16C
102
{ACAD_REACTORS
330
166
102
}
330
166
100
AcAmgFilterDat
 70
    15
  1
ARC
  2
AM_5
  3
*
  4
2
  5
INSERT
290
     0
  0
ACAMGFILTERDAT
  5
169
102
{ACAD_REACTORS
330
166
102
}
330
166
100
AcAmgFilterDat
 70
    15
  1
ACMFCFRAME,ACMDATUMTARGET,ACMDATUMID,ACMWELDSYM,ACMSURFSYM,ACMFEATID,ACMPARTREF,ACMBALLOON,AMDTEDGESYM,AMGSCREWCALCTABLE
  2
*
  3
*
  4
*
  5
*
290
     1
  0
LAYER_INDEX
  5
268
102
{ACAD_REACTORS
330
267
102
}
330
267
100
AcDbIndex
 40
2454132.356148182
100
AcDbLayerIndex
  8
0
360
269
 90
       54
  8
CONTINUOUS
360
26A
 90
      102
  8
CENTER
360
26B
 90
        4
  8
DIVIDE
360
26C
 90
        0
  8
TEXT
360
26D
 90
        0
  8
THIN
360
26E
 90
       13
  8
1
360
26F
 90
        2
  8
2
360
270
 90
       34
  0
ACMDATAENTRYBLOCK
  5
14B
102
{ACAD_REACTORS
330
14A
102
}
330
14A
100
AcmDataEntry
100
AcmDataEntryBlock
  0
IDBUFFER
  5
269
330
0
100
AcDbIdBuffer
330
223
330
224
330
225
330
22A
330
22B
330
22C
330
1D6
330
1D7
330
1D8
330
1D9
330
1DA
330
1DF
330
1E0
330
1E2
330
1E3
330
1E4
330
1E5
330
1E6
330
1E8
330
1E9
330
1EA
330
1EB
330
1F2
330
1F4
330
1F5
330
1F6
330
1F7
330
1FA
330
1FB
330
1FC
330
202
330
203
330
205
330
206
330
207
330
209
330
20A
330
20C
330
210
330
211
330
212
330
215
330
216
330
217
330
218
330
219
330
21A
330
21C
330
21D
330
21E
330
21F
330
220
330
221
330
222
  0
IDBUFFER
  5
26A
330
0
100
AcDbIdBuffer
330
79
330
7A
330
7B
330
80
330
81
330
22F
330
232
330
233
330
234
330
235
330
236
330
237
330
238
330
239
330
23A
330
23B
330
23C
330
23D
330
23E
330
23F
330
240
330
241
330
242
330
243
330
244
330
245
330
246
330
248
330
249
330
24A
330
24B
330
24C
330
24E
330
24F
330
250
330
251
330
252
330
253
330
254
330
255
330
256
330
257
330
258
330
259
330
25A
330
25C
330
25D
330
25E
330
25F
330
260
330
261
330
263
330
264
330
275
330
2E
330
31
330
34
330
35
330
36
330
37
330
38
330
39
330
3A
330
3B
330
3C
330
3D
330
3E
330
3F
330
40
330
41
330
42
330
43
330
44
330
45
330
46
330
48
330
49
330
4A
330
4B
330
4C
330
4E
330
4F
330
50
330
51
330
52
330
53
330
5B
330
5C
330
5D
330
5F
330
6C
330
6D
330
6E
330
6F
330
70
330
71
330
72
330
73
330
74
330
76
330
77
330
78
  0
IDBUFFER
  5
26B
330
0
100
AcDbIdBuffer
330
2D
330
67
330
8E
330
22E
  0
IDBUFFER
  5
26C
330
0
100
AcDbIdBuffer
  0
IDBUFFER
  5
26D
330
0
100
AcDbIdBuffer
  0
IDBUFFER
  5
26E
330
0
100
AcDbIdBuffer
330
2F
330
30
330
47
330
4D
330
5E
330
75
330
7C
330
230
330
231
330
247
330
24D
330
25B
330
262
  0
IDBUFFER
  5
26F
330
0
100
AcDbIdBuffer
330
1F1
330
201
  0
IDBUFFER
  5
270
330
0
100
AcDbIdBuffer
330
1F8
330
1F9
330
1FD
330
1FE
330
1FF
330
200
330
204
330
208
330
20B
330
20D
330
20E
330
20F
330
213
330
214
330
21B
330
227
330
228
330
229
330
1D2
330
1D3
330
1D4
330
1D5
330
1DB
330
1DC
330
1DD
330
1DE
330
1E1
330
1E7
330
1EC
330
1ED
330
1EE
330
1EF
330
1F0
330
1F3
  0
ENDSEC
  0
EOF
