  0
SECTION
  2
HEADER
  9
$ACADVER
  1
AC1015
  9
$ACADMAINTVER
 70
    13
  9
$DWGCODEPAGE
  3
ANSI_932
  9
$INSBASE
 10
0.0
 20
0.0
 30
0.0
  9
$EXTMIN
 10
167.0423582951811
 20
69.70620681495302
 30
0.0
  9
$EXTMAX
 10
303.3536755207896
 20
177.210499
 30
0.0
  9
$LIMMIN
 10
0.0
 20
0.0
  9
$LIMMAX
 10
400.0
 20
277.0
  9
$ORTHOMODE
 70
     1
  9
$REGENMODE
 70
     1
  9
$FILLMODE
 70
     1
  9
$QTEXTMODE
 70
     0
  9
$MIRRTEXT
 70
     1
  9
$LTSCALE
 40
5.0
  9
$ATTMODE
 70
     1
  9
$TEXTSIZE
 40
2.5
  9
$TRACEWID
 40
1.0
  9
$TEXTSTYLE
  7
STANDARD
  9
$CLAYER
  8
0
  9
$CELTYPE
  6
ByLayer
  9
$CECOLOR
 62
   256
  9
$CELTSCALE
 40
1.0
  9
$DISPSILH
 70
     0
  9
$DIMSCALE
 40
1.0
  9
$DIMASZ
 40
2.5
  9
$DIMEXO
 40
1.0
  9
$DIMDLI
 40
6.0
  9
$DIMRND
 40
0.0
  9
$DIMDLE
 40
0.0
  9
$DIMEXE
 40
1.0
  9
$DIMTP
 40
495.0
  9
$DIMTM
 40
0.0
  9
$DIMTXT
 40
3.0
  9
$DIMCEN
 40
0.0
  9
$DIMTSZ
 40
0.0
  9
$DIMTOL
 70
     0
  9
$DIMLIM
 70
     0
  9
$DIMTIH
 70
     0
  9
$DIMTOH
 70
     0
  9
$DIMSE1
 70
     0
  9
$DIMSE2
 70
     0
  9
$DIMTAD
 70
     3
  9
$DIMZIN
 70
     8
  9
$DIMBLK
  1

  9
$DIMASO
 70
     0
  9
$DIMSHO
 70
     1
  9
$DIMPOST
  1

  9
$DIMAPOST
  1

  9
$DIMALT
 70
     0
  9
$DIMALTD
 70
     2
  9
$DIMALTF
 40
25.4
  9
$DIMLFAC
 40
1.0
  9
$DIMTOFL
 70
     1
  9
$DIMTVP
 40
0.0
  9
$DIMTIX
 70
     1
  9
$DIMSOXD
 70
     0
  9
$DIMSAH
 70
     0
  9
$DIMBLK1
  1

  9
$DIMBLK2
  1

  9
$DIMSTYLE
  2
ITM
  9
$DIMCLRD
 70
     0
  9
$DIMCLRE
 70
     0
  9
$DIMCLRT
 70
     0
  9
$DIMTFAC
 40
1.0
  9
$DIMGAP
 40
0.5
  9
$DIMJUST
 70
     0
  9
$DIMSD1
 70
     0
  9
$DIMSD2
 70
     0
  9
$DIMTOLJ
 70
     1
  9
$DIMTZIN
 70
     0
  9
$DIMALTZ
 70
     0
  9
$DIMALTTZ
 70
     0
  9
$DIMUPT
 70
     0
  9
$DIMDEC
 70
     4
  9
$DIMTDEC
 70
     4
  9
$DIMALTU
 70
     2
  9
$DIMALTTD
 70
     2
  9
$DIMTXSTY
  7
STANDARD
  9
$DIMAUNIT
 70
     0
  9
$DIMADEC
 70
     0
  9
$DIMALTRND
 40
0.0
  9
$DIMAZIN
 70
     0
  9
$DIMDSEP
 70
    46
  9
$DIMATFIT
 70
     3
  9
$DIMFRAC
 70
     0
  9
$DIMLDRBLK
  1

  9
$DIMLUNIT
 70
     2
  9
$DIMLWD
 70
    -2
  9
$DIMLWE
 70
    -2
  9
$DIMTMOVE
 70
     0
  9
$LUNITS
 70
     2
  9
$LUPREC
 70
     2
  9
$SKETCHINC
 40
1.0
  9
$FILLETRAD
 40
0.0
  9
$AUNITS
 70
     0
  9
$AUPREC
 70
     0
  9
$MENU
  1
.
  9
$ELEVATION
 40
0.0
  9
$PELEVATION
 40
0.0
  9
$THICKNESS
 40
0.0
  9
$LIMCHECK
 70
     0
  9
$CHAMFERA
 40
10.0
  9
$CHAMFERB
 40
10.0
  9
$CHAMFERC
 40
0.0
  9
$CHAMFERD
 40
0.0
  9
$SKPOLY
 70
     0
  9
$TDCREATE
 40
2451449.173530995
  9
$TDUCREATE
 40
2451448.798530995
  9
$TDUPDATE
 40
2454131.739349675
  9
$TDUUPDATE
 40
2454131.364349676
  9
$TDINDWG
 40
0.2398062731
  9
$TDUSRTIMER
 40
0.0030940741
  9
$USRTIMER
 70
     1
  9
$ANGBASE
 50
0.0
  9
$ANGDIR
 70
     0
  9
$PDMODE
 70
     0
  9
$PDSIZE
 40
0.0
  9
$PLINEWID
 40
0.0
  9
$SPLFRAME
 70
     0
  9
$SPLINETYPE
 70
     6
  9
$SPLINESEGS
 70
     8
  9
$HANDSEED
  5
278
  9
$SURFTAB1
 70
     6
  9
$SURFTAB2
 70
     6
  9
$SURFTYPE
 70
     6
  9
$SURFU
 70
     6
  9
$SURFV
 70
     6
  9
$UCSBASE
  2

  9
$UCSNAME
  2

  9
$UCSORG
 10
0.0
 20
0.0
 30
0.0
  9
$UCSXDIR
 10
1.0
 20
0.0
 30
0.0
  9
$UCSYDIR
 10
0.0
 20
1.0
 30
0.0
  9
$UCSORTHOREF
  2

  9
$UCSORTHOVIEW
 70
     0
  9
$UCSORGTOP
 10
0.0
 20
0.0
 30
0.0
  9
$UCSORGBOTTOM
 10
0.0
 20
0.0
 30
0.0
  9
$UCSORGLEFT
 10
0.0
 20
0.0
 30
0.0
  9
$UCSORGRIGHT
 10
0.0
 20
0.0
 30
0.0
  9
$UCSORGFRONT
 10
0.0
 20
0.0
 30
0.0
  9
$UCSORGBACK
 10
0.0
 20
0.0
 30
0.0
  9
$PUCSBASE
  2

  9
$PUCSNAME
  2

  9
$PUCSORG
 10
0.0
 20
0.0
 30
0.0
  9
$PUCSXDIR
 10
1.0
 20
0.0
 30
0.0
  9
$PUCSYDIR
 10
0.0
 20
1.0
 30
0.0
  9
$PUCSORTHOREF
  2

  9
$PUCSORTHOVIEW
 70
     0
  9
$PUCSORGTOP
 10
0.0
 20
0.0
 30
0.0
  9
$PUCSORGBOTTOM
 10
0.0
 20
0.0
 30
0.0
  9
$PUCSORGLEFT
 10
0.0
 20
0.0
 30
0.0
  9
$PUCSORGRIGHT
 10
0.0
 20
0.0
 30
0.0
  9
$PUCSORGFRONT
 10
0.0
 20
0.0
 30
0.0
  9
$PUCSORGBACK
 10
0.0
 20
0.0
 30
0.0
  9
$USERI1
 70
     3
  9
$USERI2
 70
     1
  9
$USERI3
 70
     1
  9
$USERI4
 70
     0
  9
$USERI5
 70
     0
  9
$USERR1
 40
1.0
  9
$USERR2
 40
3.0
  9
$USERR3
 40
3.0
  9
$USERR4
 40
2.5
  9
$USERR5
 40
10.0
  9
$WORLDVIEW
 70
     1
  9
$SHADEDGE
 70
     3
  9
$SHADEDIF
 70
    70
  9
$TILEMODE
 70
     1
  9
$MAXACTVP
 70
    16
  9
$PINSBASE
 10
0.0
 20
0.0
 30
0.0
  9
$PLIMCHECK
 70
     0
  9
$PEXTMIN
 10
-1.000000000000000E+20
 20
-1.000000000000000E+20
 30
-1.000000000000000E+20
  9
$PEXTMAX
 10
1.000000000000000E+20
 20
1.000000000000000E+20
 30
1.000000000000000E+20
  9
$PLIMMIN
 10
0.0
 20
0.0
  9
$PLIMMAX
 10
420.0
 20
297.0
  9
$UNITMODE
 70
     0
  9
$VISRETAIN
 70
     0
  9
$PLINEGEN
 70
     0
  9
$PSLTSCALE
 70
     1
  9
$TREEDEPTH
 70
  3020
  9
$CMLSTYLE
  2
Standard
  9
$CMLJUST
 70
     0
  9
$CMLSCALE
 40
1.0
  9
$PROXYGRAPHICS
 70
     1
  9
$MEASUREMENT
 70
     0
  9
$CELWEIGHT
370
    -1
  9
$ENDCAPS
280
     0
  9
$JOINSTYLE
280
     0
  9
$LWDISPLAY
290
     0
  9
$INSUNITS
 70
     0
  9
$HYPERLINKBASE
  1

  9
$STYLESHEET
  1

  9
$XEDIT
290
     1
  9
$CEPSNTYPE
380
     0
  9
$PSTYLEMODE
290
     1
  9
$FINGERPRINTGUID
  2
{61FB5FC3-6E23-4E55-89FC-F73FDD5218EB}
  9
$VERSIONGUID
  2
{9F3AA1B3-0CC6-4A05-B8DF-D93F90B6EF86}
  9
$EXTNAMES
290
     1
  9
$PSVPSCALE
 40
0.0
  9
$OLESTARTUP
290
     0
  0
ENDSEC
  0
SECTION
  2
CLASSES
  0
CLASS
  1
ACDBDICTIONARYWDFLT
  2
AcDbDictionaryWithDefault
  3
AutoCAD 2000
 90
        0
280
     0
281
     0
  0
CLASS
  1
ACDBPLACEHOLDER
  2
AcDbPlaceHolder
  3
AutoCAD 2000
 90
        0
280
     0
281
     0
  0
CLASS
  1
LAYOUT
  2
AcDbLayout
  3
AutoCAD 2000
 90
        0
280
     0
281
     0
  0
CLASS
  1
AMGSETTINGSOBJ
  2
AmgSettingsObj
  3
"AcadM|Product Description: AutoCAD Mechanical 2000|Company: Autodesk"
 90
        0
280
     0
281
     0
  0
CLASS
  1
ACME_DOCUMENT
  2
AcMeDbDoc
  3
AcMeServices
 90
        0
280
     0
281
     0
  0
CLASS
  1
ACMESCOPE
  2
AcMeScope
  3
AcMeServices
 90
        0
280
     0
281
     0
  0
CLASS
  1
ACMECOMMANDHISTORY
  2
AcMeCommandHistory
  3
AcMeServices
 90
        0
280
     0
281
     0
  0
CLASS
  1
ACIMSYSVARMAN
  2
AcImSysVarManager
  3
AcMeServices
 90
        0
280
     0
281
     0
  0
CLASS
  1
ACIMREALSYSVAR
  2
AcImRealSysVar
  3
AcMeServices
 90
        0
280
     0
281
     0
  0
CLASS
  1
ACIMINTSYSVAR
  2
AcImIntSysVar
  3
AcMeServices
 90
        0
280
     0
281
     0
  0
CLASS
  1
ACMEDRAWINGMAN
  2
AcMeDrawingMan
  3
AcMeServices
 90
        0
280
     0
281
     0
  0
CLASS
  1
ACMEVIEW
  2
AcMeView
  3
AcMeServices
 90
        0
280
     0
281
     0
  0
CLASS
  1
ACDBENTITYCACHE
  2
AcMeEntityCache
  3
AcMeServices
 90
        0
280
     0
281
     0
  0
CLASS
  1
GSMANAGER
  2
AcMeGSManager
  3
AcMeServices
 90
        0
280
     0
281
     0
  0
CLASS
  1
AMDTINTERNALREACTOR
  2
AmdtInternalReactor
  3
AcMeServices
 90
        0
280
     0
281
     0
  0
CLASS
  1
ACMESTATEMGR
  2
AcMeStateMgr
  3
AcMeServices
 90
        0
280
     0
281
     0
  0
CLASS
  1
ACGREFMASTER
  2
AcGrefMaster
  3
AcAttribServices
 90
        0
280
     0
281
     0
  0
CLASS
  1
AM_DRAWING_MGR
  2
AcDmDwgMgr
  3
AcMechDwgViewMgmt
 90
        0
280
     0
281
     0
  0
CLASS
  1
AM_DWG_DOCUMENT
  2
AcDmDwgDocument
  3
AcMechDwgViewMgmt
 90
        0
280
     0
281
     0
  0
CLASS
  1
AM_DWG_SHEET
  2
AcDmSheet
  3
AcMechDwgViewMgmt
 90
        0
280
     0
281
     0
  0
CLASS
  1
AM_VIEWDIMPARMAP
  2
AcDmViewDimParMap
  3
AcMechDwgViewMgmt
 90
        0
280
     0
281
     0
  0
CLASS
  1
AM_DWGMGR_NAME
  2
AcDmDwgMgrName
  3
AcMechDwgViewMgmt
 90
        0
280
     0
281
     0
  0
CLASS
  1
ACME_DATABASE
  2
AcMeDbDatabase
  3
AcMeServices
 90
        0
280
     0
281
     0
  0
CLASS
  1
ACRFINSADJUSTERMGR
  2
AcRfInsAdjusterMgr
  3
AcMeServices
 90
        0
280
     0
281
     0
  0
CLASS
  1
ACGREFACADMASTER
  2
AcGrefacadMaster
  3
AcGrefServices
 90
        0
280
     0
281
     0
  0
CLASS
  1
AMDTMENUSTATEMGR
  2
AmdtMenuStateMgr
  3
McadcomServices
 90
        0
280
     0
281
     0
  0
CLASS
  1
AMDTMCOMMENUSTATE
  2
AmdtMcomMenuState
  3
McadcomServices
 90
        0
280
     0
281
     0
  0
CLASS
  1
AMIMASTER
  2
AmiMaster
  3
AmiServices
 90
        0
280
     0
281
     0
  0
CLASS
  1
ASAPP
  2
AcAsAppObject
  3
AutoSurfServices
 90
        0
280
     0
281
     0
  0
CLASS
  1
IM_STATIC_MAN
  2
AcImStaticVarManager
  3
AcMeServices
 90
        0
280
     0
281
     0
  0
CLASS
  1
ACIMSTRSYSVAR
  2
AcImStrSysVar
  3
AcMeServices
 90
        0
280
     0
281
     0
  0
CLASS
  1
ACIMDBLSTATICVAR
  2
AcImDblStaticVar
  3
AcMeServices
 90
        0
280
     0
281
     0
  0
CLASS
  1
ACIMSTRSTATICVAR
  2
AcImStrStaticVar
  3
AcMeServices
 90
        0
280
     0
281
     0
  0
CLASS
  1
ACIMINTSTATICVAR
  2
AcImIntStaticVar
  3
AcMeServices
 90
        0
280
     0
281
     0
  0
CLASS
  1
ACASGREFMASTER
  2
AcAsGrefMaster
  3
AutoSurfResolverServices
 90
        0
280
     0
281
     0
  0
CLASS
  1
ACADGREFMODULE
  2
AcAdGrefModule
  3
AdGrefServices
 90
        0
280
     0
281
     0
  0
CLASS
  1
AMDTMAPISURFMOUDULE
  2
AmdtMApiSurfModule
  3
MApiSurfServices
 90
        0
280
     0
281
     0
  0
CLASS
  1
MAPIAMMOUDLE
  2
MApiAmModule
  3
MApiAmServices
 90
        0
280
     0
281
     0
  0
CLASS
  1
AMDTADMENUSTATE
  2
AmdtAdMenuState
  3
DesignerServices
 90
        0
280
     0
281
     0
  0
CLASS
  1
ADAPPL
  2
AcAdAppl
  3
DesignerServices
 90
        0
280
     0
281
     0
  0
CLASS
  1
DEPMGR
  2
AcAdDepMgr
  3
DesignerServices
 90
        0
280
     0
281
     0
  0
CLASS
  1
PARAMMGR
  2
AcAdParamMgr
  3
DesignerServices
 90
        0
280
     0
281
     0
  0
CLASS
  1
PARAMSCOPE
  2
AcAdParamScope
  3
DesignerServices
 90
        0
280
     0
281
     0
  0
CLASS
  1
NAMEDAPPL
  2
AcAdNamedAppl
  3
DesignerServices
 90
        0
280
     0
281
     0
  0
CLASS
  1
AMDTDMMENUSTATE
  2
AmdtDmMenuState
  3
AcMechDwgViewMgmt
 90
        0
280
     0
281
     0
  0
CLASS
  1
MAPIADMODULE
  2
MApiAdModule
  3
MApiAdServices
 90
        0
280
     0
281
     0
  0
CLASS
  1
AMDTAMMENUSTATE
  2
AmdtAmMenuState
  3
DesignerAssemblies
 90
        0
280
     0
281
     0
  0
CLASS
  1
ACAMPROJECT
  2
AcAmProject
  3
DesignerAssemblies
 90
        0
280
     0
281
     0
  0
CLASS
  1
ACAMGRCOMPDEF
  2
AcAmGrCompDef
  3
DesignerAssemblies
 90
        0
280
     0
281
     0
  0
CLASS
  1
ACCMCONTEXT
  2
AcCmContext
  3
DesignerAssemblies
 90
        0
280
     0
281
     0
  0
CLASS
  1
ACAMCOMPDEF
  2
AcAmCompDef
  3
DesignerAssemblies
 90
        0
280
     0
281
     0
  0
CLASS
  1
ACAMCOMPDEFMGR
  2
AcAmCompDefMgr
  3
DesignerAssemblies
 90
        0
280
     0
281
     0
  0
CLASS
  1
AMCONTEXTMGR
  2
AcAmContextMgr
  3
DesignerAssemblies
 90
        0
280
     0
281
     0
  0
CLASS
  1
ACAMCONTEXTMODELER
  2
AcAmContextModeler
  3
DesignerAssemblies
 90
        0
280
     0
281
     0
  0
CLASS
  1
ACMDATADICTIONARY
  2
AcmDataDictionary
  3
"AcmSymBB|Product Description: AutoCAD Mechanical 2000|Company: Autodesk"
 90
        0
280
     0
281
     0
  0
CLASS
  1
ACMDATAENTRYBLOCK
  2
AcmDataEntryBlock
  3
"AcmSymBB|Product Description: AutoCAD Mechanical 2000|Company: Autodesk"
 90
        0
280
     0
281
     0
  0
CLASS
  1
CATALOGSTATE
  2
AcAmCatalogState
  3
DesignerAssemblies
 90
        0
280
     0
281
     0
  0
CLASS
  1
ACAMGRCOMPDEFSET
  2
AcAmGrCompDefSet
  3
DesignerAssemblies
 90
        0
280
     0
281
     0
  0
CLASS
  1
AMDTBROWSERDBTAB
  2
AmdtBrowserDbTab
  3
McadcomServices
 90
        0
280
     0
281
     0
  0
CLASS
  1
CBROWSERAPPOBJECT
  2
CBrowserAppObject
  3
McadcomServices
 90
        0
280
     0
281
     0
  0
CLASS
  1
DM_PLACEHOLDER
  2
AcDmSelsetPlaceholder
  3
AcMechDwgViewMgmt
 90
        0
280
     0
281
     0
  0
CLASS
  1
AMGOBJPROPCFG
  2
AmgObjPropCfg
  3
"AmgLay|Product Description: AutoCAD Mechanical 2000|Company: Autodesk"
 90
        1
280
     0
281
     0
  0
CLASS
  1
LAYER_INDEX
  2
AcDbLayerIndex
  3
AutoCAD 2000
 90
        0
280
     0
281
     0
  0
CLASS
  1
IDBUFFER
  2
AcDbIdBuffer
  3
AutoCAD 2000
 90
        0
280
     0
281
     0
  0
CLASS
  1
DICTIONARYVAR
  2
AcDbDictionaryVar
  3
AutoCAD 2000
 90
        0
280
     0
281
     0
  0
CLASS
  1
ACAMGFILTERDAT
  2
AcAmgFilterDat
  3
"AcadM|Product Description: AutoCAD Mechanical 2000|Company: Autodesk"
 90
        0
280
     0
281
     0
  0
ENDSEC
  0
SECTION
  2
TABLES
  0
TABLE
  2
VPORT
  5
8
330
0
100
AcDbSymbolTable
 70
     5
  0
VPORT
  5
277
330
8
100
AcDbSymbolTableRecord
100
AcDbViewportTableRecord
  2
*Active
 70
     0
 10
0.0
 20
0.0
 11
1.0
 21
1.0
 12
236.1328129999999
 22
120.4761829036699
 13
0.0
 23
0.0
 14
10.0
 24
10.0
 15
10.0
 25
10.0
 16
0.0
 26
0.0
 36
1.0
 17
0.0
 27
0.0
 37
0.0
 40
136.4339748073398
 41
1.462378640776698
 42
50.0
 43
0.0
 44
0.0
 50
0.0
 51
0.0
 71
     0
 72
   100
 73
     1
 74
     0
 75
     0
 76
     0
 77
     0
 78
     0
281
     0
 65
     0
110
0.0
120
0.0
130
0.0
111
1.0
121
0.0
131
0.0
112
0.0
122
1.0
132
0.0
 79
     0
146
0.0
  0
ENDTAB
  0
TABLE
  2
LTYPE
  5
5
330
0
100
AcDbSymbolTable
 70
    16
  0
LTYPE
  5
13
330
5
100
AcDbSymbolTableRecord
100
AcDbLinetypeTableRecord
  2
ByBlock
 70
     0
  3

 72
    65
 73
     0
 40
0.0
  0
LTYPE
  5
14
330
5
100
AcDbSymbolTableRecord
100
AcDbLinetypeTableRecord
  2
ByLayer
 70
     0
  3

 72
    65
 73
     0
 40
0.0
  0
LTYPE
  5
15
330
5
100
AcDbSymbolTableRecord
100
AcDbLinetypeTableRecord
  2
CONTINUOUS
 70
     0
  3
Solid line
 72
    65
 73
     0
 40
0.0
  0
LTYPE
  5
23
330
5
100
AcDbSymbolTableRecord
100
AcDbLinetypeTableRecord
  2
CENTER
 70
     0
  3
____ _ ____ _ ____ _ ____ _ ____ _ ____ _ ____
 72
    65
 73
     4
 40
2.0
 49
1.25
 74
     0
 49
-0.25
 74
     0
 49
0.25
 74
     0
 49
-0.25
 74
     0
  0
LTYPE
  5
B4
330
5
100
AcDbSymbolTableRecord
100
AcDbLinetypeTableRecord
  2
HIDDEN
 70
     0
  3
Hidden __ __ __ __ __ __ __ __ __ __ __ __ __ _
 72
    65
 73
     2
 40
0.375
 49
0.25
 74
     0
 49
-0.125
 74
     0
  0
LTYPE
  5
B5
330
5
100
AcDbSymbolTableRecord
100
AcDbLinetypeTableRecord
  2
PHANTOM2
 70
     0
  3
Phantom (.5x) ___ _ _ ___ _ _ ___ _ _ ___ _ _
 72
    65
 73
     6
 40
1.25
 49
0.625
 74
     0
 49
-0.125
 74
     0
 49
0.125
 74
     0
 49
-0.125
 74
     0
 49
0.125
 74
     0
 49
-0.125
 74
     0
  0
LTYPE
  5
117
330
5
100
AcDbSymbolTableRecord
100
AcDbLinetypeTableRecord
  2
ASULTYPE
 70
     0
  3
実線
 72
    65
 73
     2
 40
3.0
 49
2.5
 74
     0
 49
0.5
 74
     0
  0
LTYPE
  5
118
330
5
100
AcDbSymbolTableRecord
100
AcDbLinetypeTableRecord
  2
ASVLTYPE
 70
     0
  3
__ __ __ __ __ __ __ __ __ __ __ __ __ __ __ __ __ __ __ __ __
 72
    65
 73
     2
 40
0.75
 49
0.5
 74
     0
 49
-0.25
 74
     0
  0
LTYPE
  5
159
330
5
100
AcDbSymbolTableRecord
100
AcDbLinetypeTableRecord
  2
AM_ISO02W050
 70
     0
  3
__ __ __ __ __ __ __ __ __ __ __ __ __ __ __
 72
    65
 73
     2
 40
7.5
 49
6.0
 74
     0
 49
-1.5
 74
     0
  0
LTYPE
  5
15A
330
5
100
AcDbSymbolTableRecord
100
AcDbLinetypeTableRecord
  2
AM_ISO08W050
 70
     0
  3
____ . ____ . ____ . ____ . ____ . ____ . ____
 72
    65
 73
     4
 40
18.0
 49
12.0
 74
     0
 49
-1.5
 74
     0
 49
3.0
 74
     0
 49
-1.5
 74
     0
  0
LTYPE
  5
15B
330
5
100
AcDbSymbolTableRecord
100
AcDbLinetypeTableRecord
  2
AM_ISO09W050
 70
     0
  3
_____ . . _____ . . _____ . . ____ .. ____
 72
    65
 73
     6
 40
22.5
 49
12.0
 74
     0
 49
-1.5
 74
     0
 49
3.0
 74
     0
 49
-1.5
 74
     0
 49
3.0
 74
     0
 49
-1.5
 74
     0
  0
LTYPE
  5
15C
330
5
100
AcDbSymbolTableRecord
100
AcDbLinetypeTableRecord
  2
Amconstr
 70
     0
  3
_______________________
 72
    65
 73
     2
 40
9999.0
 49
9999.0
 74
     0
 49
0.0
 74
     0
  0
LTYPE
  5
15D
330
5
100
AcDbSymbolTableRecord
100
AcDbLinetypeTableRecord
  2
AM_ISO08W050x2
 70
     0
  3
__ . __ . __ . __ . __ . __
 72
    65
 73
     4
 40
9.0
 49
6.0
 74
     0
 49
-0.75
 74
     0
 49
1.5
 74
     0
 49
-0.75
 74
     0
  0
LTYPE
  5
15E
330
5
100
AcDbSymbolTableRecord
100
AcDbLinetypeTableRecord
  2
AM_ISO02W050x2
 70
     0
  3
 _ _ _ _ _ _ _ _ _ _ _ _
 72
    65
 73
     2
 40
3.75
 49
3.0
 74
     0
 49
-0.75
 74
     0
  0
LTYPE
  5
161
330
5
100
AcDbSymbolTableRecord
100
AcDbLinetypeTableRecord
  2
Amzigzag
 70
     0
  3
/\/-/\/-/\/-/\/-/\/-/\/
 72
    65
 73
     2
 40
11.00009999999999
 49
0.0001
 74
     4
 75
   135
340
160
 46
0.04
 50
0.0
 44
0.0
 45
0.0
 49
-11.0
 74
     0
  0
LTYPE
  5
162
330
5
100
AcDbSymbolTableRecord
100
AcDbLinetypeTableRecord
  2
CENTER2
 70
     0
  3
Center (.5x) ___ _ ___ _ ___ _ ___ _ ___ _ ___
 72
    65
 73
     4
 40
1.125
 49
0.75
 74
     0
 49
-0.125
 74
     0
 49
0.125
 74
     0
 49
-0.125
 74
     0
  0
LTYPE
  5
163
330
5
100
AcDbSymbolTableRecord
100
AcDbLinetypeTableRecord
  2
HIDDEN2
 70
     0
  3
Hidden (.5x) _ _ _ _ _ _ _ _ _ _ _ _ _ _ _ _ _
 72
    65
 73
     2
 40
0.1875
 49
0.125
 74
     0
 49
-0.0625
 74
     0
  0
LTYPE
  5
164
330
5
100
AcDbSymbolTableRecord
100
AcDbLinetypeTableRecord
  2
Amzigzag2
 70
     0
  3
/\/-/\/-/\/-/\/-/\/-/\/
 72
    65
 73
     2
 40
0.4401
 49
0.0001
 74
     4
 75
   135
340
160
 46
0.0016
 50
0.0
 44
0.0
 45
0.0
 49
-0.4400000000000001
 74
     0
  0
ENDTAB
  0
TABLE
  2
LAYER
  5
2
330
0
100
AcDbSymbolTable
 70
     8
  0
LAYER
  5
10
330
2
100
AcDbSymbolTableRecord
100
AcDbLayerTableRecord
  2
0
 70
     0
 62
     7
  6
CONTINUOUS
370
    -3
390
F
  0
LAYER
  5
22
330
2
100
AcDbSymbolTableRecord
100
AcDbLayerTableRecord
  2
CONTINUOUS
 70
     0
 62
     7
  6
CONTINUOUS
370
    -3
390
F
  0
LAYER
  5
24
330
2
100
AcDbSymbolTableRecord
100
AcDbLayerTableRecord
  2
CENTER
 70
     0
 62
     1
  6
CENTER
370
    -3
390
F
  0
LAYER
  5
25
330
2
100
AcDbSymbolTableRecord
100
AcDbLayerTableRecord
  2
DIVIDE
 70
     0
 62
     2
  6
CONTINUOUS
370
    -3
390
F
  0
LAYER
  5
26
330
2
100
AcDbSymbolTableRecord
100
AcDbLayerTableRecord
  2
TEXT
 70
     0
 62
     3
  6
CONTINUOUS
370
    -3
390
F
  0
LAYER
  5
27
330
2
100
AcDbSymbolTableRecord
100
AcDbLayerTableRecord
  2
THIN
 70
     0
 62
     4
  6
CONTINUOUS
370
    -3
390
F
  0
LAYER
  5
1B4
330
2
100
AcDbSymbolTableRecord
100
AcDbLayerTableRecord
  2
1
 70
     0
 62
     1
  6
CENTER
370
    -3
390
F
  0
LAYER
  5
1B5
330
2
100
AcDbSymbolTableRecord
100
AcDbLayerTableRecord
  2
2
 70
     0
 62
     2
  6
HIDDEN
370
    -3
390
F
  0
ENDTAB
  0
TABLE
  2
STYLE
  5
3
330
0
100
AcDbSymbolTable
 70
     3
  0
STYLE
  5
11
330
3
100
AcDbSymbolTableRecord
100
AcDbTextStyleTableRecord
  2
STANDARD
 70
     0
 40
0.0
 41
1.0
 50
0.0
 71
     0
 42
2.5
  3
ROMANS.shx
  4
EXTFONT.shx
  0
STYLE
  5
28
330
3
100
AcDbSymbolTableRecord
100
AcDbTextStyleTableRecord
  2
K
 70
     0
 40
0.0
 41
1.0
 50
15.0
 71
     0
 42
1.0
  3
ROMANS
  4
EXTFONT
  0
STYLE
  5
160
330
3
100
AcDbSymbolTableRecord
100
AcDbTextStyleTableRecord
  2

 70
     1
 40
0.0
 41
1.0
 50
0.0
 71
     0
 42
2.5
  3
ltypeshp.shx
  4

  0
ENDTAB
  0
TABLE
  2
VIEW
  5
6
330
0
100
AcDbSymbolTable
 70
     0
  0
ENDTAB
  0
TABLE
  2
UCS
  5
7
330
0
100
AcDbSymbolTable
 70
     0
  0
ENDTAB
  0
TABLE
  2
APPID
  5
9
330
0
100
AcDbSymbolTable
 70
    12
  0
APPID
  5
12
330
9
100
AcDbSymbolTableRecord
100
AcDbRegAppTableRecord
  2
ACAD
 70
     0
  0
APPID
  5
93
330
9
100
AcDbSymbolTableRecord
100
AcDbRegAppTableRecord
  2
GENIUS_GENDIM_13
 70
     0
  0
APPID
  5
94
330
9
100
AcDbSymbolTableRecord
100
AcDbRegAppTableRecord
  2
GENIUS_GENDTOL_13
 70
     0
  0
APPID
  5
95
330
9
100
AcDbSymbolTableRecord
100
AcDbRegAppTableRecord
  2
GENIUS_GE3DTOL_13
 70
     0
  0
APPID
  5
97
330
9
100
AcDbSymbolTableRecord
100
AcDbRegAppTableRecord
  2
MCAD_NO_VIS
 70
     0
  0
APPID
  5
98
330
9
100
AcDbSymbolTableRecord
100
AcDbRegAppTableRecord
  2
ACAD_TEMP_GRAPHIC
 70
     0
  0
APPID
  5
CA
330
9
100
AcDbSymbolTableRecord
100
AcDbRegAppTableRecord
  2
AD_DRAW
 70
     0
  0
APPID
  5
CD
330
9
100
AcDbSymbolTableRecord
100
AcDbRegAppTableRecord
  2
ACATTRIBSERVICES
 70
     0
  0
APPID
  5
119
330
9
100
AcDbSymbolTableRecord
100
AcDbRegAppTableRecord
  2
ASURF_PCURVE_APPNAME
 70
     0
  0
APPID
  5
148
330
9
100
AcDbSymbolTableRecord
100
AcDbRegAppTableRecord
  2
DESIGNERASSEMBLIES
 70
     0
  0
APPID
  5
150
330
9
100
AcDbSymbolTableRecord
100
AcDbRegAppTableRecord
  2
ACADM_DIM_EDIT
 70
     0
  0
APPID
  5
151
330
9
100
AcDbSymbolTableRecord
100
AcDbRegAppTableRecord
  2
AMDT_DM_ADJ
 70
     0
  0
ENDTAB
  0
TABLE
  2
DIMSTYLE
  5
A
330
0
100
AcDbSymbolTable
 70
     2
100
AcDbDimStyleTable
 71
     0
  0
DIMSTYLE
105
29
330
A
100
AcDbSymbolTableRecord
100
AcDbDimStyleTableRecord
  2
ITM
 70
     0
 41
1.5
 42
1.0
 43
6.0
 44
1.0
 47
495.0
 73
     0
 74
     0
 77
     3
 78
     8
140
3.0
141
0.0
147
0.5
172
     1
173
     1
174
     1
271
     2
272
     2
279
     2
284
     8
285
     8
286
     8
340
11
  0
DIMSTYLE
105
1B6
330
A
100
AcDbSymbolTableRecord
100
AcDbDimStyleTableRecord
  2
STANDARD
 70
     0
279
     2
340
11
  0
ENDTAB
  0
TABLE
  2
BLOCK_RECORD
  5
1
330
0
100
AcDbSymbolTable
 70
     2
  0
BLOCK_RECORD
  5
1E
102
{ACAD_XDICTIONARY
360
166
102
}
330
1
100
AcDbSymbolTableRecord
100
AcDbBlockTableRecord
  2
*Model_Space
340
21
  0
BLOCK_RECORD
  5
1A
330
1
100
AcDbSymbolTableRecord
100
AcDbBlockTableRecord
  2
*Paper_Space
340
1D
  0
BLOCK_RECORD
  5
13F
330
1
100
AcDbSymbolTableRecord
100
AcDbBlockTableRecord
  2
*U0
340
0
  0
BLOCK_RECORD
  5
1B7
330
1
100
AcDbSymbolTableRecord
100
AcDbBlockTableRecord
  2
A$C7BD47539
340
0
102
{BLKREFS
331
216
102
}
  0
ENDTAB
  0
ENDSEC
  0
SECTION
  2
BLOCKS
  0
BLOCK
  5
1F
330
1E
100
AcDbEntity
  8
0
100
AcDbBlockBegin
  2
*Model_Space
 70
     0
 10
0.0
 20
0.0
 30
0.0
  3
*Model_Space
  1

  0
ENDBLK
  5
20
330
1E
100
AcDbEntity
  8
0
100
AcDbBlockEnd
  0
BLOCK
  5
1B
330
1A
100
AcDbEntity
 67
     1
  8
0
100
AcDbBlockBegin
  2
*Paper_Space
 70
     0
 10
0.0
 20
0.0
 30
0.0
  3
*Paper_Space
  1

  0
ENDBLK
  5
1C
330
1A
100
AcDbEntity
 67
     1
  8
0
100
AcDbBlockEnd
  0
BLOCK
  5
140
330
13F
100
AcDbEntity
  8
0
100
AcDbBlockBegin
  2
*U0
 70
     1
 10
0.0
 20
0.0
 30
0.0
  3
*U0
  1

  0
ENDBLK
  5
141
330
13F
100
AcDbEntity
  8
0
100
AcDbBlockEnd
  0
BLOCK
  5
213
330
1B7
100
AcDbEntity
  8
0
100
AcDbBlockBegin
  2
A$C7BD47539
 70
     0
 10
0.0
 20
0.0
 30
0.0
  3
A$C7BD47539
  1

  0
LINE
  5
1B8
330
1B7
100
AcDbEntity
  8
2
100
AcDbLine
 10
25.04150012646258
 20
3.500000130034617
 30
0.0
 11
29.95850012646272
 21
3.500000130034617
 31
0.0
  0
LINE
  5
1B9
330
1B7
100
AcDbEntity
  8
2
100
AcDbLine
 10
25.04150012646262
 20
25.5000001300346
 30
0.0
 11
27.50000012646268
 21
26.97721596191393
 31
0.0
  0
LINE
  5
1BA
330
1B7
100
AcDbEntity
  8
2
100
AcDbLine
 10
25.04150012646261
 20
25.50000013003461
 30
0.0
 11
29.95850012646275
 21
25.50000013003461
 31
0.0
  0
LINE
  5
1BB
330
1B7
100
AcDbEntity
  8
2
100
AcDbLine
 10
24.50000012646266
 20
20.50000013003461
 30
0.0
 11
30.50000012646266
 21
20.50000013003461
 31
0.0
  0
LINE
  5
1BC
330
1B7
100
AcDbEntity
  8
0
100
AcDbLine
 10
32.50000012646262
 20
2.500000130034617
 30
0.0
 11
22.50000012646258
 21
2.500000130034617
 31
0.0
  0
ARC
  5
1BD
330
1B7
100
AcDbEntity
  8
0
100
AcDbCircle
 10
27.5000001264626
 20
-217.3333332032984
 30
0.0
 40
252.8333333333331
100
AcDbArc
 50
84.16516626076232
 51
95.83483373923767
  0
LINE
  5
1BE
330
1B7
100
AcDbEntity
  8
0
100
AcDbLine
 10
33.4000001264626
 20
2.800000130034629
 30
0.0
 11
21.60000012646261
 21
2.800000130034629
 31
0.0
  0
ARC
  5
1BF
330
1B7
100
AcDbEntity
  8
0
100
AcDbCircle
 10
27.50000012646264
 20
-110.0624998699665
 30
0.0
 40
190.0625000000011
100
AcDbArc
 50
82.20707466764727
 51
97.79292433542192
  0
ARC
  5
1C0
330
1B7
100
AcDbEntity
  8
0
100
AcDbCircle
 10
27.50000012646272
 20
255.0625001300346
 30
0.0
 40
190.0625
100
AcDbArc
 50
262.207075664578
 51
277.7929243354218
  0
LINE
  5
1C1
330
1B7
100
AcDbEntity
  8
2
100
AcDbLine
 10
32.90000012646268
 20
79.90000013003457
 30
0.0
 11
22.1000001264627
 21
79.90000013003457
 31
0.0
  0
LINE
  5
1C2
330
1B7
100
AcDbEntity
  8
2
100
AcDbLine
 10
32.90000012646268
 20
65.1000001300346
 30
0.0
 11
22.1000001264627
 21
65.1000001300346
 31
0.0
  0
LINE
  5
1C3
330
1B7
100
AcDbEntity
  8
2
100
AcDbLine
 10
25.04150012646258
 20
3.500000130034617
 30
0.0
 11
25.04150012646261
 21
25.50000013003461
 31
0.0
  0
LINE
  5
1C4
330
1B7
100
AcDbEntity
  8
2
100
AcDbLine
 10
24.50000012646263
 20
2.958500130034718
 30
0.0
 11
24.50000012646266
 21
20.50000013003461
 31
0.0
  0
ARC
  5
1C5
330
1B7
100
AcDbEntity
  8
0
100
AcDbCircle
 10
14.10000012646266
 20
19.13600453355742
 30
0.0
 40
6.0
100
AcDbArc
 50
0.0
 51
93.11198270874887
  0
LINE
  5
1C6
330
1B7
100
AcDbEntity
  8
0
100
AcDbLine
 10
20.10000012646264
 20
19.13600453355742
 30
0.0
 11
20.10000012646262
 21
4.300000130034629
 31
0.0
  0
LINE
  5
1C7
330
1B7
100
AcDbEntity
  8
2
100
AcDbLine
 10
24.04150012646255
 20
2.500000130034617
 30
0.0
 11
25.04150012646262
 21
3.500000130034646
 31
0.0
  0
ARC
  5
1C8
330
1B7
100
AcDbEntity
  8
0
100
AcDbCircle
 10
21.60000012646261
 20
4.300000130034629
 30
0.0
 40
1.5
100
AcDbArc
 50
179.9999999999998
 51
270.0
  0
LINE
  5
1C9
330
1B7
100
AcDbEntity
  8
0
100
AcDbLine
 10
22.50000012646262
 20
2.800000130034629
 30
0.0
 11
22.50000012646266
 21
2.500000130034617
 31
0.0
  0
ARC
  5
1CA
330
1B7
100
AcDbEntity
  8
0
100
AcDbCircle
 10
27.5000001264626
 20
-227.3333332032985
 30
0.0
 40
252.8333333333331
100
AcDbArc
 50
93.11198270874887
 51
95.74293663915815
  0
LINE
  5
1CB
330
1B7
100
AcDbEntity
  8
0
100
AcDbLine
 10
0.0000001264626661
 20
26.22095640304536
 30
0.0
 11
0.0000001264626661
 21
32.20045431075943
 31
0.0
  0
ARC
  5
1CC
330
1B7
100
AcDbEntity
  8
0
100
AcDbCircle
 10
2.000000126462666
 20
26.22095640304536
 30
0.0
 40
2.0
100
AcDbArc
 50
179.9999999999998
 51
275.742936639159
  0
ARC
  5
1CD
330
1B7
100
AcDbEntity
  8
0
100
AcDbCircle
 10
2.00000012646268
 20
32.20045431075943
 30
0.0
 40
2.0
100
AcDbArc
 50
95.83483373923604
 51
179.9999999999998
  0
LINE
  5
1CE
330
1B7
100
AcDbEntity
  8
2
100
AcDbLine
 10
24.50000012646275
 20
20.50000013003461
 30
0.0
 11
25.04150012646268
 21
21.437905642333
 31
0.0
  0
LINE
  5
1CF
330
1B7
100
AcDbEntity
  8
0
100
AcDbLine
 10
0.0000001264626803
 20
68.7368338726722
 30
0.0
 11
0.0000001264626803
 21
76.26316638739699
 31
0.0
  0
ARC
  5
1D0
330
1B7
100
AcDbEntity
  8
0
100
AcDbCircle
 10
2.000000126462694
 20
68.7368338726722
 30
0.0
 40
2.0
100
AcDbArc
 50
179.9999999999998
 51
262.2070756645805
  0
ARC
  5
1D1
330
1B7
100
AcDbEntity
  8
0
100
AcDbCircle
 10
2.00000012646268
 20
76.26316638739699
 30
0.0
 40
2.0
100
AcDbArc
 50
97.7929243354211
 51
179.9999999999998
  0
LINE
  5
1D2
330
1B7
100
AcDbEntity
  8
2
100
AcDbLine
 10
20.10000012646271
 20
77.90000013003457
 30
0.0
 11
20.10000012646271
 21
67.1000001300346
 31
0.0
  0
ARC
  5
1D3
330
1B7
100
AcDbEntity
  8
2
100
AcDbCircle
 10
22.1000001264627
 20
67.1000001300346
 30
0.0
 40
2.0
100
AcDbArc
 50
179.9999999999998
 51
270.0
  0
ARC
  5
1D4
330
1B7
100
AcDbEntity
  8
2
100
AcDbCircle
 10
22.1000001264627
 20
77.90000013003457
 30
0.0
 40
2.0
100
AcDbArc
 50
90.0
 51
179.9999999999998
  0
LINE
  5
1D5
330
1B7
100
AcDbEntity
  8
0
100
AcDbLine
 10
84.00000012646254
 20
34.00000013003466
 30
0.0
 11
91.00000012646253
 21
34.00000013003466
 31
0.0
  0
LINE
  5
1D6
330
1B7
100
AcDbEntity
  8
0
100
AcDbLine
 10
84.00000012646254
 20
24.22095640304531
 30
0.0
 11
91.00000012646253
 21
24.22095640304531
 31
0.0
  0
LINE
  5
1D7
330
1B7
100
AcDbEntity
  8
0
100
AcDbLine
 10
82.00000012646254
 20
35.50000013003467
 30
0.0
 11
93.00000012646254
 21
35.50000013003467
 31
0.0
  0
LINE
  5
1D8
330
1B7
100
AcDbEntity
  8
2
100
AcDbLine
 10
84.50000012646283
 20
20.50000013003461
 30
0.0
 11
85.04150012646269
 21
21.437905642333
 31
0.0
  0
LINE
  5
1D9
330
1B7
100
AcDbEntity
  8
2
100
AcDbLine
 10
84.50000012646269
 20
20.50000013003461
 30
0.0
 11
90.50000012646268
 21
20.50000013003461
 31
0.0
  0
LINE
  5
1DA
330
1B7
100
AcDbEntity
  8
2
100
AcDbLine
 10
84.04150012646249
 20
2.500000130034617
 30
0.0
 11
85.04150012646258
 21
3.500000130034646
 31
0.0
  0
LINE
  5
1DB
330
1B7
100
AcDbEntity
  8
0
100
AcDbLine
 10
92.50000012646253
 20
2.500000130034617
 30
0.0
 11
82.50000012646253
 21
2.500000130034617
 31
0.0
  0
LINE
  5
1DC
330
1B7
100
AcDbEntity
  8
0
100
AcDbLine
 10
93.40000012646255
 20
2.800000130034629
 30
0.0
 11
81.60000012646259
 21
2.800000130034629
 31
0.0
  0
LINE
  5
1DD
330
1B7
100
AcDbEntity
  8
2
100
AcDbLine
 10
30.50000012646263
 20
2.958500130034718
 30
0.0
 11
30.50000012646266
 21
20.50000013003461
 31
0.0
  0
LINE
  5
1DE
330
1B7
100
AcDbEntity
  8
2
100
AcDbLine
 10
29.95850012646275
 20
3.500000130034617
 30
0.0
 11
29.95850012646275
 21
25.50000013003461
 31
0.0
  0
LINE
  5
1DF
330
1B7
100
AcDbEntity
  8
1
100
AcDbLine
 10
27.50000012646266
 20
38.00000013003466
 30
0.0
 11
27.50000012646264
 21
0.0000001300346177
 31
0.0
  0
ARC
  5
1E0
330
1B7
100
AcDbEntity
  8
0
100
AcDbCircle
 10
40.90000012646259
 20
19.13600453355747
 30
0.0
 40
6.0
100
AcDbArc
 50
86.8880172912511
 51
179.9999999999998
  0
LINE
  5
1E1
330
1B7
100
AcDbEntity
  8
0
100
AcDbLine
 10
34.90000012646268
 20
19.13600453355747
 30
0.0
 11
34.9000001264626
 21
4.300000130034618
 31
0.0
  0
ARC
  5
1E2
330
1B7
100
AcDbEntity
  8
0
100
AcDbCircle
 10
33.4000001264626
 20
4.300000130034629
 30
0.0
 40
1.5
100
AcDbArc
 50
270.0
 51
0.0
  0
LINE
  5
1E3
330
1B7
100
AcDbEntity
  8
2
100
AcDbLine
 10
29.95850012646275
 20
3.500000130034617
 30
0.0
 11
30.9585001264628
 21
2.500000130034617
 31
0.0
  0
LINE
  5
1E4
330
1B7
100
AcDbEntity
  8
0
100
AcDbLine
 10
32.50000012646262
 20
2.800000130034629
 30
0.0
 11
32.50000012646262
 21
2.500000130034617
 31
0.0
  0
LINE
  5
1E5
330
1B7
100
AcDbEntity
  8
2
100
AcDbLine
 10
30.50000012646266
 20
20.50000013003461
 30
0.0
 11
29.95850012646272
 21
21.437905642333
 31
0.0
  0
LINE
  5
1E6
330
1B7
100
AcDbEntity
  8
2
100
AcDbLine
 10
29.95850012646275
 20
25.50000013003465
 30
0.0
 11
27.50000012646268
 21
26.97721596191393
 31
0.0
  0
LINE
  5
1E7
330
1B7
100
AcDbEntity
  8
0
100
AcDbLine
 10
55.00000012646258
 20
32.20045431075943
 30
0.0
 11
55.00000012646258
 21
26.22095640304533
 31
0.0
  0
ARC
  5
1E8
330
1B7
100
AcDbEntity
  8
0
100
AcDbCircle
 10
27.5000001264626
 20
-227.3333332032985
 30
0.0
 40
252.8333333333331
100
AcDbArc
 50
84.25706336084184
 51
86.8880172912511
  0
ARC
  5
1E9
330
1B7
100
AcDbEntity
  8
0
100
AcDbCircle
 10
53.00000012646258
 20
26.22095640304532
 30
0.0
 40
2.0
100
AcDbArc
 50
264.2570633608426
 51
0.0000000000002036
  0
ARC
  5
1EA
330
1B7
100
AcDbEntity
  8
0
100
AcDbCircle
 10
53.00000012646258
 20
32.20045431075943
 30
0.0
 40
2.0
100
AcDbArc
 50
0.0
 51
84.16516626076232
  0
LINE
  5
1EB
330
1B7
100
AcDbEntity
  8
2
100
AcDbLine
 10
84.50000012646254
 20
2.958500130034718
 30
0.0
 11
84.50000012646269
 21
20.50000013003461
 31
0.0
  0
LINE
  5
1EC
330
1B7
100
AcDbEntity
  8
0
100
AcDbLine
 10
80.10000012646258
 20
26.511504733713
 30
0.0
 11
80.10000012646258
 21
4.300000130034629
 31
0.0
  0
ARC
  5
1ED
330
1B7
100
AcDbEntity
  8
0
100
AcDbCircle
 10
81.60000012646259
 20
4.300000130034629
 30
0.0
 40
1.5
100
AcDbArc
 50
179.9999999999998
 51
270.0
  0
LINE
  5
1EE
330
1B7
100
AcDbEntity
  8
0
100
AcDbLine
 10
82.50000012646253
 20
2.800000130034629
 30
0.0
 11
82.50000012646253
 21
2.500000130034617
 31
0.0
  0
LINE
  5
1EF
330
1B7
100
AcDbEntity
  8
0
100
AcDbLine
 10
82.00000012646254
 20
32.00000013003466
 30
0.0
 11
82.00000012646254
 21
26.2209564030453
 31
0.0
  0
LINE
  5
1F0
330
1B7
100
AcDbEntity
  8
0
100
AcDbLine
 10
80.00000012646248
 20
33.50000013003466
 30
0.0
 11
80.00000012646253
 21
27.13600453355746
 31
0.0
  0
LINE
  5
1F1
330
1B7
100
AcDbEntity
  8
0
100
AcDbLine
 10
81.16790718998718
 20
25.31731782467444
 30
0.0
 11
83.16790718998717
 21
24.40226969416227
 31
0.0
  0
ARC
  5
1F2
330
1B7
100
AcDbEntity
  8
0
100
AcDbCircle
 10
84.00000012646254
 20
26.2209564030453
 30
0.0
 40
2.0
100
AcDbArc
 50
180.0
 51
270.0
  0
ARC
  5
1F3
330
1B7
100
AcDbEntity
  8
0
100
AcDbCircle
 10
82.00000012646254
 20
27.13600453355746
 30
0.0
 40
2.0
100
AcDbArc
 50
180.0
 51
245.4147651260096
  0
ARC
  5
1F4
330
1B7
100
AcDbEntity
  8
0
100
AcDbCircle
 10
82.00000012646254
 20
33.50000013003466
 30
0.0
 40
2.0
100
AcDbArc
 50
90.0
 51
179.9999999999998
  0
LINE
  5
1F5
330
1B7
100
AcDbEntity
  8
0
100
AcDbLine
 10
80.90986449410308
 20
34.67115524489754
 30
0.0
 11
82.26308570789568
 21
33.65623933455307
 31
0.0
  0
ARC
  5
1F6
330
1B7
100
AcDbEntity
  8
0
100
AcDbCircle
 10
84.00000012646254
 20
32.00000013003466
 30
0.0
 40
2.0
100
AcDbArc
 50
90.0
 51
179.9999999999998
  0
LINE
  5
1F7
330
1B7
100
AcDbEntity
  8
2
100
AcDbLine
 10
90.50000012646254
 20
2.958500130034718
 30
0.0
 11
90.50000012646268
 21
20.50000013003461
 31
0.0
  0
LINE
  5
1F8
330
1B7
100
AcDbEntity
  8
2
100
AcDbLine
 10
89.95850012646267
 20
3.500000130034617
 30
0.0
 11
89.95850012646267
 21
25.50000013003461
 31
0.0
  0
LINE
  5
1F9
330
1B7
100
AcDbEntity
  8
2
100
AcDbLine
 10
85.04150012646258
 20
3.500000130034617
 30
0.0
 11
85.04150012646258
 21
25.50000013003461
 31
0.0
  0
LINE
  5
1FA
330
1B7
100
AcDbEntity
  8
1
100
AcDbLine
 10
87.50000012646268
 20
38.00000013003466
 30
0.0
 11
87.50000012646253
 21
0.0000001300346177
 31
0.0
  0
LINE
  5
1FB
330
1B7
100
AcDbEntity
  8
0
100
AcDbLine
 10
94.90000012646254
 20
26.51150473370938
 30
0.0
 11
94.90000012646254
 21
4.300000130034618
 31
0.0
  0
LINE
  5
1FC
330
1B7
100
AcDbEntity
  8
2
100
AcDbLine
 10
89.95850012646267
 20
3.500000130034617
 30
0.0
 11
90.95850012646279
 21
2.500000130034617
 31
0.0
  0
LINE
  5
1FD
330
1B7
100
AcDbEntity
  8
2
100
AcDbLine
 10
85.04150012646258
 20
3.500000130034617
 30
0.0
 11
89.95850012646267
 21
3.500000130034617
 31
0.0
  0
ARC
  5
1FE
330
1B7
100
AcDbEntity
  8
0
100
AcDbCircle
 10
93.40000012646255
 20
4.300000130034629
 30
0.0
 40
1.5
100
AcDbArc
 50
270.0
 51
0.0
  0
LINE
  5
1FF
330
1B7
100
AcDbEntity
  8
0
100
AcDbLine
 10
92.50000012646253
 20
2.800000130034629
 30
0.0
 11
92.50000012646253
 21
2.500000130034617
 31
0.0
  0
LINE
  5
200
330
1B7
100
AcDbEntity
  8
0
100
AcDbLine
 10
93.00000012646254
 20
32.00000013003466
 30
0.0
 11
93.00000012646254
 21
26.2209564030453
 31
0.0
  0
LINE
  5
201
330
1B7
100
AcDbEntity
  8
0
100
AcDbLine
 10
95.00000012646253
 20
33.50000013003466
 30
0.0
 11
95.00000012646268
 21
27.13600453355749
 31
0.0
  0
LINE
  5
202
330
1B7
100
AcDbEntity
  8
0
100
AcDbLine
 10
93.83209306293798
 20
25.31731782467446
 30
0.0
 11
91.83209306293798
 21
24.40226969416227
 31
0.0
  0
ARC
  5
203
330
1B7
100
AcDbEntity
  8
0
100
AcDbCircle
 10
91.00000012646253
 20
26.2209564030453
 30
0.0
 40
2.0
100
AcDbArc
 50
270.0
 51
0.0
  0
LINE
  5
204
330
1B7
100
AcDbEntity
  8
2
100
AcDbLine
 10
90.50000012646268
 20
20.50000013003461
 30
0.0
 11
89.95850012646267
 21
21.437905642333
 31
0.0
  0
LINE
  5
205
330
1B7
100
AcDbEntity
  8
2
100
AcDbLine
 10
89.95850012646267
 20
25.50000013003465
 30
0.0
 11
87.50000012646268
 21
26.97721596191393
 31
0.0
  0
LINE
  5
206
330
1B7
100
AcDbEntity
  8
2
100
AcDbLine
 10
85.04150012646258
 20
25.50000013003461
 30
0.0
 11
89.95850012646267
 21
25.50000013003461
 31
0.0
  0
LINE
  5
207
330
1B7
100
AcDbEntity
  8
2
100
AcDbLine
 10
85.04150012646258
 20
25.5000001300346
 30
0.0
 11
87.50000012646268
 21
26.97721596191393
 31
0.0
  0
ARC
  5
208
330
1B7
100
AcDbEntity
  8
0
100
AcDbCircle
 10
93.00000012646268
 20
27.13600453355749
 30
0.0
 40
2.0
100
AcDbArc
 50
294.5852348739929
 51
0.0000000000002036
  0
ARC
  5
209
330
1B7
100
AcDbEntity
  8
0
100
AcDbCircle
 10
91.00000012646253
 20
32.00000013003466
 30
0.0
 40
2.0
100
AcDbArc
 50
0.0
 51
90.0
  0
ARC
  5
20A
330
1B7
100
AcDbEntity
  8
0
100
AcDbCircle
 10
93.00000012646254
 20
33.50000013003466
 30
0.0
 40
2.0
100
AcDbArc
 50
0.0000000000002036
 51
90.0
  0
LINE
  5
20B
330
1B7
100
AcDbEntity
  8
0
100
AcDbLine
 10
94.09013575882227
 20
34.67115524489754
 30
0.0
 11
92.73691454502969
 21
33.65623933455307
 31
0.0
  0
LINE
  5
20C
330
1B7
100
AcDbEntity
  8
1
100
AcDbLine
 10
27.50000012646268
 20
82.50000013003459
 30
0.0
 11
27.50000012646268
 21
62.50000013003459
 31
0.0
  0
LINE
  5
20D
330
1B7
100
AcDbEntity
  8
2
100
AcDbLine
 10
34.90000012646268
 20
77.90000013003457
 30
0.0
 11
34.90000012646268
 21
67.1000001300346
 31
0.0
  0
ARC
  5
20E
330
1B7
100
AcDbEntity
  8
2
100
AcDbCircle
 10
32.90000012646268
 20
67.1000001300346
 30
0.0
 40
2.0
100
AcDbArc
 50
270.0
 51
0.0
  0
ARC
  5
20F
330
1B7
100
AcDbEntity
  8
2
100
AcDbCircle
 10
32.90000012646268
 20
77.90000013003457
 30
0.0
 40
2.0
100
AcDbArc
 50
0.0
 51
90.0
  0
LINE
  5
210
330
1B7
100
AcDbEntity
  8
0
100
AcDbLine
 10
55.00000012646258
 20
76.26316638739699
 30
0.0
 11
55.00000012646268
 21
68.7368338726722
 31
0.0
  0
ARC
  5
211
330
1B7
100
AcDbEntity
  8
0
100
AcDbCircle
 10
53.00000012646258
 20
68.73683387267219
 30
0.0
 40
2.0
100
AcDbArc
 50
277.7929243354218
 51
0.0
  0
ARC
  5
212
330
1B7
100
AcDbEntity
  8
0
100
AcDbCircle
 10
53.00000012646258
 20
76.26316638739699
 30
0.0
 40
2.0
100
AcDbArc
 50
0.0
 51
82.20707566457809
  0
ENDBLK
  5
214
330
1B7
100
AcDbEntity
  8
0
100
AcDbBlockEnd
  0
ENDSEC
  0
SECTION
  2
ENTITIES
  0
LINE
  5
2E
330
1E
100
AcDbEntity
  8
THIN
100
AcDbLine
 10
229.9924999999999
 20
98.858879
 30
0.0
 11
229.9924999999999
 21
94.10402899999999
 31
0.0
  0
LINE
  5
2F
330
1E
100
AcDbEntity
  8
THIN
100
AcDbLine
 10
240.2924999999999
 20
94.10402899999999
 30
0.0
 11
240.2924999999999
 21
98.858879
 31
0.0
  0
LINE
  5
30
330
1E
100
AcDbEntity
  8
CONTINUOUS
100
AcDbLine
 10
241.1425
 20
94.10402899999999
 30
0.0
 11
241.1425
 21
101.858879
 31
0.0
  0
LINE
  5
31
330
1E
100
AcDbEntity
  8
CONTINUOUS
100
AcDbLine
 10
229.1425
 20
101.858879
 30
0.0
 11
229.1425
 21
94.10402899999999
 31
0.0
  0
ARC
  5
33
330
1E
100
AcDbEntity
  8
CONTINUOUS
100
AcDbCircle
 10
235.1425
 20
78.56236199999999
 30
0.0
 40
15.541667
100
AcDbArc
 50
69.33452199999999
 51
110.665478
  0
LINE
  5
34
330
1E
100
AcDbEntity
  8
CONTINUOUS
100
AcDbLine
 10
229.9924999999999
 20
81.858879
 30
0.0
 11
240.2924999999999
 21
81.858879
 31
0.0
  0
LINE
  5
35
330
1E
100
AcDbEntity
  8
CONTINUOUS
100
AcDbLine
 10
229.1425
 20
82.70887900000001
 30
0.0
 11
241.1425
 21
82.70887900000001
 31
0.0
  0
ARC
  5
36
330
1E
100
AcDbEntity
  8
CONTINUOUS
100
AcDbCircle
 10
235.1425
 20
103.6456959999999
 30
0.0
 40
15.541667
100
AcDbArc
 50
249.334522
 51
290.665478
  0
LINE
  5
38
330
1E
100
AcDbEntity
  8
CONTINUOUS
100
AcDbLine
 10
225.672845
 20
88.10402899999999
 30
0.0
 11
244.6121549999999
 21
88.10402899999999
 31
0.0
  0
LINE
  5
39
330
1E
100
AcDbEntity
  8
CONTINUOUS
100
AcDbLine
 10
244.6121549999999
 20
94.10402899999999
 30
0.0
 11
225.672845
 21
94.10402899999999
 31
0.0
  0
LINE
  5
3A
330
1E
100
AcDbEntity
  8
THIN
100
AcDbLine
 10
229.9924999999999
 20
88.10402899999999
 30
0.0
 11
229.9924999999999
 21
81.858879
 31
0.0
  0
LINE
  5
3B
330
1E
100
AcDbEntity
  8
CONTINUOUS
100
AcDbLine
 10
229.1425
 20
88.10402899999999
 30
0.0
 11
229.1425
 21
82.70887900000001
 31
0.0
  0
LINE
  5
3C
330
1E
100
AcDbEntity
  8
CONTINUOUS
100
AcDbLine
 10
229.1425
 20
82.70887900000001
 30
0.0
 11
229.9924999999999
 21
81.858879
 31
0.0
  0
LINE
  5
3D
330
1E
100
AcDbEntity
  8
CONTINUOUS
100
AcDbLine
 10
224.172845
 20
93.10402899999999
 30
0.0
 11
224.172845
 21
89.10402899999999
 31
0.0
  0
LINE
  5
3E
330
1E
100
AcDbEntity
  8
CONTINUOUS
100
AcDbLine
 10
229.6576729999999
 20
93.10402899999999
 30
0.0
 11
229.6576729999999
 21
89.10402899999999
 31
0.0
  0
ARC
  5
3F
330
1E
100
AcDbEntity
  8
CONTINUOUS
100
AcDbCircle
 10
225.252357
 20
98.219027
 30
0.0
 40
10.123735
100
AcDbArc
 50
272.3804589999999
 51
295.794667
  0
LINE
  5
40
330
1E
100
AcDbEntity
  8
CONTINUOUS
100
AcDbLine
 10
225.672845
 20
88.10402899999999
 30
0.0
 11
224.172845
 21
89.10402899999999
 31
0.0
  0
ARC
  5
41
330
1E
100
AcDbEntity
  8
CONTINUOUS
100
AcDbCircle
 10
225.252357
 20
83.98903
 30
0.0
 40
10.123735
100
AcDbArc
 50
64.20533299999999
 51
87.619541
  0
LINE
  5
42
330
1E
100
AcDbEntity
  8
CONTINUOUS
100
AcDbLine
 10
225.672845
 20
94.10402899999999
 30
0.0
 11
224.172845
 21
93.10402899999999
 31
0.0
  0
LINE
  5
43
330
1E
100
AcDbEntity
  8
CONTINUOUS
100
AcDbLine
 10
241.1425
 20
82.70887900000001
 30
0.0
 11
241.1425
 21
88.10402899999999
 31
0.0
  0
LINE
  5
44
330
1E
100
AcDbEntity
  8
THIN
100
AcDbLine
 10
240.2924999999999
 20
81.858879
 30
0.0
 11
240.2924999999999
 21
88.10402899999999
 31
0.0
  0
LINE
  5
45
330
1E
100
AcDbEntity
  8
CONTINUOUS
100
AcDbLine
 10
232.1425
 20
81.858879
 30
0.0
 11
232.1425
 21
77.808879
 31
0.0
  0
LINE
  5
46
330
1E
100
AcDbEntity
  8
CONTINUOUS
100
AcDbLine
 10
238.1425
 20
77.808879
 30
0.0
 11
238.1425
 21
81.858879
 31
0.0
  0
LINE
  5
47
330
1E
100
AcDbEntity
  8
CONTINUOUS
100
AcDbLine
 10
232.5425
 20
76.45887900000001
 30
0.0
 11
237.7425
 21
76.45887900000001
 31
0.0
  0
LINE
  5
48
330
1E
100
AcDbEntity
  8
CONTINUOUS
100
AcDbLine
 10
238.1425
 20
77.808879
 30
0.0
 11
232.1425
 21
77.808879
 31
0.0
  0
ARC
  5
49
330
1E
100
AcDbEntity
  8
CONTINUOUS
100
AcDbCircle
 10
235.1425
 20
81.792213
 30
0.0
 40
5.933333
100
AcDbArc
 50
244.010766
 51
295.989234
  0
LINE
  5
4A
330
1E
100
AcDbEntity
  8
CONTINUOUS
100
AcDbLine
 10
232.1425
 20
77.808879
 30
0.0
 11
232.5425
 21
76.45887900000001
 31
0.0
  0
LINE
  5
4B
330
1E
100
AcDbEntity
  8
CONTINUOUS
100
AcDbLine
 10
237.7425
 20
76.45887900000001
 30
0.0
 11
238.1425
 21
77.808879
 31
0.0
  0
LINE
  5
4C
330
1E
100
AcDbEntity
  8
CONTINUOUS
100
AcDbLine
 10
240.2924999999999
 20
81.858879
 30
0.0
 11
241.1425
 21
82.70887900000001
 31
0.0
  0
LINE
  5
4D
330
1E
100
AcDbEntity
  8
CONTINUOUS
100
AcDbLine
 10
246.1121549999999
 20
89.10402899999999
 30
0.0
 11
246.1121549999999
 21
93.10402899999999
 31
0.0
  0
LINE
  5
4E
330
1E
100
AcDbEntity
  8
CONTINUOUS
100
AcDbLine
 10
240.6273279999999
 20
93.10402899999999
 30
0.0
 11
240.6273279999999
 21
89.10402899999999
 31
0.0
  0
ARC
  5
4F
330
1E
100
AcDbEntity
  8
CONTINUOUS
100
AcDbCircle
 10
245.0326439999999
 20
98.219027
 30
0.0
 40
10.123735
100
AcDbArc
 50
244.205333
 51
267.619541
  0
LINE
  5
50
330
1E
100
AcDbEntity
  8
CONTINUOUS
100
AcDbLine
 10
244.6121549999999
 20
88.10402899999999
 30
0.0
 11
246.1121549999999
 21
89.10402899999999
 31
0.0
  0
ARC
  5
51
330
1E
100
AcDbEntity
  8
CONTINUOUS
100
AcDbCircle
 10
245.0326439999999
 20
83.98903
 30
0.0
 40
10.123735
100
AcDbArc
 50
92.38045899999999
 51
115.794667
  0
LINE
  5
52
330
1E
100
AcDbEntity
  8
CONTINUOUS
100
AcDbLine
 10
244.6121549999999
 20
94.10402899999999
 30
0.0
 11
246.1121549999999
 21
93.10402899999999
 31
0.0
  0
ARC
  5
53
330
1E
100
AcDbEntity
  8
CONTINUOUS
100
AcDbCircle
 10
235.1425
 20
97.25054599999999
 30
0.0
 40
10.608333
100
AcDbArc
 50
67.606249
 51
112.3937509999999
  0
LINE
  5
54
330
1E
100
AcDbEntity
  8
CONTINUOUS
100
AcDbLine
 10
241.7254039999999
 20
107.8588789999999
 30
0.0
 11
228.559596
 21
107.8588789999999
 31
0.0
  0
ARC
  5
55
330
1E
100
AcDbEntity
  8
CONTINUOUS
100
AcDbCircle
 10
235.1425
 20
112.4672129999999
 30
0.0
 40
10.608333
100
AcDbArc
 50
247.606249
 51
292.3937509999999
  0
LINE
  5
56
330
1E
100
AcDbEntity
  8
CONTINUOUS
100
AcDbLine
 10
229.1425
 20
98.858879
 30
0.0
 11
241.1425
 21
98.858879
 31
0.0
  0
LINE
  5
57
330
1E
100
AcDbEntity
  8
CONTINUOUS
100
AcDbLine
 10
228.559596
 20
101.858879
 30
0.0
 11
241.7254039999999
 21
101.858879
 31
0.0
  0
LINE
  5
58
330
1E
100
AcDbEntity
  8
CONTINUOUS
100
AcDbLine
 10
227.059596
 20
107.058879
 30
0.0
 11
227.059596
 21
102.6588789999999
 31
0.0
  0
LINE
  5
59
330
1E
100
AcDbEntity
  8
CONTINUOUS
100
AcDbLine
 10
231.1010479999999
 20
107.058879
 30
0.0
 11
231.1010479999999
 21
102.6588789999999
 31
0.0
  0
LINE
  5
5A
330
1E
100
AcDbEntity
  8
THIN
100
AcDbLine
 10
229.9924999999999
 20
98.858879
 30
0.0
 11
229.1425
 21
100.3311229999999
 31
0.0
  0
LINE
  5
5B
330
1E
100
AcDbEntity
  8
CONTINUOUS
100
AcDbLine
 10
228.559596
 20
101.858879
 30
0.0
 11
227.059596
 21
102.6588789999999
 31
0.0
  0
ARC
  5
5C
330
1E
100
AcDbEntity
  8
CONTINUOUS
100
AcDbCircle
 10
228.4539909999999
 20
106.63123
 30
0.0
 40
4.773518
100
AcDbArc
 50
271.267669
 51
303.678322
  0
LINE
  5
5D
330
1E
100
AcDbEntity
  8
CONTINUOUS
100
AcDbLine
 10
228.559596
 20
107.8588789999999
 30
0.0
 11
227.059596
 21
107.058879
 31
0.0
  0
ARC
  5
5E
330
1E
100
AcDbEntity
  8
CONTINUOUS
100
AcDbCircle
 10
228.4539909999999
 20
103.0865289999999
 30
0.0
 40
4.773518
100
AcDbArc
 50
56.32167800000001
 51
88.732331
  0
LINE
  5
63
330
1E
100
AcDbEntity
  8
CONTINUOUS
100
AcDbLine
 10
243.225404
 20
102.6588789999999
 30
0.0
 11
243.225404
 21
107.058879
 31
0.0
  0
LINE
  5
64
330
1E
100
AcDbEntity
  8
CONTINUOUS
100
AcDbLine
 10
239.1839519999999
 20
102.6588789999999
 30
0.0
 11
239.1839519999999
 21
107.058879
 31
0.0
  0
LINE
  5
65
330
1E
100
AcDbEntity
  8
THIN
100
AcDbLine
 10
240.2924999999999
 20
98.858879
 30
0.0
 11
241.1425
 21
100.3311229999999
 31
0.0
  0
LINE
  5
66
330
1E
100
AcDbEntity
  8
CONTINUOUS
100
AcDbLine
 10
241.7254039999999
 20
101.858879
 30
0.0
 11
243.225404
 21
102.6588789999999
 31
0.0
  0
ARC
  5
67
330
1E
100
AcDbEntity
  8
CONTINUOUS
100
AcDbCircle
 10
241.8310089999999
 20
106.63123
 30
0.0
 40
4.773518
100
AcDbArc
 50
236.3216779999999
 51
268.732331
  0
LINE
  5
6E
330
1E
100
AcDbEntity
  8
CONTINUOUS
100
AcDbLine
 10
241.7254039999999
 20
107.8588789999999
 30
0.0
 11
243.225404
 21
107.058879
 31
0.0
  0
ARC
  5
6F
330
1E
100
AcDbEntity
  8
CONTINUOUS
100
AcDbCircle
 10
241.8310089999999
 20
103.0865289999999
 30
0.0
 40
4.773518
100
AcDbArc
 50
91.26766899999999
 51
123.6783219999999
  0
POLYLINE
  5
79
330
1E
100
AcDbEntity
  8
CONTINUOUS
100
AcDb2dPolyline
 66
     1
 10
0.0
 20
0.0
 30
0.0
 70
     1
  0
VERTEX
  5
7A
330
79
100
AcDbEntity
  8
CONTINUOUS
100
AcDbVertex
100
AcDb2dVertex
 10
231.1010479999999
 20
173.7104989999999
 30
0.0
  0
VERTEX
  5
7B
330
79
100
AcDbEntity
  8
CONTINUOUS
100
AcDbVertex
100
AcDb2dVertex
 10
227.059596
 20
166.710499
 30
0.0
  0
VERTEX
  5
7C
330
79
100
AcDbEntity
  8
CONTINUOUS
100
AcDbVertex
100
AcDb2dVertex
 10
231.1010479999999
 20
159.710499
 30
0.0
  0
VERTEX
  5
7D
330
79
100
AcDbEntity
  8
CONTINUOUS
100
AcDbVertex
100
AcDb2dVertex
 10
239.1839519999999
 20
159.710499
 30
0.0
  0
VERTEX
  5
7E
330
79
100
AcDbEntity
  8
CONTINUOUS
100
AcDbVertex
100
AcDb2dVertex
 10
243.225404
 20
166.710499
 30
0.0
  0
VERTEX
  5
7F
330
79
100
AcDbEntity
  8
CONTINUOUS
100
AcDbVertex
100
AcDb2dVertex
 10
239.1839519999999
 20
173.7104989999999
 30
0.0
  0
SEQEND
  5
80
330
79
100
AcDbEntity
  8
CONTINUOUS
  0
POLYLINE
  5
81
330
1E
100
AcDbEntity
  8
CONTINUOUS
100
AcDb2dPolyline
 66
     1
 10
0.0
 20
0.0
 30
0.0
 70
     1
  0
VERTEX
  5
82
330
81
100
AcDbEntity
  8
CONTINUOUS
100
AcDbVertex
100
AcDb2dVertex
 10
229.6576729999999
 20
176.210499
 30
0.0
  0
VERTEX
  5
83
330
81
100
AcDbEntity
  8
CONTINUOUS
100
AcDbVertex
100
AcDb2dVertex
 10
224.172845
 20
166.710499
 30
0.0
  0
VERTEX
  5
84
330
81
100
AcDbEntity
  8
CONTINUOUS
100
AcDbVertex
100
AcDb2dVertex
 10
229.6576729999999
 20
157.2104989999999
 30
0.0
  0
VERTEX
  5
85
330
81
100
AcDbEntity
  8
CONTINUOUS
100
AcDbVertex
100
AcDb2dVertex
 10
240.6273279999999
 20
157.2104989999999
 30
0.0
  0
VERTEX
  5
86
330
81
100
AcDbEntity
  8
CONTINUOUS
100
AcDbVertex
100
AcDb2dVertex
 10
246.1121549999999
 20
166.710499
 30
0.0
  0
VERTEX
  5
87
330
81
100
AcDbEntity
  8
CONTINUOUS
100
AcDbVertex
100
AcDb2dVertex
 10
240.6273279999999
 20
176.210499
 30
0.0
  0
SEQEND
  5
88
330
81
100
AcDbEntity
  8
CONTINUOUS
  0
CIRCLE
  5
89
330
1E
100
AcDbEntity
  8
CONTINUOUS
100
AcDbCircle
 10
235.1425
 20
166.710499
 30
0.0
 40
7.0
  0
CIRCLE
  5
8A
330
1E
100
AcDbEntity
  8
CONTINUOUS
100
AcDbCircle
 10
235.1425
 20
166.710499
 30
0.0
 40
9.5
  0
LINE
  5
8B
330
1E
100
AcDbEntity
  8
CENTER
100
AcDbLine
 10
247.1121549999999
 20
166.710499
 30
0.0
 11
223.172845
 21
166.710499
 31
0.0
  0
LINE
  5
8C
330
1E
100
AcDbEntity
  8
CENTER
100
AcDbLine
 10
235.1425
 20
177.210499
 30
0.0
 11
235.1425
 21
156.2104989999999
 31
0.0
  0
CIRCLE
  5
8D
330
1E
100
AcDbEntity
  8
THIN
100
AcDbCircle
 10
235.1425
 20
166.710499
 30
0.0
 40
2.5
  0
CIRCLE
  5
8E
330
1E
100
AcDbEntity
  8
CONTINUOUS
100
AcDbCircle
 10
235.1425
 20
166.710499
 30
0.0
 40
3.0
  0
LINE
  5
17A
330
1E
100
AcDbEntity
  8
CENTER
100
AcDbLine
 10
235.1425
 20
156.2104989999999
 30
0.0
 11
235.1425
 21
69.70620681495302
 31
0.0
  0
LINE
  5
17B
330
1E
100
AcDbEntity
  8
CENTER
100
AcDbLine
 10
292.3840205207895
 20
156.2104989999999
 30
0.0
 11
292.3840205207895
 21
69.70620681495302
 31
0.0
  0
LINE
  5
17C
330
1E
100
AcDbEntity
  8
CONTINUOUS
100
AcDbLine
 10
286.3840205207896
 20
101.858879
 30
0.0
 11
286.3840205207896
 21
94.10402899999999
 31
0.0
  0
LINE
  5
17D
330
1E
100
AcDbEntity
  8
CONTINUOUS
100
AcDbLine
 10
298.3840205207895
 20
94.10402899999999
 30
0.0
 11
298.3840205207895
 21
101.858879
 31
0.0
  0
LINE
  5
17E
330
1E
100
AcDbEntity
  8
THIN
100
AcDbLine
 10
297.5340205207895
 20
94.10402899999999
 30
0.0
 11
297.5340205207895
 21
98.858879
 31
0.0
  0
LINE
  5
17F
330
1E
100
AcDbEntity
  8
THIN
100
AcDbLine
 10
287.2340205207896
 20
98.858879
 30
0.0
 11
287.2340205207896
 21
94.10402899999999
 31
0.0
  0
LINE
  5
180
330
1E
100
AcDbEntity
  8
CONTINUOUS
100
AcDbLine
 10
301.8536755207895
 20
94.10402899999999
 30
0.0
 11
282.9143655207896
 21
94.10402899999999
 31
0.0
  0
LINE
  5
181
330
1E
100
AcDbEntity
  8
CONTINUOUS
100
AcDbLine
 10
282.9143655207896
 20
88.10402899999999
 30
0.0
 11
301.8536755207895
 21
88.10402899999999
 31
0.0
  0
ARC
  5
182
330
1E
100
AcDbEntity
  8
CONTINUOUS
100
AcDbCircle
 10
292.3840205207895
 20
103.6456959999999
 30
0.0
 40
15.541667
100
AcDbArc
 50
249.334522
 51
290.665478
  0
LINE
  5
183
330
1E
100
AcDbEntity
  8
CONTINUOUS
100
AcDbLine
 10
286.3840205207896
 20
82.70887900000001
 30
0.0
 11
298.3840205207895
 21
82.70887900000001
 31
0.0
  0
LINE
  5
184
330
1E
100
AcDbEntity
  8
CONTINUOUS
100
AcDbLine
 10
287.2340205207896
 20
81.858879
 30
0.0
 11
297.5340205207895
 21
81.858879
 31
0.0
  0
ARC
  5
185
330
1E
100
AcDbEntity
  8
CONTINUOUS
100
AcDbCircle
 10
292.3840205207895
 20
78.56236199999999
 30
0.0
 40
15.541667
100
AcDbArc
 50
69.33452199999999
 51
110.665478
  0
LINE
  5
186
330
1E
100
AcDbEntity
  8
CONTINUOUS
100
AcDbLine
 10
286.3840205207896
 20
88.10402899999999
 30
0.0
 11
286.3840205207896
 21
82.70887900000001
 31
0.0
  0
LINE
  5
187
330
1E
100
AcDbEntity
  8
THIN
100
AcDbLine
 10
287.2340205207896
 20
88.10402899999999
 30
0.0
 11
287.2340205207896
 21
81.858879
 31
0.0
  0
LINE
  5
188
330
1E
100
AcDbEntity
  8
CONTINUOUS
100
AcDbLine
 10
286.3840205207896
 20
82.70887900000001
 30
0.0
 11
287.2340205207896
 21
81.858879
 31
0.0
  0
LINE
  5
189
330
1E
100
AcDbEntity
  8
CONTINUOUS
100
AcDbLine
 10
286.8991935207895
 20
93.10402899999999
 30
0.0
 11
286.8991935207895
 21
89.10402899999999
 31
0.0
  0
LINE
  5
18A
330
1E
100
AcDbEntity
  8
CONTINUOUS
100
AcDbLine
 10
281.4143655207896
 20
93.10402899999999
 30
0.0
 11
281.4143655207896
 21
89.10402899999999
 31
0.0
  0
ARC
  5
18B
330
1E
100
AcDbEntity
  8
CONTINUOUS
100
AcDbCircle
 10
282.4938775207896
 20
98.219027
 30
0.0
 40
10.123735
100
AcDbArc
 50
272.3804589999999
 51
295.794667
  0
LINE
  5
18C
330
1E
100
AcDbEntity
  8
CONTINUOUS
100
AcDbLine
 10
282.9143655207896
 20
88.10402899999999
 30
0.0
 11
281.4143655207896
 21
89.10402899999999
 31
0.0
  0
ARC
  5
18D
330
1E
100
AcDbEntity
  8
CONTINUOUS
100
AcDbCircle
 10
282.4938775207896
 20
83.98903
 30
0.0
 40
10.123735
100
AcDbArc
 50
64.20533299999999
 51
87.619541
  0
LINE
  5
18E
330
1E
100
AcDbEntity
  8
CONTINUOUS
100
AcDbLine
 10
282.9143655207896
 20
94.10402899999999
 30
0.0
 11
281.4143655207896
 21
93.10402899999999
 31
0.0
  0
LINE
  5
18F
330
1E
100
AcDbEntity
  8
THIN
100
AcDbLine
 10
297.5340205207895
 20
81.858879
 30
0.0
 11
297.5340205207895
 21
88.10402899999999
 31
0.0
  0
LINE
  5
190
330
1E
100
AcDbEntity
  8
CONTINUOUS
100
AcDbLine
 10
298.3840205207895
 20
82.70887900000001
 30
0.0
 11
298.3840205207895
 21
88.10402899999999
 31
0.0
  0
LINE
  5
191
330
1E
100
AcDbEntity
  8
CONTINUOUS
100
AcDbLine
 10
295.3840205207896
 20
77.808879
 30
0.0
 11
295.3840205207896
 21
81.858879
 31
0.0
  0
LINE
  5
192
330
1E
100
AcDbEntity
  8
CONTINUOUS
100
AcDbLine
 10
289.3840205207895
 20
81.858879
 30
0.0
 11
289.3840205207895
 21
77.808879
 31
0.0
  0
ARC
  5
193
330
1E
100
AcDbEntity
  8
CONTINUOUS
100
AcDbCircle
 10
292.3840205207895
 20
81.792213
 30
0.0
 40
5.933333
100
AcDbArc
 50
244.010766
 51
295.989234
  0
LINE
  5
194
330
1E
100
AcDbEntity
  8
CONTINUOUS
100
AcDbLine
 10
295.3840205207896
 20
77.808879
 30
0.0
 11
289.3840205207895
 21
77.808879
 31
0.0
  0
LINE
  5
195
330
1E
100
AcDbEntity
  8
CONTINUOUS
100
AcDbLine
 10
289.7840205207895
 20
76.45887900000001
 30
0.0
 11
294.9840205207896
 21
76.45887900000001
 31
0.0
  0
LINE
  5
196
330
1E
100
AcDbEntity
  8
CONTINUOUS
100
AcDbLine
 10
289.3840205207895
 20
77.808879
 30
0.0
 11
289.7840205207895
 21
76.45887900000001
 31
0.0
  0
LINE
  5
197
330
1E
100
AcDbEntity
  8
CONTINUOUS
100
AcDbLine
 10
294.9840205207896
 20
76.45887900000001
 30
0.0
 11
295.3840205207896
 21
77.808879
 31
0.0
  0
LINE
  5
198
330
1E
100
AcDbEntity
  8
CONTINUOUS
100
AcDbLine
 10
297.5340205207895
 20
81.858879
 30
0.0
 11
298.3840205207895
 21
82.70887900000001
 31
0.0
  0
LINE
  5
199
330
1E
100
AcDbEntity
  8
CONTINUOUS
100
AcDbLine
 10
297.8688485207896
 20
93.10402899999999
 30
0.0
 11
297.8688485207896
 21
89.10402899999999
 31
0.0
  0
LINE
  5
19A
330
1E
100
AcDbEntity
  8
CONTINUOUS
100
AcDbLine
 10
303.3536755207896
 20
89.10402899999999
 30
0.0
 11
303.3536755207896
 21
93.10402899999999
 31
0.0
  0
ARC
  5
19B
330
1E
100
AcDbEntity
  8
CONTINUOUS
100
AcDbCircle
 10
302.2741645207896
 20
98.219027
 30
0.0
 40
10.123735
100
AcDbArc
 50
244.205333
 51
267.619541
  0
LINE
  5
19C
330
1E
100
AcDbEntity
  8
CONTINUOUS
100
AcDbLine
 10
301.8536755207895
 20
88.10402899999999
 30
0.0
 11
303.3536755207896
 21
89.10402899999999
 31
0.0
  0
ARC
  5
19D
330
1E
100
AcDbEntity
  8
CONTINUOUS
100
AcDbCircle
 10
302.2741645207896
 20
83.98903
 30
0.0
 40
10.123735
100
AcDbArc
 50
92.38045899999999
 51
115.794667
  0
LINE
  5
19E
330
1E
100
AcDbEntity
  8
CONTINUOUS
100
AcDbLine
 10
301.8536755207895
 20
94.10402899999999
 30
0.0
 11
303.3536755207896
 21
93.10402899999999
 31
0.0
  0
LINE
  5
19F
330
1E
100
AcDbEntity
  8
CONTINUOUS
100
AcDbLine
 10
285.8011165207896
 20
101.858879
 30
0.0
 11
298.9669245207895
 21
101.858879
 31
0.0
  0
LINE
  5
1A0
330
1E
100
AcDbEntity
  8
CONTINUOUS
100
AcDbLine
 10
286.3840205207896
 20
98.858879
 30
0.0
 11
298.3840205207895
 21
98.858879
 31
0.0
  0
ARC
  5
1A1
330
1E
100
AcDbEntity
  8
CONTINUOUS
100
AcDbCircle
 10
292.3840205207895
 20
112.4672129999999
 30
0.0
 40
10.608333
100
AcDbArc
 50
247.606249
 51
292.3937509999999
  0
LINE
  5
1A2
330
1E
100
AcDbEntity
  8
CONTINUOUS
100
AcDbLine
 10
298.9669245207895
 20
107.8588789999999
 30
0.0
 11
285.8011165207896
 21
107.8588789999999
 31
0.0
  0
ARC
  5
1A3
330
1E
100
AcDbEntity
  8
CONTINUOUS
100
AcDbCircle
 10
292.3840205207895
 20
97.25054599999999
 30
0.0
 40
10.608333
100
AcDbArc
 50
67.606249
 51
112.3937509999999
  0
LINE
  5
1A4
330
1E
100
AcDbEntity
  8
CONTINUOUS
100
AcDbLine
 10
288.3425685207896
 20
107.058879
 30
0.0
 11
288.3425685207896
 21
102.6588789999999
 31
0.0
  0
LINE
  5
1A5
330
1E
100
AcDbEntity
  8
CONTINUOUS
100
AcDbLine
 10
284.3011165207895
 20
107.058879
 30
0.0
 11
284.3011165207895
 21
102.6588789999999
 31
0.0
  0
LINE
  5
1A6
330
1E
100
AcDbEntity
  8
THIN
100
AcDbLine
 10
287.2340205207896
 20
98.858879
 30
0.0
 11
286.3840205207896
 21
100.3311229999999
 31
0.0
  0
LINE
  5
1A7
330
1E
100
AcDbEntity
  8
CONTINUOUS
100
AcDbLine
 10
285.8011165207896
 20
101.858879
 30
0.0
 11
284.3011165207895
 21
102.6588789999999
 31
0.0
  0
ARC
  5
1A8
330
1E
100
AcDbEntity
  8
CONTINUOUS
100
AcDbCircle
 10
285.6955115207896
 20
106.63123
 30
0.0
 40
4.773518
100
AcDbArc
 50
271.267669
 51
303.678322
  0
LINE
  5
1A9
330
1E
100
AcDbEntity
  8
CONTINUOUS
100
AcDbLine
 10
285.8011165207896
 20
107.8588789999999
 30
0.0
 11
284.3011165207895
 21
107.058879
 31
0.0
  0
ARC
  5
1AA
330
1E
100
AcDbEntity
  8
CONTINUOUS
100
AcDbCircle
 10
285.6955115207896
 20
103.0865289999999
 30
0.0
 40
4.773518
100
AcDbArc
 50
56.32167800000001
 51
88.732331
  0
LINE
  5
1AB
330
1E
100
AcDbEntity
  8
CONTINUOUS
100
AcDbLine
 10
296.4254725207896
 20
102.6588789999999
 30
0.0
 11
296.4254725207896
 21
107.058879
 31
0.0
  0
LINE
  5
1AC
330
1E
100
AcDbEntity
  8
CONTINUOUS
100
AcDbLine
 10
300.4669245207896
 20
102.6588789999999
 30
0.0
 11
300.4669245207896
 21
107.058879
 31
0.0
  0
LINE
  5
1AD
330
1E
100
AcDbEntity
  8
THIN
100
AcDbLine
 10
297.5340205207895
 20
98.858879
 30
0.0
 11
298.3840205207895
 21
100.3311229999999
 31
0.0
  0
LINE
  5
1AE
330
1E
100
AcDbEntity
  8
CONTINUOUS
100
AcDbLine
 10
298.9669245207895
 20
101.858879
 30
0.0
 11
300.4669245207896
 21
102.6588789999999
 31
0.0
  0
ARC
  5
1AF
330
1E
100
AcDbEntity
  8
CONTINUOUS
100
AcDbCircle
 10
299.0725295207896
 20
106.63123
 30
0.0
 40
4.773518
100
AcDbArc
 50
236.3216779999999
 51
268.732331
  0
LINE
  5
1B0
330
1E
100
AcDbEntity
  8
CONTINUOUS
100
AcDbLine
 10
298.9669245207895
 20
107.8588789999999
 30
0.0
 11
300.4669245207896
 21
107.058879
 31
0.0
  0
ARC
  5
1B1
330
1E
100
AcDbEntity
  8
CONTINUOUS
100
AcDbCircle
 10
299.0725295207896
 20
103.0865289999999
 30
0.0
 40
4.773518
100
AcDbArc
 50
91.26766899999999
 51
123.6783219999999
  0
LINE
  5
217
330
1E
100
AcDbEntity
  8
2
100
AcDbLine
 10
232.6839999999999
 20
108.8588789999999
 30
0.0
 11
237.6010000000001
 21
108.8588789999999
 31
0.0
  0
LINE
  5
218
330
1E
100
AcDbEntity
  8
2
100
AcDbLine
 10
232.684
 20
130.8588789999999
 30
0.0
 11
235.1425
 21
132.3360948318793
 31
0.0
  0
LINE
  5
219
330
1E
100
AcDbEntity
  8
2
100
AcDbLine
 10
232.684
 20
130.8588789999999
 30
0.0
 11
237.6010000000001
 21
130.8588789999999
 31
0.0
  0
LINE
  5
21A
330
1E
100
AcDbEntity
  8
2
100
AcDbLine
 10
232.1425
 20
125.8588789999999
 30
0.0
 11
238.1425
 21
125.8588789999999
 31
0.0
  0
LINE
  5
21B
330
1E
100
AcDbEntity
  8
0
100
AcDbLine
 10
240.1425
 20
107.8588789999999
 30
0.0
 11
230.1424999999999
 21
107.8588789999999
 31
0.0
  0
ARC
  5
21C
330
1E
100
AcDbEntity
  8
0
100
AcDbCircle
 10
235.1425
 20
-111.974454333333
 30
0.0
 40
252.8333333333331
100
AcDbArc
 50
84.16516626076235
 51
95.83483373923765
  0
LINE
  5
21D
330
1E
100
AcDbEntity
  8
0
100
AcDbLine
 10
241.0425
 20
108.158879
 30
0.0
 11
229.2425
 21
108.158879
 31
0.0
  0
ARC
  5
21E
330
1E
100
AcDbEntity
  8
0
100
AcDbCircle
 10
235.1424999999999
 20
-15.85200100000113
 30
0.0
 40
190.0625000000011
100
AcDbArc
 50
82.20707466764723
 51
97.79292433542114
  0
ARC
  5
21F
330
1E
100
AcDbEntity
  8
0
100
AcDbCircle
 10
235.1425
 20
349.272999
 30
0.0
 40
190.0625
100
AcDbArc
 50
262.2070756645772
 51
277.7929243354211
  0
LINE
  5
220
330
1E
100
AcDbEntity
  8
2
100
AcDbLine
 10
240.5425
 20
174.1104989999999
 30
0.0
 11
229.7425
 21
174.1104989999999
 31
0.0
  0
LINE
  5
221
330
1E
100
AcDbEntity
  8
2
100
AcDbLine
 10
240.5425
 20
159.310499
 30
0.0
 11
229.7425
 21
159.310499
 31
0.0
  0
LINE
  5
222
330
1E
100
AcDbEntity
  8
2
100
AcDbLine
 10
232.6839999999999
 20
108.8588789999999
 30
0.0
 11
232.684
 21
130.8588789999999
 31
0.0
  0
LINE
  5
223
330
1E
100
AcDbEntity
  8
2
100
AcDbLine
 10
232.1425
 20
108.3173790000001
 30
0.0
 11
232.1425
 21
125.8588789999999
 31
0.0
  0
ARC
  5
224
330
1E
100
AcDbEntity
  8
0
100
AcDbCircle
 10
221.7425
 20
124.4948834035227
 30
0.0
 40
6.0
100
AcDbArc
 50
0.0
 51
93.11198270874804
  0
LINE
  5
225
330
1E
100
AcDbEntity
  8
0
100
AcDbLine
 10
227.7425
 20
124.4948834035227
 30
0.0
 11
227.7425
 21
109.658879
 31
0.0
  0
LINE
  5
226
330
1E
100
AcDbEntity
  8
2
100
AcDbLine
 10
231.6839999999999
 20
107.8588789999999
 30
0.0
 11
232.684
 21
108.858879
 31
0.0
  0
ARC
  5
227
330
1E
100
AcDbEntity
  8
0
100
AcDbCircle
 10
229.2425
 20
109.658879
 30
0.0
 40
1.5
100
AcDbArc
 50
180.0
 51
270.0
  0
LINE
  5
228
330
1E
100
AcDbEntity
  8
0
100
AcDbLine
 10
230.1425
 20
108.158879
 30
0.0
 11
230.1425
 21
107.8588789999999
 31
0.0
  0
ARC
  5
229
330
1E
100
AcDbEntity
  8
0
100
AcDbCircle
 10
235.1425
 20
-121.9744543333331
 30
0.0
 40
252.8333333333331
100
AcDbArc
 50
93.11198270874804
 51
95.74293663915737
  0
LINE
  5
22A
330
1E
100
AcDbEntity
  8
0
100
AcDbLine
 10
207.6425
 20
131.5798352730107
 30
0.0
 11
207.6425
 21
137.5593331807248
 31
0.0
  0
ARC
  5
22B
330
1E
100
AcDbEntity
  8
0
100
AcDbCircle
 10
209.6425
 20
131.5798352730107
 30
0.0
 40
2.0
100
AcDbArc
 50
180.0
 51
275.742936639159
  0
ARC
  5
22C
330
1E
100
AcDbEntity
  8
0
100
AcDbCircle
 10
209.6425
 20
137.5593331807248
 30
0.0
 40
2.0
100
AcDbArc
 50
95.83483373923604
 51
180.0
  0
LINE
  5
22D
330
1E
100
AcDbEntity
  8
2
100
AcDbLine
 10
232.1425000000001
 20
125.8588789999999
 30
0.0
 11
232.684
 21
126.7967845122983
 31
0.0
  0
LINE
  5
22E
330
1E
100
AcDbEntity
  8
0
100
AcDbLine
 10
207.6424999999999
 20
162.9473327426375
 30
0.0
 11
207.6424999999999
 21
170.4736652573624
 31
0.0
  0
ARC
  5
22F
330
1E
100
AcDbEntity
  8
0
100
AcDbCircle
 10
209.6424999999999
 20
162.9473327426375
 30
0.0
 40
2.0
100
AcDbArc
 50
180.0
 51
262.2070756645805
  0
ARC
  5
230
330
1E
100
AcDbEntity
  8
0
100
AcDbCircle
 10
209.6424999999999
 20
170.4736652573624
 30
0.0
 40
2.0
100
AcDbArc
 50
97.79292433542114
 51
180.0
  0
LINE
  5
231
330
1E
100
AcDbEntity
  8
2
100
AcDbLine
 10
227.7425
 20
172.1104989999999
 30
0.0
 11
227.7425
 21
161.310499
 31
0.0
  0
ARC
  5
232
330
1E
100
AcDbEntity
  8
2
100
AcDbCircle
 10
229.7425
 20
161.310499
 30
0.0
 40
2.0
100
AcDbArc
 50
180.0
 51
270.0
  0
ARC
  5
233
330
1E
100
AcDbEntity
  8
2
100
AcDbCircle
 10
229.7425
 20
172.1104989999999
 30
0.0
 40
2.0
100
AcDbArc
 50
90.0
 51
180.0
  0
LINE
  5
234
330
1E
100
AcDbEntity
  8
0
100
AcDbLine
 10
288.8840205207896
 20
139.358879
 30
0.0
 11
295.8840205207895
 21
139.358879
 31
0.0
  0
LINE
  5
235
330
1E
100
AcDbEntity
  8
0
100
AcDbLine
 10
288.8840205207896
 20
129.5798352730107
 30
0.0
 11
295.8840205207895
 21
129.5798352730107
 31
0.0
  0
LINE
  5
236
330
1E
100
AcDbEntity
  8
0
100
AcDbLine
 10
286.8840205207895
 20
140.858879
 30
0.0
 11
297.8840205207895
 21
140.858879
 31
0.0
  0
LINE
  5
237
330
1E
100
AcDbEntity
  8
2
100
AcDbLine
 10
289.3840205207898
 20
125.8588789999999
 30
0.0
 11
289.9255205207897
 21
126.7967845122983
 31
0.0
  0
LINE
  5
238
330
1E
100
AcDbEntity
  8
2
100
AcDbLine
 10
289.3840205207897
 20
125.8588789999999
 30
0.0
 11
295.3840205207896
 21
125.8588789999999
 31
0.0
  0
LINE
  5
239
330
1E
100
AcDbEntity
  8
2
100
AcDbLine
 10
288.9255205207895
 20
107.8588789999999
 30
0.0
 11
289.9255205207896
 21
108.858879
 31
0.0
  0
LINE
  5
23A
330
1E
100
AcDbEntity
  8
0
100
AcDbLine
 10
297.3840205207896
 20
107.8588789999999
 30
0.0
 11
287.3840205207896
 21
107.8588789999999
 31
0.0
  0
LINE
  5
23B
330
1E
100
AcDbEntity
  8
0
100
AcDbLine
 10
298.2840205207896
 20
108.158879
 30
0.0
 11
286.4840205207896
 21
108.158879
 31
0.0
  0
LINE
  5
23C
330
1E
100
AcDbEntity
  8
2
100
AcDbLine
 10
238.1425
 20
108.3173790000001
 30
0.0
 11
238.1425
 21
125.8588789999999
 31
0.0
  0
LINE
  5
23D
330
1E
100
AcDbEntity
  8
2
100
AcDbLine
 10
237.6010000000001
 20
108.8588789999999
 30
0.0
 11
237.6010000000001
 21
130.8588789999999
 31
0.0
  0
ARC
  5
23F
330
1E
100
AcDbEntity
  8
0
100
AcDbCircle
 10
248.5424999999999
 20
124.4948834035228
 30
0.0
 40
6.0
100
AcDbArc
 50
86.8880172912503
 51
180.0
  0
LINE
  5
240
330
1E
100
AcDbEntity
  8
0
100
AcDbLine
 10
242.5425
 20
124.4948834035228
 30
0.0
 11
242.5425
 21
109.6588789999999
 31
0.0
  0
ARC
  5
241
330
1E
100
AcDbEntity
  8
0
100
AcDbCircle
 10
241.0425
 20
109.658879
 30
0.0
 40
1.5
100
AcDbArc
 50
270.0
 51
0.0
  0
LINE
  5
242
330
1E
100
AcDbEntity
  8
2
100
AcDbLine
 10
237.6010000000001
 20
108.8588789999999
 30
0.0
 11
238.6010000000001
 21
107.8588789999999
 31
0.0
  0
LINE
  5
243
330
1E
100
AcDbEntity
  8
0
100
AcDbLine
 10
240.1425
 20
108.158879
 30
0.0
 11
240.1425
 21
107.8588789999999
 31
0.0
  0
LINE
  5
244
330
1E
100
AcDbEntity
  8
2
100
AcDbLine
 10
238.1425
 20
125.8588789999999
 30
0.0
 11
237.6010000000001
 21
126.7967845122983
 31
0.0
  0
LINE
  5
245
330
1E
100
AcDbEntity
  8
2
100
AcDbLine
 10
237.6010000000001
 20
130.858879
 30
0.0
 11
235.1425
 21
132.3360948318793
 31
0.0
  0
LINE
  5
246
330
1E
100
AcDbEntity
  8
0
100
AcDbLine
 10
262.6424999999999
 20
137.5593331807248
 30
0.0
 11
262.6424999999999
 21
131.5798352730107
 31
0.0
  0
ARC
  5
247
330
1E
100
AcDbEntity
  8
0
100
AcDbCircle
 10
235.1425
 20
-121.9744543333331
 30
0.0
 40
252.8333333333331
100
AcDbArc
 50
84.25706336084262
 51
86.8880172912503
  0
ARC
  5
248
330
1E
100
AcDbEntity
  8
0
100
AcDbCircle
 10
260.6424999999999
 20
131.5798352730107
 30
0.0
 40
2.0
100
AcDbArc
 50
264.2570633608426
 51
0.0
  0
ARC
  5
249
330
1E
100
AcDbEntity
  8
0
100
AcDbCircle
 10
260.6424999999999
 20
137.5593331807248
 30
0.0
 40
2.0
100
AcDbArc
 50
0.0
 51
84.16516626076235
  0
LINE
  5
24A
330
1E
100
AcDbEntity
  8
2
100
AcDbLine
 10
289.3840205207895
 20
108.3173790000001
 30
0.0
 11
289.3840205207897
 21
125.8588789999999
 31
0.0
  0
LINE
  5
24B
330
1E
100
AcDbEntity
  8
0
100
AcDbLine
 10
284.9840205207896
 20
131.8703836036783
 30
0.0
 11
284.9840205207896
 21
109.658879
 31
0.0
  0
ARC
  5
24C
330
1E
100
AcDbEntity
  8
0
100
AcDbCircle
 10
286.4840205207896
 20
109.658879
 30
0.0
 40
1.5
100
AcDbArc
 50
180.0
 51
270.0
  0
LINE
  5
24D
330
1E
100
AcDbEntity
  8
0
100
AcDbLine
 10
287.3840205207896
 20
108.158879
 30
0.0
 11
287.3840205207896
 21
107.8588789999999
 31
0.0
  0
LINE
  5
24E
330
1E
100
AcDbEntity
  8
0
100
AcDbLine
 10
286.8840205207895
 20
137.358879
 30
0.0
 11
286.8840205207895
 21
131.5798352730107
 31
0.0
  0
LINE
  5
24F
330
1E
100
AcDbEntity
  8
0
100
AcDbLine
 10
284.8840205207895
 20
138.858879
 30
0.0
 11
284.8840205207896
 21
132.4948834035228
 31
0.0
  0
LINE
  5
250
330
1E
100
AcDbEntity
  8
0
100
AcDbLine
 10
286.0519275843142
 20
130.6761966946398
 30
0.0
 11
288.0519275843142
 21
129.7611485641276
 31
0.0
  0
ARC
  5
251
330
1E
100
AcDbEntity
  8
0
100
AcDbCircle
 10
288.8840205207896
 20
131.5798352730107
 30
0.0
 40
2.0
100
AcDbArc
 50
180.0
 51
270.0
  0
ARC
  5
252
330
1E
100
AcDbEntity
  8
0
100
AcDbCircle
 10
286.8840205207895
 20
132.4948834035228
 30
0.0
 40
2.0
100
AcDbArc
 50
180.0
 51
245.4147651260088
  0
ARC
  5
253
330
1E
100
AcDbEntity
  8
0
100
AcDbCircle
 10
286.8840205207895
 20
138.858879
 30
0.0
 40
2.0
100
AcDbArc
 50
90.0
 51
180.0
  0
LINE
  5
254
330
1E
100
AcDbEntity
  8
0
100
AcDbLine
 10
285.7938848884301
 20
140.0300341148629
 30
0.0
 11
287.1471061022227
 21
139.0151182045184
 31
0.0
  0
ARC
  5
255
330
1E
100
AcDbEntity
  8
0
100
AcDbCircle
 10
288.8840205207896
 20
137.358879
 30
0.0
 40
2.0
100
AcDbArc
 50
90.0
 51
180.0
  0
LINE
  5
256
330
1E
100
AcDbEntity
  8
2
100
AcDbLine
 10
295.3840205207896
 20
108.3173790000001
 30
0.0
 11
295.3840205207896
 21
125.8588789999999
 31
0.0
  0
LINE
  5
257
330
1E
100
AcDbEntity
  8
2
100
AcDbLine
 10
294.8425205207897
 20
108.8588789999999
 30
0.0
 11
294.8425205207897
 21
130.8588789999999
 31
0.0
  0
LINE
  5
258
330
1E
100
AcDbEntity
  8
2
100
AcDbLine
 10
289.9255205207896
 20
108.8588789999999
 30
0.0
 11
289.9255205207896
 21
130.8588789999999
 31
0.0
  0
LINE
  5
25A
330
1E
100
AcDbEntity
  8
0
100
AcDbLine
 10
299.7840205207895
 20
131.8703836036747
 30
0.0
 11
299.7840205207895
 21
109.6588789999999
 31
0.0
  0
LINE
  5
25B
330
1E
100
AcDbEntity
  8
2
100
AcDbLine
 10
294.8425205207897
 20
108.8588789999999
 30
0.0
 11
295.8425205207898
 21
107.8588789999999
 31
0.0
  0
LINE
  5
25C
330
1E
100
AcDbEntity
  8
2
100
AcDbLine
 10
289.9255205207896
 20
108.8588789999999
 30
0.0
 11
294.8425205207897
 21
108.8588789999999
 31
0.0
  0
ARC
  5
25D
330
1E
100
AcDbEntity
  8
0
100
AcDbCircle
 10
298.2840205207896
 20
109.658879
 30
0.0
 40
1.5
100
AcDbArc
 50
270.0
 51
0.0
  0
LINE
  5
25E
330
1E
100
AcDbEntity
  8
0
100
AcDbLine
 10
297.3840205207896
 20
108.158879
 30
0.0
 11
297.3840205207896
 21
107.8588789999999
 31
0.0
  0
LINE
  5
25F
330
1E
100
AcDbEntity
  8
0
100
AcDbLine
 10
297.8840205207895
 20
137.358879
 30
0.0
 11
297.8840205207895
 21
131.5798352730107
 31
0.0
  0
LINE
  5
260
330
1E
100
AcDbEntity
  8
0
100
AcDbLine
 10
299.8840205207896
 20
138.858879
 30
0.0
 11
299.8840205207897
 21
132.4948834035228
 31
0.0
  0
LINE
  5
261
330
1E
100
AcDbEntity
  8
0
100
AcDbLine
 10
298.716113457265
 20
130.6761966946398
 30
0.0
 11
296.716113457265
 21
129.7611485641276
 31
0.0
  0
ARC
  5
262
330
1E
100
AcDbEntity
  8
0
100
AcDbCircle
 10
295.8840205207895
 20
131.5798352730107
 30
0.0
 40
2.0
100
AcDbArc
 50
270.0
 51
0.0
  0
LINE
  5
263
330
1E
100
AcDbEntity
  8
2
100
AcDbLine
 10
295.3840205207896
 20
125.8588789999999
 30
0.0
 11
294.8425205207897
 21
126.7967845122983
 31
0.0
  0
LINE
  5
264
330
1E
100
AcDbEntity
  8
2
100
AcDbLine
 10
294.8425205207897
 20
130.858879
 30
0.0
 11
292.3840205207897
 21
132.3360948318793
 31
0.0
  0
LINE
  5
265
330
1E
100
AcDbEntity
  8
2
100
AcDbLine
 10
289.9255205207896
 20
130.8588789999999
 30
0.0
 11
294.8425205207897
 21
130.8588789999999
 31
0.0
  0
LINE
  5
266
330
1E
100
AcDbEntity
  8
2
100
AcDbLine
 10
289.9255205207896
 20
130.8588789999999
 30
0.0
 11
292.3840205207897
 21
132.3360948318793
 31
0.0
  0
ARC
  5
267
330
1E
100
AcDbEntity
  8
0
100
AcDbCircle
 10
297.8840205207897
 20
132.4948834035228
 30
0.0
 40
2.0
100
AcDbArc
 50
294.5852348739929
 51
0.0
  0
ARC
  5
268
330
1E
100
AcDbEntity
  8
0
100
AcDbCircle
 10
295.8840205207895
 20
137.358879
 30
0.0
 40
2.0
100
AcDbArc
 50
0.0
 51
90.0
  0
ARC
  5
269
330
1E
100
AcDbEntity
  8
0
100
AcDbCircle
 10
297.8840205207895
 20
138.858879
 30
0.0
 40
2.0
100
AcDbArc
 50
0.0
 51
90.0
  0
LINE
  5
26A
330
1E
100
AcDbEntity
  8
0
100
AcDbLine
 10
298.9741561531493
 20
140.0300341148629
 30
0.0
 11
297.6209349393567
 21
139.0151182045184
 31
0.0
  0
LINE
  5
26C
330
1E
100
AcDbEntity
  8
2
100
AcDbLine
 10
242.5425
 20
172.1104989999999
 30
0.0
 11
242.5425
 21
161.310499
 31
0.0
  0
ARC
  5
26D
330
1E
100
AcDbEntity
  8
2
100
AcDbCircle
 10
240.5425
 20
161.310499
 30
0.0
 40
2.0
100
AcDbArc
 50
270.0
 51
0.0
  0
ARC
  5
26E
330
1E
100
AcDbEntity
  8
2
100
AcDbCircle
 10
240.5425
 20
172.1104989999999
 30
0.0
 40
2.0
100
AcDbArc
 50
0.0
 51
90.0
  0
LINE
  5
26F
330
1E
100
AcDbEntity
  8
0
100
AcDbLine
 10
262.6424999999999
 20
170.4736652573624
 30
0.0
 11
262.6425
 21
162.9473327426375
 31
0.0
  0
ARC
  5
270
330
1E
100
AcDbEntity
  8
0
100
AcDbCircle
 10
260.6424999999999
 20
162.9473327426375
 30
0.0
 40
2.0
100
AcDbArc
 50
277.7929243354211
 51
0.0
  0
ARC
  5
271
330
1E
100
AcDbEntity
  8
0
100
AcDbCircle
 10
260.6424999999999
 20
170.4736652573624
 30
0.0
 40
2.0
100
AcDbArc
 50
0.0
 51
82.20707566457887
  0
TEXT
  5
273
330
1E
100
AcDbEntity
  8
0
100
AcDbText
 10
166.5661678189906
 20
112.8689553043155
 30
0.0
 40
2.5
  1
IP-6-12B
100
AcDbText
  0
ENDSEC
  0
SECTION
  2
OBJECTS
  0
DICTIONARY
  5
C
330
0
100
AcDbDictionary
281
     1
  3
ACAD_GROUP
350
D
  3
ACAD_LAYOUT
350
19
  3
ACAD_MLINESTYLE
350
16
  3
ACAD_PLOTSETTINGS
350
18
  3
ACAD_PLOTSTYLENAME
350
E
  3
AcDbVariableDictionary
350
170
  3
AcmDictionary
350
149
  3
AMG
350
90
  3
AMGSNAPSETTINGS
350
173
  3
DWGPROPS
350
1B3
  3
MAPISURF_MODULE
350
11C
  0
DICTIONARY
  5
166
330
1E
100
AcDbDictionary
280
     1
281
     1
  3
ACAD_INDEX
360
167
  0
DICTIONARY
  5
D
102
{ACAD_REACTORS
330
C
102
}
330
C
100
AcDbDictionary
281
     1
  0
DICTIONARY
  5
19
102
{ACAD_REACTORS
330
C
102
}
330
C
100
AcDbDictionary
281
     1
  3
Model
350
21
  3
ﾚｲｱｳﾄ1
350
1D
  0
DICTIONARY
  5
16
102
{ACAD_REACTORS
330
C
102
}
330
C
100
AcDbDictionary
281
     1
  3
Standard
350
17
  0
DICTIONARY
  5
18
102
{ACAD_REACTORS
330
C
102
}
330
C
100
AcDbDictionary
281
     1
  0
ACDBDICTIONARYWDFLT
  5
E
102
{ACAD_REACTORS
330
C
102
}
330
C
100
AcDbDictionary
281
     1
  3
Normal
350
F
100
AcDbDictionaryWithDefault
340
F
  0
DICTIONARY
  5
170
102
{ACAD_REACTORS
330
C
102
}
330
C
100
AcDbDictionary
281
     1
  3
DIMASSOC
350
172
  3
INDEXCTL
350
171
  0
DICTIONARY
  5
149
102
{ACAD_REACTORS
330
C
102
}
330
C
100
AcDbDictionary
281
     1
  3
AcmBOMDATA
350
14A
  0
DICTIONARY
  5
90
102
{ACAD_REACTORS
330
C
102
}
330
C
100
AcDbDictionary
281
     1
  3
AcMgSettings
350
91
  3
AMGLAYCFG
350
156
  0
DICTIONARY
  5
173
102
{ACAD_REACTORS
330
C
102
}
330
C
100
AcDbDictionary
281
     1
  3
DIMENSION
350
178
  3
FEA
350
177
  3
HATCH (1)
350
174
  3
HATCH (2)
350
175
  3
SIMPLE WELD
350
179
  3
SYMBOLS
350
176
  0
XRECORD
  5
1B3
102
{ACAD_REACTORS
330
C
102
}
330
C
100
AcDbXrecord
280
     1
  1
DWGPROPS COOKIE
  2

  3

  4

  6

  7

  8

  9

300
AmdtFileType=84
301
=
302
=
303
=
304
=
305
=
306
=
307
=
308
=
309
=
 40
0.2380269444444444
 41
2451449.173530995
 42
2454131.736563402
  1

 90
        1
  0
DICTIONARY
  5
167
102
{ACAD_REACTORS
330
166
102
}
330
166
100
AcDbDictionary
281
     1
  3
*A1
350
168
  0
LAYOUT
  5
21
102
{ACAD_REACTORS
330
19
102
}
330
19
100
AcDbPlotSettings
  1

  2
EPSON PM-3700C
  4

  6

 40
0.0
 41
0.0
 42
0.0
 43
0.0
 44
0.0
 45
0.0
 46
0.0
 47
0.0
 48
0.0
 49
0.0
140
0.0
141
0.0
142
1.0
143
1.0
 70
  1712
 72
     0
 73
     0
 74
     0
  7

 75
     0
147
1.0
148
0.0
149
0.0
100
AcDbLayout
  1
Model
 70
     1
 71
     0
 10
0.0
 20
0.0
 11
12.0
 21
9.0
 12
0.0
 22
0.0
 32
0.0
 14
0.0
 24
0.0
 34
0.0
 15
0.0
 25
0.0
 35
0.0
146
0.0
 13
0.0
 23
0.0
 33
0.0
 16
1.0
 26
0.0
 36
0.0
 17
0.0
 27
1.0
 37
0.0
 76
     0
330
1E
  0
LAYOUT
  5
1D
102
{ACAD_REACTORS
330
19
102
}
330
19
100
AcDbPlotSettings
  1

  2
EPSON PM-3700C
  4

  6

 40
0.0
 41
0.0
 42
0.0
 43
0.0
 44
0.0
 45
0.0
 46
0.0
 47
0.0
 48
0.0
 49
0.0
140
0.0
141
0.0
142
1.0
143
1.0
 70
   688
 72
     0
 73
     0
 74
     5
  7

 75
    16
147
1.0
148
0.0
149
0.0
100
AcDbLayout
  1
ﾚｲｱｳﾄ1
 70
     1
 71
     1
 10
0.0
 20
0.0
 11
420.0
 21
297.0
 12
0.0
 22
0.0
 32
0.0
 14
-1.000000000000000E+20
 24
-1.000000000000000E+20
 34
-1.000000000000000E+20
 15
1.000000000000000E+20
 25
1.000000000000000E+20
 35
1.000000000000000E+20
146
0.0
 13
0.0
 23
0.0
 33
0.0
 16
1.0
 26
0.0
 36
0.0
 17
0.0
 27
1.0
 37
0.0
 76
     0
330
1A
  0
MLINESTYLE
  5
17
102
{ACAD_REACTORS
330
16
102
}
330
16
100
AcDbMlineStyle
  2
STANDARD
 70
     0
  3

 62
   256
 51
90.0
 52
90.0
 71
     2
 49
0.5
 62
   256
  6
BYLAYER
 49
-0.5
 62
   256
  6
BYLAYER
  0
ACDBPLACEHOLDER
  5
F
102
{ACAD_REACTORS
330
E
102
}
330
E
  0
DICTIONARYVAR
  5
172
102
{ACAD_REACTORS
330
170
102
}
330
170
100
DictionaryVariables
280
     0
  1
0
  0
DICTIONARYVAR
  5
171
102
{ACAD_REACTORS
330
170
102
}
330
170
100
DictionaryVariables
280
     0
  1
1
  0
ACMDATADICTIONARY
  5
14A
102
{ACAD_REACTORS
330
149
102
}
330
149
100
AcDbDictionary
281
     1
  3
*A1
350
14B
  3
*A2
350
215
100
AcmDataDictionary
  0
DICTIONARY
  5
91
102
{ACAD_REACTORS
330
90
102
}
330
90
100
AcDbDictionary
281
     1
  3
DWGSETTINGS
350
92
  0
ACAMGFILTERDAT
  5
178
102
{ACAD_REACTORS
330
173
102
}
330
173
100
AcAmgFilterDat
 70
    15
  1
DIMENSION,AMDT_*_DIM
  2
*
  3
*
  4
*
  5
*
290
     1
  0
ACAMGFILTERDAT
  5
177
102
{ACAD_REACTORS
330
173
102
}
330
173
100
AcAmgFilterDat
 70
    15
  1
*
  2
AM_FEA-AM_*
  3
*
  4
*
  5
*
290
     1
  0
ACAMGFILTERDAT
  5
174
102
{ACAD_REACTORS
330
173
102
}
330
173
100
AcAmgFilterDat
 70
    15
  1
HATCH
  2
*
  3
*
  4
*
  5
*
290
     1
  0
ACAMGFILTERDAT
  5
175
102
{ACAD_REACTORS
330
173
102
}
330
173
100
AcAmgFilterDat
 70
    15
  1
LINE
  2
8,8N,*-8,*-8N,AM_8,AM_8N,*-AM_8,*-AM_8N
  3
*
  4
*
  5
INSERT,STDPART2D
290
     1
  0
ACAMGFILTERDAT
  5
179
102
{ACAD_REACTORS
330
173
102
}
330
173
100
AcAmgFilterDat
 70
    15
  1
ARC
  2
AM_5
  3
*
  4
2
  5
INSERT
290
     0
  0
ACAMGFILTERDAT
  5
176
102
{ACAD_REACTORS
330
173
102
}
330
173
100
AcAmgFilterDat
 70
    15
  1
ACMFCFRAME,ACMDATUMTARGET,ACMDATUMID,ACMWELDSYM,ACMSURFSYM,ACMFEATID,ACMPARTREF,ACMBALLOON,AMDTEDGESYM,AMGSCREWCALCTABLE
  2
*
  3
*
  4
*
  5
*
290
     1
  0
LAYER_INDEX
  5
168
102
{ACAD_REACTORS
330
167
102
}
330
167
100
AcDbIndex
 40
2454131.739349675
100
AcDbLayerIndex
  8
0
360
169
 90
       55
  8
CONTINUOUS
360
16A
 90
      101
  8
CENTER
360
16B
 90
        4
  8
DIVIDE
360
16C
 90
        0
  8
TEXT
360
16D
 90
        0
  8
THIN
360
16E
 90
       13
  8
1
360
274
 90
        0
  8
2
360
275
 90
       34
  0
ACMDATAENTRYBLOCK
  5
14B
102
{ACAD_REACTORS
330
14A
102
}
330
14A
100
AcmDataEntry
100
AcmDataEntryBlock
  0
ACMDATAENTRYBLOCK
  5
215
102
{ACAD_REACTORS
330
14A
102
}
330
14A
100
AcmDataEntry
100
AcmDataEntryBlock
  0
IDBUFFER
  5
169
330
0
100
AcDbIdBuffer
330
268
330
269
330
26A
330
26F
330
270
330
271
330
273
330
21B
330
21C
330
21D
330
21E
330
21F
330
224
330
225
330
227
330
228
330
229
330
22A
330
22B
330
22C
330
22E
330
22F
330
230
330
234
330
235
330
236
330
23A
330
23B
330
23F
330
240
330
241
330
243
330
246
330
247
330
248
330
249
330
24B
330
24C
330
24D
330
24E
330
24F
330
250
330
251
330
252
330
253
330
254
330
255
330
25A
330
25D
330
25E
330
25F
330
260
330
261
330
262
330
267
  0
IDBUFFER
  5
16A
330
0
100
AcDbIdBuffer
330
188
330
189
330
18A
330
18B
330
18C
330
18D
330
18E
330
190
330
191
330
192
330
193
330
194
330
195
330
196
330
197
330
198
330
199
330
19A
330
19B
330
19C
330
19D
330
19E
330
19F
330
1A0
330
1A1
330
1A2
330
1A3
330
1A4
330
1A5
330
1A7
330
1A8
330
1A9
330
1AA
330
1AB
330
1AC
330
1AE
330
1AF
330
1B0
330
1B1
330
30
330
31
330
33
330
34
330
35
330
36
330
38
330
39
330
3B
330
3C
330
3D
330
3E
330
3F
330
40
330
41
330
42
330
43
330
45
330
46
330
47
330
48
330
49
330
4A
330
4B
330
4C
330
4D
330
4E
330
4F
330
50
330
51
330
52
330
53
330
54
330
55
330
56
330
57
330
58
330
59
330
5B
330
5C
330
5D
330
5E
330
63
330
64
330
66
330
67
330
6E
330
6F
330
79
330
81
330
89
330
8A
330
8E
330
17C
330
17D
330
180
330
181
330
182
330
183
330
184
330
185
330
186
  0
IDBUFFER
  5
16B
330
0
100
AcDbIdBuffer
330
17B
330
8B
330
8C
330
17A
  0
IDBUFFER
  5
16C
330
0
100
AcDbIdBuffer
  0
IDBUFFER
  5
16D
330
0
100
AcDbIdBuffer
  0
IDBUFFER
  5
16E
330
0
100
AcDbIdBuffer
330
187
330
18F
330
1A6
330
1AD
330
2E
330
2F
330
3A
330
44
330
5A
330
65
330
8D
330
17E
330
17F
  0
IDBUFFER
  5
274
330
0
100
AcDbIdBuffer
  0
IDBUFFER
  5
275
330
0
100
AcDbIdBuffer
330
23C
330
23D
330
242
330
244
330
245
330
24A
330
256
330
257
330
258
330
25B
330
25C
330
263
330
264
330
265
330
266
330
26C
330
26D
330
26E
330
217
330
218
330
219
330
21A
330
220
330
221
330
222
330
223
330
226
330
22D
330
231
330
232
330
233
330
237
330
238
330
239
  0
ENDSEC
  0
EOF
