  0
SECTION
  2
HEADER
  9
$ACADVER
  1
AC1015
  9
$ACADMAINTVER
 70
    13
  9
$DWGCODEPAGE
  3
ANSI_932
  9
$INSBASE
 10
0.0
 20
0.0
 30
0.0
  9
$EXTMIN
 10
94.539363
 20
77.88050486288994
 30
0.0
  9
$EXTMAX
 10
112.539363
 20
147.5424269999999
 30
0.0
  9
$LIMMIN
 10
0.0
 20
0.0
  9
$LIMMAX
 10
297.0
 20
210.0
  9
$ORTHOMODE
 70
     1
  9
$REGENMODE
 70
     1
  9
$FILLMODE
 70
     1
  9
$QTEXTMODE
 70
     0
  9
$MIRRTEXT
 70
     1
  9
$LTSCALE
 40
5.0
  9
$ATTMODE
 70
     1
  9
$TEXTSIZE
 40
2.5
  9
$TRACEWID
 40
1.0
  9
$TEXTSTYLE
  7
STANDARD
  9
$CLAYER
  8
CONTINUOUS
  9
$CELTYPE
  6
ByLayer
  9
$CECOLOR
 62
   256
  9
$CELTSCALE
 40
1.0
  9
$DISPSILH
 70
     0
  9
$DIMSCALE
 40
1.0
  9
$DIMASZ
 40
2.5
  9
$DIMEXO
 40
1.0
  9
$DIMDLI
 40
6.0
  9
$DIMRND
 40
0.0
  9
$DIMDLE
 40
0.0
  9
$DIMEXE
 40
1.0
  9
$DIMTP
 40
495.0
  9
$DIMTM
 40
0.0
  9
$DIMTXT
 40
3.0
  9
$DIMCEN
 40
0.0
  9
$DIMTSZ
 40
0.0
  9
$DIMTOL
 70
     0
  9
$DIMLIM
 70
     0
  9
$DIMTIH
 70
     0
  9
$DIMTOH
 70
     0
  9
$DIMSE1
 70
     0
  9
$DIMSE2
 70
     0
  9
$DIMTAD
 70
     3
  9
$DIMZIN
 70
     8
  9
$DIMBLK
  1

  9
$DIMASO
 70
     0
  9
$DIMSHO
 70
     1
  9
$DIMPOST
  1

  9
$DIMAPOST
  1

  9
$DIMALT
 70
     0
  9
$DIMALTD
 70
     2
  9
$DIMALTF
 40
25.4
  9
$DIMLFAC
 40
1.0
  9
$DIMTOFL
 70
     1
  9
$DIMTVP
 40
0.0
  9
$DIMTIX
 70
     1
  9
$DIMSOXD
 70
     0
  9
$DIMSAH
 70
     1
  9
$DIMBLK1
  1

  9
$DIMBLK2
  1

  9
$DIMSTYLE
  2
ITM
  9
$DIMCLRD
 70
     0
  9
$DIMCLRE
 70
     0
  9
$DIMCLRT
 70
     0
  9
$DIMTFAC
 40
1.0
  9
$DIMGAP
 40
0.5
  9
$DIMJUST
 70
     0
  9
$DIMSD1
 70
     0
  9
$DIMSD2
 70
     0
  9
$DIMTOLJ
 70
     1
  9
$DIMTZIN
 70
     0
  9
$DIMALTZ
 70
     0
  9
$DIMALTTZ
 70
     0
  9
$DIMUPT
 70
     0
  9
$DIMDEC
 70
     4
  9
$DIMTDEC
 70
     4
  9
$DIMALTU
 70
     2
  9
$DIMALTTD
 70
     2
  9
$DIMTXSTY
  7
STANDARD
  9
$DIMAUNIT
 70
     0
  9
$DIMADEC
 70
     0
  9
$DIMALTRND
 40
0.0
  9
$DIMAZIN
 70
     0
  9
$DIMDSEP
 70
    46
  9
$DIMATFIT
 70
     3
  9
$DIMFRAC
 70
     0
  9
$DIMLDRBLK
  1

  9
$DIMLUNIT
 70
     2
  9
$DIMLWD
 70
    -2
  9
$DIMLWE
 70
    -2
  9
$DIMTMOVE
 70
     0
  9
$LUNITS
 70
     2
  9
$LUPREC
 70
     2
  9
$SKETCHINC
 40
1.0
  9
$FILLETRAD
 40
0.0
  9
$AUNITS
 70
     0
  9
$AUPREC
 70
     0
  9
$MENU
  1
.
  9
$ELEVATION
 40
0.0
  9
$PELEVATION
 40
0.0
  9
$THICKNESS
 40
0.0
  9
$LIMCHECK
 70
     0
  9
$CHAMFERA
 40
10.0
  9
$CHAMFERB
 40
10.0
  9
$CHAMFERC
 40
0.0
  9
$CHAMFERD
 40
0.0
  9
$SKPOLY
 70
     0
  9
$TDCREATE
 40
2451449.035611226
  9
$TDUCREATE
 40
2451448.660611226
  9
$TDUPDATE
 40
2454131.686251446
  9
$TDUUPDATE
 40
2454131.311251446
  9
$TDINDWG
 40
0.0344489352
  9
$TDUSRTIMER
 40
0.0016612384
  9
$USRTIMER
 70
     1
  9
$ANGBASE
 50
0.0
  9
$ANGDIR
 70
     0
  9
$PDMODE
 70
     0
  9
$PDSIZE
 40
0.0
  9
$PLINEWID
 40
0.0
  9
$SPLFRAME
 70
     0
  9
$SPLINETYPE
 70
     6
  9
$SPLINESEGS
 70
     8
  9
$HANDSEED
  5
1B8
  9
$SURFTAB1
 70
     6
  9
$SURFTAB2
 70
     6
  9
$SURFTYPE
 70
     6
  9
$SURFU
 70
     6
  9
$SURFV
 70
     6
  9
$UCSBASE
  2

  9
$UCSNAME
  2

  9
$UCSORG
 10
0.0
 20
0.0
 30
0.0
  9
$UCSXDIR
 10
1.0
 20
0.0
 30
0.0
  9
$UCSYDIR
 10
0.0
 20
1.0
 30
0.0
  9
$UCSORTHOREF
  2

  9
$UCSORTHOVIEW
 70
     0
  9
$UCSORGTOP
 10
0.0
 20
0.0
 30
0.0
  9
$UCSORGBOTTOM
 10
0.0
 20
0.0
 30
0.0
  9
$UCSORGLEFT
 10
0.0
 20
0.0
 30
0.0
  9
$UCSORGRIGHT
 10
0.0
 20
0.0
 30
0.0
  9
$UCSORGFRONT
 10
0.0
 20
0.0
 30
0.0
  9
$UCSORGBACK
 10
0.0
 20
0.0
 30
0.0
  9
$PUCSBASE
  2

  9
$PUCSNAME
  2

  9
$PUCSORG
 10
0.0
 20
0.0
 30
0.0
  9
$PUCSXDIR
 10
1.0
 20
0.0
 30
0.0
  9
$PUCSYDIR
 10
0.0
 20
1.0
 30
0.0
  9
$PUCSORTHOREF
  2

  9
$PUCSORTHOVIEW
 70
     0
  9
$PUCSORGTOP
 10
0.0
 20
0.0
 30
0.0
  9
$PUCSORGBOTTOM
 10
0.0
 20
0.0
 30
0.0
  9
$PUCSORGLEFT
 10
0.0
 20
0.0
 30
0.0
  9
$PUCSORGRIGHT
 10
0.0
 20
0.0
 30
0.0
  9
$PUCSORGFRONT
 10
0.0
 20
0.0
 30
0.0
  9
$PUCSORGBACK
 10
0.0
 20
0.0
 30
0.0
  9
$USERI1
 70
     3
  9
$USERI2
 70
     1
  9
$USERI3
 70
     1
  9
$USERI4
 70
     0
  9
$USERI5
 70
     0
  9
$USERR1
 40
1.0
  9
$USERR2
 40
3.0
  9
$USERR3
 40
3.0
  9
$USERR4
 40
2.5
  9
$USERR5
 40
10.0
  9
$WORLDVIEW
 70
     1
  9
$SHADEDGE
 70
     3
  9
$SHADEDIF
 70
    70
  9
$TILEMODE
 70
     1
  9
$MAXACTVP
 70
    16
  9
$PINSBASE
 10
0.0
 20
0.0
 30
0.0
  9
$PLIMCHECK
 70
     0
  9
$PEXTMIN
 10
1.000000000000000E+20
 20
1.000000000000000E+20
 30
1.000000000000000E+20
  9
$PEXTMAX
 10
-1.000000000000000E+20
 20
-1.000000000000000E+20
 30
-1.000000000000000E+20
  9
$PLIMMIN
 10
0.0
 20
0.0
  9
$PLIMMAX
 10
420.0
 20
297.0
  9
$UNITMODE
 70
     0
  9
$VISRETAIN
 70
     0
  9
$PLINEGEN
 70
     0
  9
$PSLTSCALE
 70
     1
  9
$TREEDEPTH
 70
  3020
  9
$CMLSTYLE
  2
Standard
  9
$CMLJUST
 70
     0
  9
$CMLSCALE
 40
1.0
  9
$PROXYGRAPHICS
 70
     1
  9
$MEASUREMENT
 70
     0
  9
$CELWEIGHT
370
    -1
  9
$ENDCAPS
280
     0
  9
$JOINSTYLE
280
     0
  9
$LWDISPLAY
290
     0
  9
$INSUNITS
 70
     0
  9
$HYPERLINKBASE
  1

  9
$STYLESHEET
  1

  9
$XEDIT
290
     1
  9
$CEPSNTYPE
380
     0
  9
$PSTYLEMODE
290
     1
  9
$FINGERPRINTGUID
  2
{E1CCF3AD-5121-4FFB-81AB-48F6ECF746BC}
  9
$VERSIONGUID
  2
{08BD576F-D6CE-4777-BDB7-1C3A58265D31}
  9
$EXTNAMES
290
     1
  9
$PSVPSCALE
 40
0.0
  9
$OLESTARTUP
290
     0
  0
ENDSEC
  0
SECTION
  2
CLASSES
  0
CLASS
  1
ACDBDICTIONARYWDFLT
  2
AcDbDictionaryWithDefault
  3
AutoCAD 2000
 90
        0
280
     0
281
     0
  0
CLASS
  1
ACDBPLACEHOLDER
  2
AcDbPlaceHolder
  3
AutoCAD 2000
 90
        0
280
     0
281
     0
  0
CLASS
  1
LAYOUT
  2
AcDbLayout
  3
AutoCAD 2000
 90
        0
280
     0
281
     0
  0
CLASS
  1
AMGSETTINGSOBJ
  2
AmgSettingsObj
  3
"AcadM|Product Description: AutoCAD Mechanical 2000|Company: Autodesk"
 90
        0
280
     0
281
     0
  0
CLASS
  1
ACME_DOCUMENT
  2
AcMeDbDoc
  3
AcMeServices
 90
        0
280
     0
281
     0
  0
CLASS
  1
ACMESCOPE
  2
AcMeScope
  3
AcMeServices
 90
        0
280
     0
281
     0
  0
CLASS
  1
ACMECOMMANDHISTORY
  2
AcMeCommandHistory
  3
AcMeServices
 90
        0
280
     0
281
     0
  0
CLASS
  1
ACIMSYSVARMAN
  2
AcImSysVarManager
  3
AcMeServices
 90
        0
280
     0
281
     0
  0
CLASS
  1
ACIMREALSYSVAR
  2
AcImRealSysVar
  3
AcMeServices
 90
        0
280
     0
281
     0
  0
CLASS
  1
ACIMINTSYSVAR
  2
AcImIntSysVar
  3
AcMeServices
 90
        0
280
     0
281
     0
  0
CLASS
  1
ACMEDRAWINGMAN
  2
AcMeDrawingMan
  3
AcMeServices
 90
        0
280
     0
281
     0
  0
CLASS
  1
ACMEVIEW
  2
AcMeView
  3
AcMeServices
 90
        0
280
     0
281
     0
  0
CLASS
  1
ACDBENTITYCACHE
  2
AcMeEntityCache
  3
AcMeServices
 90
        0
280
     0
281
     0
  0
CLASS
  1
GSMANAGER
  2
AcMeGSManager
  3
AcMeServices
 90
        0
280
     0
281
     0
  0
CLASS
  1
AMDTINTERNALREACTOR
  2
AmdtInternalReactor
  3
AcMeServices
 90
        0
280
     0
281
     0
  0
CLASS
  1
ACMESTATEMGR
  2
AcMeStateMgr
  3
AcMeServices
 90
        0
280
     0
281
     0
  0
CLASS
  1
ACGREFMASTER
  2
AcGrefMaster
  3
AcAttribServices
 90
        0
280
     0
281
     0
  0
CLASS
  1
AM_DRAWING_MGR
  2
AcDmDwgMgr
  3
AcMechDwgViewMgmt
 90
        0
280
     0
281
     0
  0
CLASS
  1
AM_DWG_DOCUMENT
  2
AcDmDwgDocument
  3
AcMechDwgViewMgmt
 90
        0
280
     0
281
     0
  0
CLASS
  1
AM_DWG_SHEET
  2
AcDmSheet
  3
AcMechDwgViewMgmt
 90
        0
280
     0
281
     0
  0
CLASS
  1
AM_VIEWDIMPARMAP
  2
AcDmViewDimParMap
  3
AcMechDwgViewMgmt
 90
        0
280
     0
281
     0
  0
CLASS
  1
AM_DWGMGR_NAME
  2
AcDmDwgMgrName
  3
AcMechDwgViewMgmt
 90
        0
280
     0
281
     0
  0
CLASS
  1
ACME_DATABASE
  2
AcMeDbDatabase
  3
AcMeServices
 90
        0
280
     0
281
     0
  0
CLASS
  1
ACRFINSADJUSTERMGR
  2
AcRfInsAdjusterMgr
  3
AcMeServices
 90
        0
280
     0
281
     0
  0
CLASS
  1
ACGREFACADMASTER
  2
AcGrefacadMaster
  3
AcGrefServices
 90
        0
280
     0
281
     0
  0
CLASS
  1
AMDTMENUSTATEMGR
  2
AmdtMenuStateMgr
  3
McadcomServices
 90
        0
280
     0
281
     0
  0
CLASS
  1
AMDTMCOMMENUSTATE
  2
AmdtMcomMenuState
  3
McadcomServices
 90
        0
280
     0
281
     0
  0
CLASS
  1
AMIMASTER
  2
AmiMaster
  3
AmiServices
 90
        0
280
     0
281
     0
  0
CLASS
  1
ASAPP
  2
AcAsAppObject
  3
AutoSurfServices
 90
        0
280
     0
281
     0
  0
CLASS
  1
IM_STATIC_MAN
  2
AcImStaticVarManager
  3
AcMeServices
 90
        0
280
     0
281
     0
  0
CLASS
  1
ACIMSTRSYSVAR
  2
AcImStrSysVar
  3
AcMeServices
 90
        0
280
     0
281
     0
  0
CLASS
  1
ACIMDBLSTATICVAR
  2
AcImDblStaticVar
  3
AcMeServices
 90
        0
280
     0
281
     0
  0
CLASS
  1
ACIMSTRSTATICVAR
  2
AcImStrStaticVar
  3
AcMeServices
 90
        0
280
     0
281
     0
  0
CLASS
  1
ACIMINTSTATICVAR
  2
AcImIntStaticVar
  3
AcMeServices
 90
        0
280
     0
281
     0
  0
CLASS
  1
ACASGREFMASTER
  2
AcAsGrefMaster
  3
AutoSurfResolverServices
 90
        0
280
     0
281
     0
  0
CLASS
  1
ACADGREFMODULE
  2
AcAdGrefModule
  3
AdGrefServices
 90
        0
280
     0
281
     0
  0
CLASS
  1
AMDTMAPISURFMOUDULE
  2
AmdtMApiSurfModule
  3
MApiSurfServices
 90
        0
280
     0
281
     0
  0
CLASS
  1
MAPIAMMOUDLE
  2
MApiAmModule
  3
MApiAmServices
 90
        0
280
     0
281
     0
  0
CLASS
  1
AMDTADMENUSTATE
  2
AmdtAdMenuState
  3
DesignerServices
 90
        0
280
     0
281
     0
  0
CLASS
  1
ADAPPL
  2
AcAdAppl
  3
DesignerServices
 90
        0
280
     0
281
     0
  0
CLASS
  1
DEPMGR
  2
AcAdDepMgr
  3
DesignerServices
 90
        0
280
     0
281
     0
  0
CLASS
  1
PARAMMGR
  2
AcAdParamMgr
  3
DesignerServices
 90
        0
280
     0
281
     0
  0
CLASS
  1
PARAMSCOPE
  2
AcAdParamScope
  3
DesignerServices
 90
        0
280
     0
281
     0
  0
CLASS
  1
NAMEDAPPL
  2
AcAdNamedAppl
  3
DesignerServices
 90
        0
280
     0
281
     0
  0
CLASS
  1
AMDTDMMENUSTATE
  2
AmdtDmMenuState
  3
AcMechDwgViewMgmt
 90
        0
280
     0
281
     0
  0
CLASS
  1
MAPIADMODULE
  2
MApiAdModule
  3
MApiAdServices
 90
        0
280
     0
281
     0
  0
CLASS
  1
AMDTAMMENUSTATE
  2
AmdtAmMenuState
  3
DesignerAssemblies
 90
        0
280
     0
281
     0
  0
CLASS
  1
ACAMPROJECT
  2
AcAmProject
  3
DesignerAssemblies
 90
        0
280
     0
281
     0
  0
CLASS
  1
ACAMGRCOMPDEF
  2
AcAmGrCompDef
  3
DesignerAssemblies
 90
        0
280
     0
281
     0
  0
CLASS
  1
ACCMCONTEXT
  2
AcCmContext
  3
DesignerAssemblies
 90
        0
280
     0
281
     0
  0
CLASS
  1
ACAMCOMPDEF
  2
AcAmCompDef
  3
DesignerAssemblies
 90
        0
280
     0
281
     0
  0
CLASS
  1
ACAMCOMPDEFMGR
  2
AcAmCompDefMgr
  3
DesignerAssemblies
 90
        0
280
     0
281
     0
  0
CLASS
  1
AMCONTEXTMGR
  2
AcAmContextMgr
  3
DesignerAssemblies
 90
        0
280
     0
281
     0
  0
CLASS
  1
ACAMCONTEXTMODELER
  2
AcAmContextModeler
  3
DesignerAssemblies
 90
        0
280
     0
281
     0
  0
CLASS
  1
ACMDATADICTIONARY
  2
AcmDataDictionary
  3
"AcmSymBB|Product Description: AutoCAD Mechanical 2000|Company: Autodesk"
 90
        0
280
     0
281
     0
  0
CLASS
  1
ACMDATAENTRYBLOCK
  2
AcmDataEntryBlock
  3
"AcmSymBB|Product Description: AutoCAD Mechanical 2000|Company: Autodesk"
 90
        0
280
     0
281
     0
  0
CLASS
  1
CATALOGSTATE
  2
AcAmCatalogState
  3
DesignerAssemblies
 90
        0
280
     0
281
     0
  0
CLASS
  1
ACAMGRCOMPDEFSET
  2
AcAmGrCompDefSet
  3
DesignerAssemblies
 90
        0
280
     0
281
     0
  0
CLASS
  1
AMDTBROWSERDBTAB
  2
AmdtBrowserDbTab
  3
McadcomServices
 90
        0
280
     0
281
     0
  0
CLASS
  1
CBROWSERAPPOBJECT
  2
CBrowserAppObject
  3
McadcomServices
 90
        0
280
     0
281
     0
  0
CLASS
  1
DM_PLACEHOLDER
  2
AcDmSelsetPlaceholder
  3
AcMechDwgViewMgmt
 90
        0
280
     0
281
     0
  0
CLASS
  1
AMGOBJPROPCFG
  2
AmgObjPropCfg
  3
"AmgLay|Product Description: AutoCAD Mechanical 2000|Company: Autodesk"
 90
        1
280
     0
281
     0
  0
CLASS
  1
LAYER_INDEX
  2
AcDbLayerIndex
  3
AutoCAD 2000
 90
        0
280
     0
281
     0
  0
CLASS
  1
IDBUFFER
  2
AcDbIdBuffer
  3
AutoCAD 2000
 90
        0
280
     0
281
     0
  0
CLASS
  1
DICTIONARYVAR
  2
AcDbDictionaryVar
  3
AutoCAD 2000
 90
        0
280
     0
281
     0
  0
CLASS
  1
ACAMGFILTERDAT
  2
AcAmgFilterDat
  3
"AcadM|Product Description: AutoCAD Mechanical 2000|Company: Autodesk"
 90
        0
280
     0
281
     0
  0
ENDSEC
  0
SECTION
  2
TABLES
  0
TABLE
  2
VPORT
  5
8
330
0
100
AcDbSymbolTable
 70
     4
  0
VPORT
  5
1B7
330
8
100
AcDbSymbolTableRecord
100
AcDbViewportTableRecord
  2
*Active
 70
     0
 10
0.0
 20
0.0
 11
1.0
 21
1.0
 12
0.0
 22
0.0
 13
0.0
 23
0.0
 14
10.0
 24
10.0
 15
10.0
 25
10.0
 16
0.0
 26
0.0
 36
1.0
 17
148.5
 27
115.4733247906232
 37
0.0
 40
127.1068705812464
 41
1.462378640776698
 42
50.0
 43
0.0
 44
0.0
 50
0.0
 51
0.0
 71
     0
 72
   100
 73
     1
 74
     0
 75
     0
 76
     0
 77
     0
 78
     0
281
     0
 65
     0
110
0.0
120
0.0
130
0.0
111
1.0
121
0.0
131
0.0
112
0.0
122
1.0
132
0.0
 79
     0
146
0.0
  0
ENDTAB
  0
TABLE
  2
LTYPE
  5
5
330
0
100
AcDbSymbolTable
 70
    16
  0
LTYPE
  5
13
330
5
100
AcDbSymbolTableRecord
100
AcDbLinetypeTableRecord
  2
ByBlock
 70
     0
  3

 72
    65
 73
     0
 40
0.0
  0
LTYPE
  5
14
330
5
100
AcDbSymbolTableRecord
100
AcDbLinetypeTableRecord
  2
ByLayer
 70
     0
  3

 72
    65
 73
     0
 40
0.0
  0
LTYPE
  5
15
330
5
100
AcDbSymbolTableRecord
100
AcDbLinetypeTableRecord
  2
CONTINUOUS
 70
     0
  3
Solid line
 72
    65
 73
     0
 40
0.0
  0
LTYPE
  5
23
330
5
100
AcDbSymbolTableRecord
100
AcDbLinetypeTableRecord
  2
CENTER
 70
     0
  3
____ _ ____ _ ____ _ ____ _ ____ _ ____ _ ____
 72
    65
 73
     4
 40
2.0
 49
1.25
 74
     0
 49
-0.25
 74
     0
 49
0.25
 74
     0
 49
-0.25
 74
     0
  0
LTYPE
  5
C7
330
5
100
AcDbSymbolTableRecord
100
AcDbLinetypeTableRecord
  2
HIDDEN
 70
     0
  3
Hidden __ __ __ __ __ __ __ __ __ __ __ __ __ _
 72
    65
 73
     2
 40
0.375
 49
0.25
 74
     0
 49
-0.125
 74
     0
  0
LTYPE
  5
C8
330
5
100
AcDbSymbolTableRecord
100
AcDbLinetypeTableRecord
  2
PHANTOM2
 70
     0
  3
Phantom (.5x) ___ _ _ ___ _ _ ___ _ _ ___ _ _
 72
    65
 73
     6
 40
1.25
 49
0.625
 74
     0
 49
-0.125
 74
     0
 49
0.125
 74
     0
 49
-0.125
 74
     0
 49
0.125
 74
     0
 49
-0.125
 74
     0
  0
LTYPE
  5
12A
330
5
100
AcDbSymbolTableRecord
100
AcDbLinetypeTableRecord
  2
ASULTYPE
 70
     0
  3
実線
 72
    65
 73
     2
 40
3.0
 49
2.5
 74
     0
 49
0.5
 74
     0
  0
LTYPE
  5
12B
330
5
100
AcDbSymbolTableRecord
100
AcDbLinetypeTableRecord
  2
ASVLTYPE
 70
     0
  3
__ __ __ __ __ __ __ __ __ __ __ __ __ __ __ __ __ __ __ __ __
 72
    65
 73
     2
 40
0.75
 49
0.5
 74
     0
 49
-0.25
 74
     0
  0
LTYPE
  5
16C
330
5
100
AcDbSymbolTableRecord
100
AcDbLinetypeTableRecord
  2
AM_ISO02W050
 70
     0
  3
__ __ __ __ __ __ __ __ __ __ __ __ __ __ __
 72
    65
 73
     2
 40
7.5
 49
6.0
 74
     0
 49
-1.5
 74
     0
  0
LTYPE
  5
16D
330
5
100
AcDbSymbolTableRecord
100
AcDbLinetypeTableRecord
  2
AM_ISO08W050
 70
     0
  3
____ . ____ . ____ . ____ . ____ . ____ . ____
 72
    65
 73
     4
 40
18.0
 49
12.0
 74
     0
 49
-1.5
 74
     0
 49
3.0
 74
     0
 49
-1.5
 74
     0
  0
LTYPE
  5
16E
330
5
100
AcDbSymbolTableRecord
100
AcDbLinetypeTableRecord
  2
AM_ISO09W050
 70
     0
  3
_____ . . _____ . . _____ . . ____ .. ____
 72
    65
 73
     6
 40
22.5
 49
12.0
 74
     0
 49
-1.5
 74
     0
 49
3.0
 74
     0
 49
-1.5
 74
     0
 49
3.0
 74
     0
 49
-1.5
 74
     0
  0
LTYPE
  5
16F
330
5
100
AcDbSymbolTableRecord
100
AcDbLinetypeTableRecord
  2
Amconstr
 70
     0
  3
_______________________
 72
    65
 73
     2
 40
9999.0
 49
9999.0
 74
     0
 49
0.0
 74
     0
  0
LTYPE
  5
170
330
5
100
AcDbSymbolTableRecord
100
AcDbLinetypeTableRecord
  2
AM_ISO08W050x2
 70
     0
  3
__ . __ . __ . __ . __ . __
 72
    65
 73
     4
 40
9.0
 49
6.0
 74
     0
 49
-0.75
 74
     0
 49
1.5
 74
     0
 49
-0.75
 74
     0
  0
LTYPE
  5
171
330
5
100
AcDbSymbolTableRecord
100
AcDbLinetypeTableRecord
  2
AM_ISO02W050x2
 70
     0
  3
 _ _ _ _ _ _ _ _ _ _ _ _
 72
    65
 73
     2
 40
3.75
 49
3.0
 74
     0
 49
-0.75
 74
     0
  0
LTYPE
  5
174
330
5
100
AcDbSymbolTableRecord
100
AcDbLinetypeTableRecord
  2
Amzigzag
 70
     0
  3
/\/-/\/-/\/-/\/-/\/-/\/
 72
    65
 73
     2
 40
11.00009999999999
 49
0.0001
 74
     4
 75
   135
340
173
 46
0.04
 50
0.0
 44
0.0
 45
0.0
 49
-11.0
 74
     0
  0
LTYPE
  5
175
330
5
100
AcDbSymbolTableRecord
100
AcDbLinetypeTableRecord
  2
CENTER2
 70
     0
  3
Center (.5x) ___ _ ___ _ ___ _ ___ _ ___ _ ___
 72
    65
 73
     4
 40
1.125
 49
0.75
 74
     0
 49
-0.125
 74
     0
 49
0.125
 74
     0
 49
-0.125
 74
     0
  0
LTYPE
  5
176
330
5
100
AcDbSymbolTableRecord
100
AcDbLinetypeTableRecord
  2
HIDDEN2
 70
     0
  3
Hidden (.5x) _ _ _ _ _ _ _ _ _ _ _ _ _ _ _ _ _
 72
    65
 73
     2
 40
0.1875
 49
0.125
 74
     0
 49
-0.0625
 74
     0
  0
LTYPE
  5
177
330
5
100
AcDbSymbolTableRecord
100
AcDbLinetypeTableRecord
  2
Amzigzag2
 70
     0
  3
/\/-/\/-/\/-/\/-/\/-/\/
 72
    65
 73
     2
 40
0.4401
 49
0.0001
 74
     4
 75
   135
340
173
 46
0.0016
 50
0.0
 44
0.0
 45
0.0
 49
-0.4400000000000001
 74
     0
  0
ENDTAB
  0
TABLE
  2
LAYER
  5
2
330
0
100
AcDbSymbolTable
 70
    15
  0
LAYER
  5
10
330
2
100
AcDbSymbolTableRecord
100
AcDbLayerTableRecord
  2
0
 70
     0
 62
     7
  6
CONTINUOUS
370
    -3
390
F
  0
LAYER
  5
22
330
2
100
AcDbSymbolTableRecord
100
AcDbLayerTableRecord
  2
CONTINUOUS
 70
     0
 62
     7
  6
CONTINUOUS
370
    -3
390
F
  0
LAYER
  5
24
330
2
100
AcDbSymbolTableRecord
100
AcDbLayerTableRecord
  2
CENTER
 70
     0
 62
     1
  6
CENTER
370
    -3
390
F
  0
LAYER
  5
25
330
2
100
AcDbSymbolTableRecord
100
AcDbLayerTableRecord
  2
TEXT
 70
     0
 62
     3
  6
CONTINUOUS
370
    -3
390
F
  0
LAYER
  5
26
330
2
100
AcDbSymbolTableRecord
100
AcDbLayerTableRecord
  2
THIN
 70
     0
 62
     4
  6
CONTINUOUS
370
    -3
390
F
  0
LAYER
  5
27
330
2
100
AcDbSymbolTableRecord
100
AcDbLayerTableRecord
  2
DASHED
 70
     0
 62
     2
  6
CONTINUOUS
370
    -3
390
F
  0
LAYER
  5
28
330
2
100
AcDbSymbolTableRecord
100
AcDbLayerTableRecord
  2
HATCH
 70
     0
 62
     4
  6
CONTINUOUS
370
    -3
390
F
  0
LAYER
  5
29
330
2
100
AcDbSymbolTableRecord
100
AcDbLayerTableRecord
  2
LEADER
 70
     0
 62
     7
  6
CONTINUOUS
370
    -3
390
F
  0
LAYER
  5
2A
330
2
100
AcDbSymbolTableRecord
100
AcDbLayerTableRecord
  2
LEADERORG
 70
     0
 62
     1
  6
CONTINUOUS
370
    -3
390
F
  0
LAYER
  5
2B
330
2
100
AcDbSymbolTableRecord
100
AcDbLayerTableRecord
  2
DIVIDE
 70
     0
 62
     2
  6
CONTINUOUS
370
    -3
390
F
  0
LAYER
  5
2C
330
2
100
AcDbSymbolTableRecord
100
AcDbLayerTableRecord
  2
POINT
 70
     0
 62
     7
  6
CONTINUOUS
370
    -3
390
F
  0
LAYER
  5
2D
330
2
100
AcDbSymbolTableRecord
100
AcDbLayerTableRecord
  2
DIMENSION
 70
     0
 62
     3
  6
CONTINUOUS
370
    -3
390
F
  0
LAYER
  5
2E
330
2
100
AcDbSymbolTableRecord
100
AcDbLayerTableRecord
  2
DIMENSIONT
 70
     0
 62
    92
  6
CONTINUOUS
370
    -3
390
F
  0
LAYER
  5
2F
330
2
100
AcDbSymbolTableRecord
100
AcDbLayerTableRecord
  2
DOTTED
 70
     0
 62
     2
  6
CONTINUOUS
370
    -3
390
F
  0
LAYER
  5
30
330
2
100
AcDbSymbolTableRecord
100
AcDbLayerTableRecord
  2
FRAME
 70
     0
 62
     5
  6
CONTINUOUS
370
    -3
390
F
  0
ENDTAB
  0
TABLE
  2
STYLE
  5
3
330
0
100
AcDbSymbolTable
 70
     3
  0
STYLE
  5
11
330
3
100
AcDbSymbolTableRecord
100
AcDbTextStyleTableRecord
  2
STANDARD
 70
     0
 40
0.0
 41
1.0
 50
0.0
 71
     0
 42
2.5
  3
txt.shx
  4
EXTFONT.shx
  0
STYLE
  5
31
330
3
100
AcDbSymbolTableRecord
100
AcDbTextStyleTableRecord
  2
K
 70
     0
 40
0.0
 41
1.0
 50
15.0
 71
     0
 42
1.0
  3
ROMANS
  4
EXTFONT
  0
STYLE
  5
173
330
3
100
AcDbSymbolTableRecord
100
AcDbTextStyleTableRecord
  2

 70
     1
 40
0.0
 41
1.0
 50
0.0
 71
     0
 42
2.5
  3
ltypeshp.shx
  4

  0
ENDTAB
  0
TABLE
  2
VIEW
  5
6
330
0
100
AcDbSymbolTable
 70
     0
  0
ENDTAB
  0
TABLE
  2
UCS
  5
7
330
0
100
AcDbSymbolTable
 70
     0
  0
ENDTAB
  0
TABLE
  2
APPID
  5
9
330
0
100
AcDbSymbolTable
 70
    13
  0
APPID
  5
12
330
9
100
AcDbSymbolTableRecord
100
AcDbRegAppTableRecord
  2
ACAD
 70
     0
  0
APPID
  5
32
330
9
100
AcDbSymbolTableRecord
100
AcDbRegAppTableRecord
  2
COMM
 70
     0
  0
APPID
  5
A6
330
9
100
AcDbSymbolTableRecord
100
AcDbRegAppTableRecord
  2
GENIUS_GENDIM_13
 70
     0
  0
APPID
  5
A7
330
9
100
AcDbSymbolTableRecord
100
AcDbRegAppTableRecord
  2
GENIUS_GENDTOL_13
 70
     0
  0
APPID
  5
A8
330
9
100
AcDbSymbolTableRecord
100
AcDbRegAppTableRecord
  2
GENIUS_GE3DTOL_13
 70
     0
  0
APPID
  5
AA
330
9
100
AcDbSymbolTableRecord
100
AcDbRegAppTableRecord
  2
MCAD_NO_VIS
 70
     0
  0
APPID
  5
AB
330
9
100
AcDbSymbolTableRecord
100
AcDbRegAppTableRecord
  2
ACAD_TEMP_GRAPHIC
 70
     0
  0
APPID
  5
DD
330
9
100
AcDbSymbolTableRecord
100
AcDbRegAppTableRecord
  2
AD_DRAW
 70
     0
  0
APPID
  5
E0
330
9
100
AcDbSymbolTableRecord
100
AcDbRegAppTableRecord
  2
ACATTRIBSERVICES
 70
     0
  0
APPID
  5
12C
330
9
100
AcDbSymbolTableRecord
100
AcDbRegAppTableRecord
  2
ASURF_PCURVE_APPNAME
 70
     0
  0
APPID
  5
15B
330
9
100
AcDbSymbolTableRecord
100
AcDbRegAppTableRecord
  2
DESIGNERASSEMBLIES
 70
     0
  0
APPID
  5
163
330
9
100
AcDbSymbolTableRecord
100
AcDbRegAppTableRecord
  2
ACADM_DIM_EDIT
 70
     0
  0
APPID
  5
164
330
9
100
AcDbSymbolTableRecord
100
AcDbRegAppTableRecord
  2
AMDT_DM_ADJ
 70
     0
  0
ENDTAB
  0
TABLE
  2
DIMSTYLE
  5
A
330
0
100
AcDbSymbolTable
 70
     2
100
AcDbDimStyleTable
 71
     0
  0
DIMSTYLE
105
33
330
A
100
AcDbSymbolTableRecord
100
AcDbDimStyleTableRecord
  2
ITM
 70
     0
 41
1.5
 42
1.0
 43
6.0
 44
1.0
 47
495.0
 73
     0
 74
     0
 77
     3
 78
     8
140
3.0
141
0.0
147
0.5
172
     1
173
     1
174
     1
271
     2
272
     2
279
     2
284
     8
285
     8
286
     8
340
11
  0
DIMSTYLE
105
34
330
A
100
AcDbSymbolTableRecord
100
AcDbDimStyleTableRecord
  2
STANDARD
 70
     0
271
     2
272
     2
279
     2
284
     8
285
     8
286
     8
340
11
  0
ENDTAB
  0
TABLE
  2
BLOCK_RECORD
  5
1
330
0
100
AcDbSymbolTable
 70
     2
  0
BLOCK_RECORD
  5
1E
102
{ACAD_XDICTIONARY
360
179
102
}
330
1
100
AcDbSymbolTableRecord
100
AcDbBlockTableRecord
  2
*Model_Space
340
21
  0
BLOCK_RECORD
  5
1A
330
1
100
AcDbSymbolTableRecord
100
AcDbBlockTableRecord
  2
*Paper_Space
340
1D
  0
BLOCK_RECORD
  5
38
330
1
100
AcDbSymbolTableRecord
100
AcDbBlockTableRecord
  2
ITM
340
0
102
{BLKREFS
331
3C
331
3E
331
9F
102
}
  0
BLOCK_RECORD
  5
152
330
1
100
AcDbSymbolTableRecord
100
AcDbBlockTableRecord
  2
*U1
340
0
  0
ENDTAB
  0
ENDSEC
  0
SECTION
  2
BLOCKS
  0
BLOCK
  5
1F
330
1E
100
AcDbEntity
  8
0
100
AcDbBlockBegin
  2
*Model_Space
 70
     0
 10
0.0
 20
0.0
 30
0.0
  3
*Model_Space
  1

  0
ENDBLK
  5
20
330
1E
100
AcDbEntity
  8
0
100
AcDbBlockEnd
  0
BLOCK
  5
1B
330
1A
100
AcDbEntity
 67
     1
  8
0
100
AcDbBlockBegin
  2
*Paper_Space
 70
     0
 10
0.0
 20
0.0
 30
0.0
  3
*Paper_Space
  1

  0
ENDBLK
  5
1C
330
1A
100
AcDbEntity
 67
     1
  8
0
100
AcDbBlockEnd
  0
BLOCK
  5
39
330
38
100
AcDbEntity
  8
0
100
AcDbBlockBegin
  2
ITM
 70
     0
 10
0.0
 20
0.0
 30
0.0
  3
ITM
  1

  0
ENDBLK
  5
3A
330
38
100
AcDbEntity
  8
0
100
AcDbBlockEnd
  0
BLOCK
  5
153
330
152
100
AcDbEntity
  8
0
100
AcDbBlockBegin
  2
*U1
 70
     1
 10
0.0
 20
0.0
 30
0.0
  3
*U1
  1

  0
ENDBLK
  5
154
330
152
100
AcDbEntity
  8
0
100
AcDbBlockEnd
  0
ENDSEC
  0
SECTION
  2
ENTITIES
  0
INSERT
  5
3C
330
1E
100
AcDbEntity
  8
0
  6
Continuous
100
AcDbBlockReference
  2
ITM
 10
90.38856700000001
 20
54.95024599999999
 30
0.0
  0
INSERT
  5
3E
330
1E
100
AcDbEntity
  8
0
  6
Continuous
100
AcDbBlockReference
  2
ITM
 10
112.7917959999999
 20
59.055889
 30
0.0
  0
CIRCLE
  5
3F
330
1E
100
AcDbEntity
  8
CONTINUOUS
100
AcDbCircle
 10
103.5393629999999
 20
138.542427
 30
0.0
 40
8.0
  0
CIRCLE
  5
40
330
1E
100
AcDbEntity
  8
CONTINUOUS
100
AcDbCircle
 10
103.5393629999999
 20
138.542427
 30
0.0
 40
6.0
  0
CIRCLE
  5
41
330
1E
100
AcDbEntity
  8
CONTINUOUS
100
AcDbCircle
 10
103.5393629999999
 20
138.542427
 30
0.0
 40
7.5
  0
LINE
  5
42
330
1E
100
AcDbEntity
  8
CENTER
100
AcDbLine
 10
103.5393629999999
 20
124.457673
 30
0.0
 11
103.5393629999999
 21
82.45358799999999
 31
0.0
  0
LINE
  5
43
330
1E
100
AcDbEntity
  8
CONTINUOUS
100
AcDbLine
 10
95.93936300000001
 20
123.457673
 30
0.0
 11
103.5393629999999
 21
123.457673
 31
0.0
1001
ACAD
1000
ASC_BOUNDS
1002
{
1070
    19
1002
}
  0
LINE
  5
44
330
1E
100
AcDbEntity
  8
CONTINUOUS
100
AcDbLine
 10
95.539363
 20
121.457673
 30
0.0
 11
103.5393629999999
 21
121.457673
 31
0.0
1001
ACAD
1000
ASC_BOUNDS
1002
{
1070
    19
1002
}
  0
LINE
  5
45
330
1E
100
AcDbEntity
  8
CONTINUOUS
100
AcDbLine
 10
95.539363
 20
123.0576729999999
 30
0.0
 11
103.5393629999999
 21
123.0576729999999
 31
0.0
1001
ACAD
1000
ASC_BOUNDS
1002
{
1070
    19
1002
}
  0
LINE
  5
46
330
1E
100
AcDbEntity
  8
CONTINUOUS
100
AcDbLine
 10
95.539363
 20
123.0576729999999
 30
0.0
 11
95.539363
 21
120.1086639999999
 31
0.0
1001
ACAD
1000
ASC_BOUNDS
1002
{
1070
    19
1002
}
  0
LINE
  5
47
330
1E
100
AcDbEntity
  8
CONTINUOUS
100
AcDbLine
 10
99.296883
 20
117.401406
 30
0.0
 11
99.539363
 21
110.457673
 31
0.0
  0
LINE
  5
48
330
1E
100
AcDbEntity
  8
CONTINUOUS
100
AcDbLine
 10
99.44741399999999
 20
118.0761539999999
 30
0.0
 11
103.5393629999999
 21
118.0761539999999
 31
0.0
  0
LINE
  5
49
330
1E
100
AcDbEntity
  8
CONTINUOUS
100
AcDbLine
 10
96.314851
 20
119.2978169999999
 30
0.0
 11
103.5393629999999
 21
119.2978169999999
 31
0.0
  0
LINE
  5
4A
330
1E
100
AcDbEntity
  8
CONTINUOUS
100
AcDbLine
 10
96.651134
 20
118.6597749999999
 30
0.0
 11
98.74145400000001
 21
118.099675
 31
0.0
  0
ARC
  5
4B
330
1E
100
AcDbEntity
  8
CONTINUOUS
100
AcDbCircle
 10
97.039363
 20
120.1086639999999
 30
0.0
 40
1.5
100
AcDbArc
 50
180.0
 51
255.0
1001
ACAD
1000
ASC_BOUNDS
1002
{
1070
    19
1002
}
  0
ARC
  5
4C
330
1E
100
AcDbEntity
  8
CONTINUOUS
100
AcDbCircle
 10
98.54733900000001
 20
117.375231
 30
0.0
 40
0.75
100
AcDbArc
 50
2.0
 51
75.0
  0
LINE
  5
4D
330
1E
100
AcDbEntity
  8
CONTINUOUS
100
AcDbLine
 10
95.539363
 20
123.0576729999999
 30
0.0
 11
95.93936300000001
 21
123.457673
 31
0.0
1001
ACAD
1000
ASC_BOUNDS
1002
{
1070
    19
1002
}
  0
LINE
  5
4E
330
1E
100
AcDbEntity
  8
CONTINUOUS
100
AcDbLine
 10
99.539363
 20
121.457673
 30
0.0
 11
99.539363
 21
123.0576729999999
 31
0.0
  0
LINE
  5
4F
330
1E
100
AcDbEntity
  8
CONTINUOUS
100
AcDbLine
 10
99.03936299999999
 20
121.457673
 30
0.0
 11
99.03936299999999
 21
123.0576729999999
 31
0.0
  0
LINE
  5
50
330
1E
100
AcDbEntity
  8
CONTINUOUS
100
AcDbLine
 10
98.539363
 20
121.457673
 30
0.0
 11
98.539363
 21
123.0576729999999
 31
0.0
  0
LINE
  5
51
330
1E
100
AcDbEntity
  8
CONTINUOUS
100
AcDbLine
 10
98.039363
 20
121.457673
 30
0.0
 11
98.039363
 21
123.0576729999999
 31
0.0
  0
LINE
  5
52
330
1E
100
AcDbEntity
  8
CONTINUOUS
100
AcDbLine
 10
97.53936299999999
 20
121.457673
 30
0.0
 11
97.53936299999999
 21
123.0576729999999
 31
0.0
  0
LINE
  5
53
330
1E
100
AcDbEntity
  8
CONTINUOUS
100
AcDbLine
 10
97.039363
 20
121.457673
 30
0.0
 11
97.039363
 21
123.0576729999999
 31
0.0
  0
LINE
  5
54
330
1E
100
AcDbEntity
  8
CONTINUOUS
100
AcDbLine
 10
96.53936299999999
 20
121.457673
 30
0.0
 11
96.53936299999999
 21
123.0576729999999
 31
0.0
  0
LINE
  5
55
330
1E
100
AcDbEntity
  8
CONTINUOUS
100
AcDbLine
 10
96.039363
 20
121.457673
 30
0.0
 11
96.039363
 21
123.0576729999999
 31
0.0
  0
LINE
  5
56
330
1E
100
AcDbEntity
  8
CONTINUOUS
100
AcDbLine
 10
100.039363
 20
121.457673
 30
0.0
 11
100.039363
 21
123.0576729999999
 31
0.0
  0
LINE
  5
57
330
1E
100
AcDbEntity
  8
CONTINUOUS
100
AcDbLine
 10
100.5393629999999
 20
121.457673
 30
0.0
 11
100.5393629999999
 21
123.0576729999999
 31
0.0
  0
LINE
  5
58
330
1E
100
AcDbEntity
  8
CONTINUOUS
100
AcDbLine
 10
101.039363
 20
121.457673
 30
0.0
 11
101.039363
 21
123.0576729999999
 31
0.0
  0
LINE
  5
59
330
1E
100
AcDbEntity
  8
CONTINUOUS
100
AcDbLine
 10
101.5393629999999
 20
121.457673
 30
0.0
 11
101.5393629999999
 21
123.0576729999999
 31
0.0
  0
LINE
  5
5A
330
1E
100
AcDbEntity
  8
CONTINUOUS
100
AcDbLine
 10
102.039363
 20
121.457673
 30
0.0
 11
102.039363
 21
123.0576729999999
 31
0.0
  0
LINE
  5
5B
330
1E
100
AcDbEntity
  8
CONTINUOUS
100
AcDbLine
 10
102.5393629999999
 20
121.457673
 30
0.0
 11
102.5393629999999
 21
123.0576729999999
 31
0.0
  0
LINE
  5
5C
330
1E
100
AcDbEntity
  8
CONTINUOUS
100
AcDbLine
 10
103.039363
 20
121.457673
 30
0.0
 11
103.039363
 21
123.0576729999999
 31
0.0
  0
LINE
  5
5D
330
1E
100
AcDbEntity
  8
CONTINUOUS
100
AcDbLine
 10
103.5393629999999
 20
121.457673
 30
0.0
 11
103.5393629999999
 21
123.0576729999999
 31
0.0
  0
LINE
  5
5E
330
1E
100
AcDbEntity
  8
CONTINUOUS
100
AcDbLine
 10
111.539363
 20
123.0576729999999
 30
0.0
 11
111.139363
 21
123.457673
 31
0.0
1001
ACAD
1000
ASC_BOUNDS
1002
{
1070
    19
1002
}
  0
ARC
  5
5F
330
1E
100
AcDbEntity
  8
CONTINUOUS
100
AcDbCircle
 10
108.531387
 20
117.375231
 30
0.0
 40
0.75
100
AcDbArc
 50
105.0
 51
178.0
  0
ARC
  5
60
330
1E
100
AcDbEntity
  8
CONTINUOUS
100
AcDbCircle
 10
110.0393629999999
 20
120.1086639999999
 30
0.0
 40
1.5
100
AcDbArc
 50
285.0
 51
0.0
1001
ACAD
1000
ASC_BOUNDS
1002
{
1070
    19
1002
}
  0
LINE
  5
61
330
1E
100
AcDbEntity
  8
CONTINUOUS
100
AcDbLine
 10
110.4275919999999
 20
118.6597749999999
 30
0.0
 11
108.337272
 21
118.099675
 31
0.0
  0
LINE
  5
62
330
1E
100
AcDbEntity
  8
CONTINUOUS
100
AcDbLine
 10
110.763875
 20
119.2978169999999
 30
0.0
 11
103.5393629999999
 21
119.2978169999999
 31
0.0
  0
LINE
  5
63
330
1E
100
AcDbEntity
  8
CONTINUOUS
100
AcDbLine
 10
107.631312
 20
118.0761539999999
 30
0.0
 11
103.5393629999999
 21
118.0761539999999
 31
0.0
  0
LINE
  5
64
330
1E
100
AcDbEntity
  8
CONTINUOUS
100
AcDbLine
 10
107.7818429999999
 20
117.401406
 30
0.0
 11
107.5393629999999
 21
110.457673
 31
0.0
  0
LINE
  5
65
330
1E
100
AcDbEntity
  8
CONTINUOUS
100
AcDbLine
 10
111.539363
 20
123.0576729999999
 30
0.0
 11
111.539363
 21
120.1086639999999
 31
0.0
1001
ACAD
1000
ASC_BOUNDS
1002
{
1070
    19
1002
}
  0
LINE
  5
66
330
1E
100
AcDbEntity
  8
CONTINUOUS
100
AcDbLine
 10
111.539363
 20
123.0576729999999
 30
0.0
 11
103.5393629999999
 21
123.0576729999999
 31
0.0
1001
ACAD
1000
ASC_BOUNDS
1002
{
1070
    19
1002
}
  0
LINE
  5
67
330
1E
100
AcDbEntity
  8
CONTINUOUS
100
AcDbLine
 10
111.539363
 20
121.457673
 30
0.0
 11
103.5393629999999
 21
121.457673
 31
0.0
1001
ACAD
1000
ASC_BOUNDS
1002
{
1070
    19
1002
}
  0
LINE
  5
68
330
1E
100
AcDbEntity
  8
CONTINUOUS
100
AcDbLine
 10
111.139363
 20
123.457673
 30
0.0
 11
103.5393629999999
 21
123.457673
 31
0.0
1001
ACAD
1000
ASC_BOUNDS
1002
{
1070
    19
1002
}
  0
LINE
  5
69
330
1E
100
AcDbEntity
  8
CONTINUOUS
100
AcDbLine
 10
104.039363
 20
121.457673
 30
0.0
 11
104.039363
 21
123.0576729999999
 31
0.0
  0
LINE
  5
6A
330
1E
100
AcDbEntity
  8
CONTINUOUS
100
AcDbLine
 10
104.5393629999999
 20
121.457673
 30
0.0
 11
104.5393629999999
 21
123.0576729999999
 31
0.0
  0
LINE
  5
6B
330
1E
100
AcDbEntity
  8
CONTINUOUS
100
AcDbLine
 10
105.0393629999999
 20
121.457673
 30
0.0
 11
105.0393629999999
 21
123.0576729999999
 31
0.0
  0
LINE
  5
6C
330
1E
100
AcDbEntity
  8
CONTINUOUS
100
AcDbLine
 10
105.5393629999999
 20
121.457673
 30
0.0
 11
105.5393629999999
 21
123.0576729999999
 31
0.0
  0
LINE
  5
6D
330
1E
100
AcDbEntity
  8
CONTINUOUS
100
AcDbLine
 10
106.0393629999999
 20
121.457673
 30
0.0
 11
106.0393629999999
 21
123.0576729999999
 31
0.0
  0
LINE
  5
6E
330
1E
100
AcDbEntity
  8
CONTINUOUS
100
AcDbLine
 10
106.5393629999999
 20
121.457673
 30
0.0
 11
106.5393629999999
 21
123.0576729999999
 31
0.0
  0
LINE
  5
6F
330
1E
100
AcDbEntity
  8
CONTINUOUS
100
AcDbLine
 10
107.0393629999999
 20
121.457673
 30
0.0
 11
107.0393629999999
 21
123.0576729999999
 31
0.0
  0
LINE
  5
70
330
1E
100
AcDbEntity
  8
CONTINUOUS
100
AcDbLine
 10
111.0393629999999
 20
121.457673
 30
0.0
 11
111.0393629999999
 21
123.0576729999999
 31
0.0
  0
LINE
  5
71
330
1E
100
AcDbEntity
  8
CONTINUOUS
100
AcDbLine
 10
110.539363
 20
121.457673
 30
0.0
 11
110.539363
 21
123.0576729999999
 31
0.0
  0
LINE
  5
72
330
1E
100
AcDbEntity
  8
CONTINUOUS
100
AcDbLine
 10
110.0393629999999
 20
121.457673
 30
0.0
 11
110.0393629999999
 21
123.0576729999999
 31
0.0
  0
LINE
  5
73
330
1E
100
AcDbEntity
  8
CONTINUOUS
100
AcDbLine
 10
109.539363
 20
121.457673
 30
0.0
 11
109.539363
 21
123.0576729999999
 31
0.0
  0
LINE
  5
74
330
1E
100
AcDbEntity
  8
CONTINUOUS
100
AcDbLine
 10
109.0393629999999
 20
121.457673
 30
0.0
 11
109.0393629999999
 21
123.0576729999999
 31
0.0
  0
LINE
  5
75
330
1E
100
AcDbEntity
  8
CONTINUOUS
100
AcDbLine
 10
108.5393629999999
 20
121.457673
 30
0.0
 11
108.5393629999999
 21
123.0576729999999
 31
0.0
  0
LINE
  5
76
330
1E
100
AcDbEntity
  8
CONTINUOUS
100
AcDbLine
 10
108.0393629999999
 20
121.457673
 30
0.0
 11
108.0393629999999
 21
123.0576729999999
 31
0.0
  0
LINE
  5
77
330
1E
100
AcDbEntity
  8
CONTINUOUS
100
AcDbLine
 10
107.5393629999999
 20
121.457673
 30
0.0
 11
107.5393629999999
 21
123.0576729999999
 31
0.0
  0
LINE
  5
78
330
1E
100
AcDbEntity
  8
CONTINUOUS
100
AcDbLine
 10
108.1393629999999
 20
110.065524
 30
0.0
 11
108.1393629999999
 21
104.849822
 31
0.0
  0
LINE
  5
79
330
1E
100
AcDbEntity
  8
CONTINUOUS
100
AcDbLine
 10
107.4601409999999
 20
110.457673
 30
0.0
 11
103.5393629999999
 21
110.457673
 31
0.0
  0
ARC
  5
7A
330
1E
100
AcDbEntity
  8
CONTINUOUS
100
AcDbCircle
 10
106.9893629999999
 20
108.70063
 30
0.0
 40
1.757043999999999
100
AcDbArc
 50
49.11760800000001
 51
129.674575
  0
LINE
  5
7B
330
1E
100
AcDbEntity
  8
CONTINUOUS
100
AcDbLine
 10
105.86762
 20
104.86235
 30
0.0
 11
105.86762
 21
110.052996
 31
0.0
  0
ARC
  5
7C
330
1E
100
AcDbEntity
  8
CONTINUOUS
100
AcDbCircle
 10
103.5393629999999
 20
103.557673
 30
0.0
 40
6.9
100
AcDbArc
 50
70.27971499999999
 51
90.0
  0
LINE
  5
7D
330
1E
100
AcDbEntity
  8
CONTINUOUS
100
AcDbLine
 10
107.4601409999999
 20
110.457673
 30
0.0
 11
108.1393629999999
 21
110.065524
 31
0.0
  0
LINE
  5
7E
330
1E
100
AcDbEntity
  8
CONTINUOUS
100
AcDbLine
 10
107.4601409999999
 20
104.4576729999999
 30
0.0
 11
103.5393629999999
 21
104.4576729999999
 31
0.0
  0
ARC
  5
7F
330
1E
100
AcDbEntity
  8
CONTINUOUS
100
AcDbCircle
 10
106.9893629999999
 20
106.214717
 30
0.0
 40
1.757043999999999
100
AcDbArc
 50
230.325425
 51
310.8823919999999
  0
LINE
  5
80
330
1E
100
AcDbEntity
  8
CONTINUOUS
100
AcDbLine
 10
107.4601409999999
 20
104.4576729999999
 30
0.0
 11
108.1393629999999
 21
104.849822
 31
0.0
  0
ARC
  5
81
330
1E
100
AcDbEntity
  8
CONTINUOUS
100
AcDbCircle
 10
103.5393629999999
 20
111.3576729999999
 30
0.0
 40
6.9
100
AcDbArc
 50
270.0
 51
289.7202849999999
  0
LINE
  5
82
330
1E
100
AcDbEntity
  8
CONTINUOUS
100
AcDbLine
 10
107.5393629999999
 20
104.378451
 30
0.0
 11
107.4601409999999
 21
104.4576729999999
 31
0.0
  0
LINE
  5
83
330
1E
100
AcDbEntity
  8
CONTINUOUS
100
AcDbLine
 10
106.0393629999999
 20
88.45358799999999
 30
0.0
 11
106.0393629999999
 21
85.16359900000001
 31
0.0
  0
LINE
  5
84
330
1E
100
AcDbEntity
  8
CONTINUOUS
100
AcDbLine
 10
107.5393629999999
 20
89.218588
 30
0.0
 11
107.5393629999999
 21
104.4576729999999
 31
0.0
1001
ACAD
1000
ASC_BOUNDS
1002
{
1070
    19
1002
}
  0
LINE
  5
85
330
1E
100
AcDbEntity
  8
THIN
100
AcDbLine
 10
106.774363
 20
88.45358799999999
 30
0.0
 11
106.774363
 21
104.4576729999999
 31
0.0
  0
LINE
  5
86
330
1E
100
AcDbEntity
  8
CONTINUOUS
100
AcDbLine
 10
106.774363
 20
88.45358799999999
 30
0.0
 11
103.5393629999999
 21
88.45358799999999
 31
0.0
  0
LINE
  5
87
330
1E
100
AcDbEntity
  8
CONTINUOUS
100
AcDbLine
 10
107.5393629999999
 20
89.218588
 30
0.0
 11
106.774363
 21
88.45358799999999
 31
0.0
  0
LINE
  5
88
330
1E
100
AcDbEntity
  8
CONTINUOUS
100
AcDbLine
 10
107.5393629999999
 20
89.218588
 30
0.0
 11
103.5393629999999
 21
89.218588
 31
0.0
  0
LINE
  5
89
330
1E
100
AcDbEntity
  8
CONTINUOUS
100
AcDbLine
 10
99.539363
 20
104.378451
 30
0.0
 11
99.61858499999999
 21
104.4576729999999
 31
0.0
  0
LINE
  5
8A
330
1E
100
AcDbEntity
  8
CONTINUOUS
100
AcDbLine
 10
99.539363
 20
89.218588
 30
0.0
 11
103.5393629999999
 21
89.218588
 31
0.0
  0
LINE
  5
8B
330
1E
100
AcDbEntity
  8
CONTINUOUS
100
AcDbLine
 10
99.539363
 20
89.218588
 30
0.0
 11
100.304363
 21
88.45358799999999
 31
0.0
  0
LINE
  5
8C
330
1E
100
AcDbEntity
  8
CONTINUOUS
100
AcDbLine
 10
106.0393629999999
 20
85.16359900000001
 30
0.0
 11
105.7393629999999
 21
83.963599
 31
0.0
  0
LINE
  5
8D
330
1E
100
AcDbEntity
  8
CONTINUOUS
100
AcDbLine
 10
101.039363
 20
85.16359900000001
 30
0.0
 11
101.339363
 21
83.963599
 31
0.0
  0
LINE
  5
8E
330
1E
100
AcDbEntity
  8
CONTINUOUS
100
AcDbLine
 10
101.039363
 20
85.16359900000001
 30
0.0
 11
106.0393629999999
 21
85.16359900000001
 31
0.0
  0
LINE
  5
8F
330
1E
100
AcDbEntity
  8
CONTINUOUS
100
AcDbLine
 10
101.339363
 20
83.963599
 30
0.0
 11
105.7393629999999
 21
83.963599
 31
0.0
  0
ARC
  5
90
330
1E
100
AcDbEntity
  8
CONTINUOUS
100
AcDbCircle
 10
103.5393629999999
 20
88.45358799999999
 30
0.0
 40
5.0
100
AcDbArc
 50
243.896119
 51
296.103881
  0
LINE
  5
91
330
1E
100
AcDbEntity
  8
CONTINUOUS
100
AcDbLine
 10
100.304363
 20
88.45358799999999
 30
0.0
 11
103.5393629999999
 21
88.45358799999999
 31
0.0
  0
LINE
  5
92
330
1E
100
AcDbEntity
  8
THIN
100
AcDbLine
 10
100.304363
 20
88.45358799999999
 30
0.0
 11
100.304363
 21
104.4576729999999
 31
0.0
  0
LINE
  5
93
330
1E
100
AcDbEntity
  8
CONTINUOUS
100
AcDbLine
 10
99.539363
 20
89.218588
 30
0.0
 11
99.539363
 21
104.4576729999999
 31
0.0
1001
ACAD
1000
ASC_BOUNDS
1002
{
1070
    19
1002
}
  0
ARC
  5
94
330
1E
100
AcDbEntity
  8
CONTINUOUS
100
AcDbCircle
 10
103.5393629999999
 20
111.3576729999999
 30
0.0
 40
6.9
100
AcDbArc
 50
250.2797149999999
 51
270.0
  0
LINE
  5
95
330
1E
100
AcDbEntity
  8
CONTINUOUS
100
AcDbLine
 10
99.61858499999999
 20
104.4576729999999
 30
0.0
 11
98.939363
 21
104.849822
 31
0.0
  0
ARC
  5
96
330
1E
100
AcDbEntity
  8
CONTINUOUS
100
AcDbCircle
 10
100.0893629999999
 20
106.214717
 30
0.0
 40
1.757043999999999
100
AcDbArc
 50
229.117608
 51
309.674575
  0
LINE
  5
97
330
1E
100
AcDbEntity
  8
CONTINUOUS
100
AcDbLine
 10
99.61858499999999
 20
104.4576729999999
 30
0.0
 11
103.5393629999999
 21
104.4576729999999
 31
0.0
  0
LINE
  5
98
330
1E
100
AcDbEntity
  8
CONTINUOUS
100
AcDbLine
 10
99.61858499999999
 20
110.457673
 30
0.0
 11
98.939363
 21
110.065524
 31
0.0
  0
ARC
  5
99
330
1E
100
AcDbEntity
  8
CONTINUOUS
100
AcDbCircle
 10
103.5393629999999
 20
103.557673
 30
0.0
 40
6.9
100
AcDbArc
 50
90.0
 51
109.7202849999999
  0
LINE
  5
9A
330
1E
100
AcDbEntity
  8
CONTINUOUS
100
AcDbLine
 10
101.211106
 20
104.86235
 30
0.0
 11
101.211106
 21
110.052996
 31
0.0
  0
ARC
  5
9B
330
1E
100
AcDbEntity
  8
CONTINUOUS
100
AcDbCircle
 10
100.0893629999999
 20
108.70063
 30
0.0
 40
1.757043999999999
100
AcDbArc
 50
50.32542499999999
 51
130.8823919999999
  0
LINE
  5
9C
330
1E
100
AcDbEntity
  8
CONTINUOUS
100
AcDbLine
 10
99.61858499999999
 20
110.457673
 30
0.0
 11
103.5393629999999
 21
110.457673
 31
0.0
  0
LINE
  5
9D
330
1E
100
AcDbEntity
  8
CONTINUOUS
100
AcDbLine
 10
98.939363
 20
110.065524
 30
0.0
 11
98.939363
 21
104.849822
 31
0.0
  0
LINE
  5
9E
330
1E
100
AcDbEntity
  8
CONTINUOUS
100
AcDbLine
 10
101.039363
 20
88.45358799999999
 30
0.0
 11
101.039363
 21
85.16359900000001
 31
0.0
  0
INSERT
  5
9F
330
1E
100
AcDbEntity
  8
0
  6
Continuous
100
AcDbBlockReference
  2
ITM
 10
136.173337
 20
77.433534
 30
0.0
  0
LINE
  5
A0
330
1E
100
AcDbEntity
  8
CENTER
100
AcDbLine
 10
103.5393629999999
 20
147.5424269999999
 30
0.0
 11
103.5393629999999
 21
129.542427
 31
0.0
  0
LINE
  5
A1
330
1E
100
AcDbEntity
  8
CENTER
100
AcDbLine
 10
112.539363
 20
138.542427
 30
0.0
 11
94.539363
 21
138.542427
 31
0.0
  0
TEXT
  5
1B5
330
1E
100
AcDbEntity
  8
CONTINUOUS
100
AcDbText
 10
95.09464673706418
 20
77.88050486288994
 30
0.0
 40
2.5
  1
IP-8
100
AcDbText
  0
ENDSEC
  0
SECTION
  2
OBJECTS
  0
DICTIONARY
  5
C
330
0
100
AcDbDictionary
281
     1
  3
ACAD_GROUP
350
D
  3
ACAD_LAYOUT
350
19
  3
ACAD_MLINESTYLE
350
16
  3
ACAD_PLOTSETTINGS
350
18
  3
ACAD_PLOTSTYLENAME
350
E
  3
AcDbVariableDictionary
350
18C
  3
AcmDictionary
350
15C
  3
AMG
350
A3
  3
AMGSNAPSETTINGS
350
1AD
  3
DWGPROPS
350
1A5
  3
MAPISURF_MODULE
350
12F
  0
DICTIONARY
  5
179
330
1E
100
AcDbDictionary
280
     1
281
     1
  3
ACAD_INDEX
360
17A
  0
DICTIONARY
  5
D
102
{ACAD_REACTORS
330
C
102
}
330
C
100
AcDbDictionary
281
     1
  0
DICTIONARY
  5
19
102
{ACAD_REACTORS
330
C
102
}
330
C
100
AcDbDictionary
281
     1
  3
Model
350
21
  3
ﾚｲｱｳﾄ1
350
1D
  0
DICTIONARY
  5
16
102
{ACAD_REACTORS
330
C
102
}
330
C
100
AcDbDictionary
281
     1
  3
Standard
350
17
  0
DICTIONARY
  5
18
102
{ACAD_REACTORS
330
C
102
}
330
C
100
AcDbDictionary
281
     1
  0
ACDBDICTIONARYWDFLT
  5
E
102
{ACAD_REACTORS
330
C
102
}
330
C
100
AcDbDictionary
281
     1
  3
Normal
350
F
100
AcDbDictionaryWithDefault
340
F
  0
DICTIONARY
  5
18C
102
{ACAD_REACTORS
330
C
102
}
330
C
100
AcDbDictionary
281
     1
  3
DIMASSOC
350
18E
  3
INDEXCTL
350
18D
  0
DICTIONARY
  5
15C
102
{ACAD_REACTORS
330
C
102
}
330
C
100
AcDbDictionary
281
     1
  3
AcmBOMDATA
350
15D
  0
DICTIONARY
  5
A3
102
{ACAD_REACTORS
330
C
102
}
330
C
100
AcDbDictionary
281
     1
  3
AcMgSettings
350
A4
  3
AMGLAYCFG
350
169
  0
DICTIONARY
  5
1AD
102
{ACAD_REACTORS
330
C
102
}
330
C
100
AcDbDictionary
281
     1
  3
DIMENSION
350
1B2
  3
FEA
350
1B1
  3
HATCH (1)
350
1AE
  3
HATCH (2)
350
1AF
  3
SIMPLE WELD
350
1B3
  3
SYMBOLS
350
1B0
  0
XRECORD
  5
1A5
102
{ACAD_REACTORS
330
C
102
}
330
C
100
AcDbXrecord
280
     1
  1
DWGPROPS COOKIE
  2

  3

  4

  6

  7

  8

  9

300
AmdtFileType=84
301
=
302
=
303
=
304
=
305
=
306
=
307
=
308
=
309
=
 40
0.032921875
 41
2451449.035611226
 42
2454131.676904467
  1

 90
        1
  0
DICTIONARY
  5
17A
102
{ACAD_REACTORS
330
179
102
}
330
179
100
AcDbDictionary
281
     1
  3
*A1
350
17B
  0
LAYOUT
  5
21
102
{ACAD_REACTORS
330
19
102
}
330
19
100
AcDbPlotSettings
  1

  2
EPSON PM-3700C
  4

  6

 40
0.0
 41
0.0
 42
0.0
 43
0.0
 44
0.0
 45
0.0
 46
0.0
 47
0.0
 48
0.0
 49
0.0
140
0.0
141
0.0
142
1.0
143
1.0
 70
  1712
 72
     0
 73
     0
 74
     0
  7

 75
     0
147
1.0
148
0.0
149
0.0
100
AcDbLayout
  1
Model
 70
     1
 71
     0
 10
0.0
 20
0.0
 11
12.0
 21
9.0
 12
0.0
 22
0.0
 32
0.0
 14
0.0
 24
0.0
 34
0.0
 15
0.0
 25
0.0
 35
0.0
146
0.0
 13
0.0
 23
0.0
 33
0.0
 16
1.0
 26
0.0
 36
0.0
 17
0.0
 27
1.0
 37
0.0
 76
     0
330
1E
  0
LAYOUT
  5
1D
102
{ACAD_REACTORS
330
19
102
}
330
19
100
AcDbPlotSettings
  1

  2
EPSON PM-3700C
  4

  6

 40
0.0
 41
0.0
 42
0.0
 43
0.0
 44
0.0
 45
0.0
 46
0.0
 47
0.0
 48
0.0
 49
0.0
140
0.0
141
0.0
142
1.0
143
1.0
 70
   688
 72
     0
 73
     0
 74
     5
  7

 75
    16
147
1.0
148
0.0
149
0.0
100
AcDbLayout
  1
ﾚｲｱｳﾄ1
 70
     1
 71
     1
 10
0.0
 20
0.0
 11
420.0
 21
297.0
 12
0.0
 22
0.0
 32
0.0
 14
1.000000000000000E+20
 24
1.000000000000000E+20
 34
1.000000000000000E+20
 15
-1.000000000000000E+20
 25
-1.000000000000000E+20
 35
-1.000000000000000E+20
146
0.0
 13
0.0
 23
0.0
 33
0.0
 16
1.0
 26
0.0
 36
0.0
 17
0.0
 27
1.0
 37
0.0
 76
     0
330
1A
  0
MLINESTYLE
  5
17
102
{ACAD_REACTORS
330
16
102
}
330
16
100
AcDbMlineStyle
  2
STANDARD
 70
     0
  3

 62
   256
 51
90.0
 52
90.0
 71
     2
 49
0.5
 62
   256
  6
BYLAYER
 49
-0.5
 62
   256
  6
BYLAYER
  0
ACDBPLACEHOLDER
  5
F
102
{ACAD_REACTORS
330
E
102
}
330
E
  0
DICTIONARYVAR
  5
18E
102
{ACAD_REACTORS
330
18C
102
}
330
18C
100
DictionaryVariables
280
     0
  1
0
  0
DICTIONARYVAR
  5
18D
102
{ACAD_REACTORS
330
18C
102
}
330
18C
100
DictionaryVariables
280
     0
  1
1
  0
ACMDATADICTIONARY
  5
15D
102
{ACAD_REACTORS
330
15C
102
}
330
15C
100
AcDbDictionary
281
     1
  3
*A1
350
15E
100
AcmDataDictionary
  0
DICTIONARY
  5
A4
102
{ACAD_REACTORS
330
A3
102
}
330
A3
100
AcDbDictionary
281
     1
  3
DWGSETTINGS
350
A5
  0
ACAMGFILTERDAT
  5
1B2
102
{ACAD_REACTORS
330
1AD
102
}
330
1AD
100
AcAmgFilterDat
 70
    15
  1
DIMENSION,AMDT_*_DIM
  2
*
  3
*
  4
*
  5
*
290
     1
  0
ACAMGFILTERDAT
  5
1B1
102
{ACAD_REACTORS
330
1AD
102
}
330
1AD
100
AcAmgFilterDat
 70
    15
  1
*
  2
AM_FEA-AM_*
  3
*
  4
*
  5
*
290
     1
  0
ACAMGFILTERDAT
  5
1AE
102
{ACAD_REACTORS
330
1AD
102
}
330
1AD
100
AcAmgFilterDat
 70
    15
  1
HATCH
  2
*
  3
*
  4
*
  5
*
290
     1
  0
ACAMGFILTERDAT
  5
1AF
102
{ACAD_REACTORS
330
1AD
102
}
330
1AD
100
AcAmgFilterDat
 70
    15
  1
LINE
  2
8,8N,*-8,*-8N,AM_8,AM_8N,*-AM_8,*-AM_8N
  3
*
  4
*
  5
INSERT,STDPART2D
290
     1
  0
ACAMGFILTERDAT
  5
1B3
102
{ACAD_REACTORS
330
1AD
102
}
330
1AD
100
AcAmgFilterDat
 70
    15
  1
ARC
  2
AM_5
  3
*
  4
2
  5
INSERT
290
     0
  0
ACAMGFILTERDAT
  5
1B0
102
{ACAD_REACTORS
330
1AD
102
}
330
1AD
100
AcAmgFilterDat
 70
    15
  1
ACMFCFRAME,ACMDATUMTARGET,ACMDATUMID,ACMWELDSYM,ACMSURFSYM,ACMFEATID,ACMPARTREF,ACMBALLOON,AMDTEDGESYM,AMGSCREWCALCTABLE
  2
*
  3
*
  4
*
  5
*
290
     1
  0
LAYER_INDEX
  5
17B
102
{ACAD_REACTORS
330
17A
102
}
330
17A
100
AcDbIndex
 40
2454131.686251446
100
AcDbLayerIndex
  8
0
360
17C
 90
        3
  8
CONTINUOUS
360
17D
 90
       94
  8
CENTER
360
17E
 90
        3
  8
TEXT
360
17F
 90
        0
  8
THIN
360
180
 90
        2
  8
DASHED
360
181
 90
        0
  8
HATCH
360
182
 90
        0
  8
LEADER
360
183
 90
        0
  8
LEADERORG
360
184
 90
        0
  8
DIVIDE
360
185
 90
        0
  8
POINT
360
186
 90
        0
  8
DIMENSION
360
187
 90
        0
  8
DIMENSIONT
360
188
 90
        0
  8
DOTTED
360
189
 90
        0
  8
FRAME
360
18A
 90
        0
  0
ACMDATAENTRYBLOCK
  5
15E
102
{ACAD_REACTORS
330
15D
102
}
330
15D
100
AcmDataEntry
100
AcmDataEntryBlock
  0
IDBUFFER
  5
17C
330
0
100
AcDbIdBuffer
330
3C
330
3E
330
9F
  0
IDBUFFER
  5
17D
330
0
100
AcDbIdBuffer
330
1B5
330
70
330
71
330
72
330
73
330
74
330
75
330
76
330
77
330
78
330
79
330
7A
330
7B
330
7C
330
7D
330
7E
330
7F
330
80
330
81
330
82
330
83
330
84
330
86
330
87
330
88
330
89
330
8A
330
8B
330
8C
330
8D
330
8E
330
8F
330
90
330
91
330
93
330
94
330
95
330
96
330
97
330
98
330
99
330
9A
330
9B
330
9C
330
9D
330
9E
330
3F
330
40
330
41
330
43
330
44
330
45
330
46
330
47
330
48
330
49
330
4A
330
4B
330
4C
330
4D
330
4E
330
4F
330
50
330
51
330
52
330
53
330
54
330
55
330
56
330
57
330
58
330
59
330
5A
330
5B
330
5C
330
5D
330
5E
330
5F
330
60
330
61
330
62
330
63
330
64
330
65
330
66
330
67
330
68
330
69
330
6A
330
6B
330
6C
330
6D
330
6E
330
6F
  0
IDBUFFER
  5
17E
330
0
100
AcDbIdBuffer
330
42
330
A0
330
A1
  0
IDBUFFER
  5
17F
330
0
100
AcDbIdBuffer
  0
IDBUFFER
  5
180
330
0
100
AcDbIdBuffer
330
85
330
92
  0
IDBUFFER
  5
181
330
0
100
AcDbIdBuffer
  0
IDBUFFER
  5
182
330
0
100
AcDbIdBuffer
  0
IDBUFFER
  5
183
330
0
100
AcDbIdBuffer
  0
IDBUFFER
  5
184
330
0
100
AcDbIdBuffer
  0
IDBUFFER
  5
185
330
0
100
AcDbIdBuffer
  0
IDBUFFER
  5
186
330
0
100
AcDbIdBuffer
  0
IDBUFFER
  5
187
330
0
100
AcDbIdBuffer
  0
IDBUFFER
  5
188
330
0
100
AcDbIdBuffer
  0
IDBUFFER
  5
189
330
0
100
AcDbIdBuffer
  0
IDBUFFER
  5
18A
330
0
100
AcDbIdBuffer
  0
ENDSEC
  0
EOF
