  0
SECTION
  2
HEADER
  9
$ACADVER
  1
AC1015
  9
$ACADMAINTVER
 70
    13
  9
$DWGCODEPAGE
  3
ANSI_932
  9
$INSBASE
 10
0.0
 20
0.0
 30
0.0
  9
$EXTMIN
 10
94.01575067657807
 20
86.20022724648155
 30
0.0
  9
$EXTMAX
 10
111.322005
 20
144.4159379999999
 30
0.0
  9
$LIMMIN
 10
0.0
 20
0.0
  9
$LIMMAX
 10
297.0
 20
210.0
  9
$ORTHOMODE
 70
     0
  9
$REGENMODE
 70
     1
  9
$FILLMODE
 70
     1
  9
$QTEXTMODE
 70
     0
  9
$MIRRTEXT
 70
     1
  9
$LTSCALE
 40
5.0
  9
$ATTMODE
 70
     1
  9
$TEXTSIZE
 40
2.5
  9
$TRACEWID
 40
1.0
  9
$TEXTSTYLE
  7
STANDARD
  9
$CLAYER
  8
CONTINUOUS
  9
$CELTYPE
  6
ByLayer
  9
$CECOLOR
 62
   256
  9
$CELTSCALE
 40
1.0
  9
$DISPSILH
 70
     0
  9
$DIMSCALE
 40
1.0
  9
$DIMASZ
 40
2.5
  9
$DIMEXO
 40
1.0
  9
$DIMDLI
 40
6.0
  9
$DIMRND
 40
0.0
  9
$DIMDLE
 40
0.0
  9
$DIMEXE
 40
1.0
  9
$DIMTP
 40
495.0
  9
$DIMTM
 40
0.0
  9
$DIMTXT
 40
3.0
  9
$DIMCEN
 40
0.0
  9
$DIMTSZ
 40
0.0
  9
$DIMTOL
 70
     0
  9
$DIMLIM
 70
     0
  9
$DIMTIH
 70
     0
  9
$DIMTOH
 70
     0
  9
$DIMSE1
 70
     0
  9
$DIMSE2
 70
     0
  9
$DIMTAD
 70
     3
  9
$DIMZIN
 70
     8
  9
$DIMBLK
  1

  9
$DIMASO
 70
     0
  9
$DIMSHO
 70
     1
  9
$DIMPOST
  1

  9
$DIMAPOST
  1

  9
$DIMALT
 70
     0
  9
$DIMALTD
 70
     2
  9
$DIMALTF
 40
25.4
  9
$DIMLFAC
 40
1.0
  9
$DIMTOFL
 70
     1
  9
$DIMTVP
 40
0.0
  9
$DIMTIX
 70
     1
  9
$DIMSOXD
 70
     0
  9
$DIMSAH
 70
     1
  9
$DIMBLK1
  1

  9
$DIMBLK2
  1

  9
$DIMSTYLE
  2
ITM
  9
$DIMCLRD
 70
     0
  9
$DIMCLRE
 70
     0
  9
$DIMCLRT
 70
     0
  9
$DIMTFAC
 40
1.0
  9
$DIMGAP
 40
0.5
  9
$DIMJUST
 70
     0
  9
$DIMSD1
 70
     0
  9
$DIMSD2
 70
     0
  9
$DIMTOLJ
 70
     1
  9
$DIMTZIN
 70
     0
  9
$DIMALTZ
 70
     0
  9
$DIMALTTZ
 70
     0
  9
$DIMUPT
 70
     0
  9
$DIMDEC
 70
     4
  9
$DIMTDEC
 70
     4
  9
$DIMALTU
 70
     2
  9
$DIMALTTD
 70
     2
  9
$DIMTXSTY
  7
STANDARD
  9
$DIMAUNIT
 70
     0
  9
$DIMADEC
 70
     0
  9
$DIMALTRND
 40
0.0
  9
$DIMAZIN
 70
     0
  9
$DIMDSEP
 70
    46
  9
$DIMATFIT
 70
     3
  9
$DIMFRAC
 70
     0
  9
$DIMLDRBLK
  1

  9
$DIMLUNIT
 70
     2
  9
$DIMLWD
 70
    -2
  9
$DIMLWE
 70
    -2
  9
$DIMTMOVE
 70
     0
  9
$LUNITS
 70
     2
  9
$LUPREC
 70
     2
  9
$SKETCHINC
 40
1.0
  9
$FILLETRAD
 40
0.0
  9
$AUNITS
 70
     0
  9
$AUPREC
 70
     0
  9
$MENU
  1
.
  9
$ELEVATION
 40
0.0
  9
$PELEVATION
 40
0.0
  9
$THICKNESS
 40
0.0
  9
$LIMCHECK
 70
     0
  9
$CHAMFERA
 40
10.0
  9
$CHAMFERB
 40
10.0
  9
$CHAMFERC
 40
0.0
  9
$CHAMFERD
 40
0.0
  9
$SKPOLY
 70
     0
  9
$TDCREATE
 40
2451449.035611226
  9
$TDUCREATE
 40
2451448.660611226
  9
$TDUPDATE
 40
2454131.684641736
  9
$TDUUPDATE
 40
2454131.309641736
  9
$TDINDWG
 40
0.0358652315
  9
$TDUSRTIMER
 40
0.0089807523
  9
$USRTIMER
 70
     1
  9
$ANGBASE
 50
0.0
  9
$ANGDIR
 70
     0
  9
$PDMODE
 70
     0
  9
$PDSIZE
 40
0.0
  9
$PLINEWID
 40
0.0
  9
$SPLFRAME
 70
     0
  9
$SPLINETYPE
 70
     6
  9
$SPLINESEGS
 70
     8
  9
$HANDSEED
  5
1BA
  9
$SURFTAB1
 70
     6
  9
$SURFTAB2
 70
     6
  9
$SURFTYPE
 70
     6
  9
$SURFU
 70
     6
  9
$SURFV
 70
     6
  9
$UCSBASE
  2

  9
$UCSNAME
  2

  9
$UCSORG
 10
0.0
 20
0.0
 30
0.0
  9
$UCSXDIR
 10
1.0
 20
0.0
 30
0.0
  9
$UCSYDIR
 10
0.0
 20
1.0
 30
0.0
  9
$UCSORTHOREF
  2

  9
$UCSORTHOVIEW
 70
     0
  9
$UCSORGTOP
 10
0.0
 20
0.0
 30
0.0
  9
$UCSORGBOTTOM
 10
0.0
 20
0.0
 30
0.0
  9
$UCSORGLEFT
 10
0.0
 20
0.0
 30
0.0
  9
$UCSORGRIGHT
 10
0.0
 20
0.0
 30
0.0
  9
$UCSORGFRONT
 10
0.0
 20
0.0
 30
0.0
  9
$UCSORGBACK
 10
0.0
 20
0.0
 30
0.0
  9
$PUCSBASE
  2

  9
$PUCSNAME
  2

  9
$PUCSORG
 10
0.0
 20
0.0
 30
0.0
  9
$PUCSXDIR
 10
1.0
 20
0.0
 30
0.0
  9
$PUCSYDIR
 10
0.0
 20
1.0
 30
0.0
  9
$PUCSORTHOREF
  2

  9
$PUCSORTHOVIEW
 70
     0
  9
$PUCSORGTOP
 10
0.0
 20
0.0
 30
0.0
  9
$PUCSORGBOTTOM
 10
0.0
 20
0.0
 30
0.0
  9
$PUCSORGLEFT
 10
0.0
 20
0.0
 30
0.0
  9
$PUCSORGRIGHT
 10
0.0
 20
0.0
 30
0.0
  9
$PUCSORGFRONT
 10
0.0
 20
0.0
 30
0.0
  9
$PUCSORGBACK
 10
0.0
 20
0.0
 30
0.0
  9
$USERI1
 70
     3
  9
$USERI2
 70
     1
  9
$USERI3
 70
     1
  9
$USERI4
 70
     0
  9
$USERI5
 70
     0
  9
$USERR1
 40
1.0
  9
$USERR2
 40
3.0
  9
$USERR3
 40
3.0
  9
$USERR4
 40
2.5
  9
$USERR5
 40
10.0
  9
$WORLDVIEW
 70
     1
  9
$SHADEDGE
 70
     3
  9
$SHADEDIF
 70
    70
  9
$TILEMODE
 70
     1
  9
$MAXACTVP
 70
    16
  9
$PINSBASE
 10
0.0
 20
0.0
 30
0.0
  9
$PLIMCHECK
 70
     0
  9
$PEXTMIN
 10
1.000000000000000E+20
 20
1.000000000000000E+20
 30
1.000000000000000E+20
  9
$PEXTMAX
 10
-1.000000000000000E+20
 20
-1.000000000000000E+20
 30
-1.000000000000000E+20
  9
$PLIMMIN
 10
0.0
 20
0.0
  9
$PLIMMAX
 10
420.0
 20
297.0
  9
$UNITMODE
 70
     0
  9
$VISRETAIN
 70
     0
  9
$PLINEGEN
 70
     0
  9
$PSLTSCALE
 70
     1
  9
$TREEDEPTH
 70
  3020
  9
$CMLSTYLE
  2
Standard
  9
$CMLJUST
 70
     0
  9
$CMLSCALE
 40
1.0
  9
$PROXYGRAPHICS
 70
     1
  9
$MEASUREMENT
 70
     0
  9
$CELWEIGHT
370
    -1
  9
$ENDCAPS
280
     0
  9
$JOINSTYLE
280
     0
  9
$LWDISPLAY
290
     0
  9
$INSUNITS
 70
     0
  9
$HYPERLINKBASE
  1

  9
$STYLESHEET
  1

  9
$XEDIT
290
     1
  9
$CEPSNTYPE
380
     0
  9
$PSTYLEMODE
290
     1
  9
$FINGERPRINTGUID
  2
{2323F7E8-1D6A-41C4-A48F-E12A9295400E}
  9
$VERSIONGUID
  2
{942AB98E-E046-4DB5-A965-D1130D5842C1}
  9
$EXTNAMES
290
     1
  9
$PSVPSCALE
 40
0.0
  9
$OLESTARTUP
290
     0
  0
ENDSEC
  0
SECTION
  2
CLASSES
  0
CLASS
  1
ACDBDICTIONARYWDFLT
  2
AcDbDictionaryWithDefault
  3
AutoCAD 2000
 90
        0
280
     0
281
     0
  0
CLASS
  1
ACDBPLACEHOLDER
  2
AcDbPlaceHolder
  3
AutoCAD 2000
 90
        0
280
     0
281
     0
  0
CLASS
  1
LAYOUT
  2
AcDbLayout
  3
AutoCAD 2000
 90
        0
280
     0
281
     0
  0
CLASS
  1
AMGSETTINGSOBJ
  2
AmgSettingsObj
  3
"AcadM|Product Description: AutoCAD Mechanical 2000|Company: Autodesk"
 90
        0
280
     0
281
     0
  0
CLASS
  1
ACME_DOCUMENT
  2
AcMeDbDoc
  3
AcMeServices
 90
        0
280
     0
281
     0
  0
CLASS
  1
ACMESCOPE
  2
AcMeScope
  3
AcMeServices
 90
        0
280
     0
281
     0
  0
CLASS
  1
ACMECOMMANDHISTORY
  2
AcMeCommandHistory
  3
AcMeServices
 90
        0
280
     0
281
     0
  0
CLASS
  1
ACIMSYSVARMAN
  2
AcImSysVarManager
  3
AcMeServices
 90
        0
280
     0
281
     0
  0
CLASS
  1
ACIMREALSYSVAR
  2
AcImRealSysVar
  3
AcMeServices
 90
        0
280
     0
281
     0
  0
CLASS
  1
ACIMINTSYSVAR
  2
AcImIntSysVar
  3
AcMeServices
 90
        0
280
     0
281
     0
  0
CLASS
  1
ACMEDRAWINGMAN
  2
AcMeDrawingMan
  3
AcMeServices
 90
        0
280
     0
281
     0
  0
CLASS
  1
ACMEVIEW
  2
AcMeView
  3
AcMeServices
 90
        0
280
     0
281
     0
  0
CLASS
  1
ACDBENTITYCACHE
  2
AcMeEntityCache
  3
AcMeServices
 90
        0
280
     0
281
     0
  0
CLASS
  1
GSMANAGER
  2
AcMeGSManager
  3
AcMeServices
 90
        0
280
     0
281
     0
  0
CLASS
  1
AMDTINTERNALREACTOR
  2
AmdtInternalReactor
  3
AcMeServices
 90
        0
280
     0
281
     0
  0
CLASS
  1
ACMESTATEMGR
  2
AcMeStateMgr
  3
AcMeServices
 90
        0
280
     0
281
     0
  0
CLASS
  1
ACGREFMASTER
  2
AcGrefMaster
  3
AcAttribServices
 90
        0
280
     0
281
     0
  0
CLASS
  1
AM_DRAWING_MGR
  2
AcDmDwgMgr
  3
AcMechDwgViewMgmt
 90
        0
280
     0
281
     0
  0
CLASS
  1
AM_DWG_DOCUMENT
  2
AcDmDwgDocument
  3
AcMechDwgViewMgmt
 90
        0
280
     0
281
     0
  0
CLASS
  1
AM_DWG_SHEET
  2
AcDmSheet
  3
AcMechDwgViewMgmt
 90
        0
280
     0
281
     0
  0
CLASS
  1
AM_VIEWDIMPARMAP
  2
AcDmViewDimParMap
  3
AcMechDwgViewMgmt
 90
        0
280
     0
281
     0
  0
CLASS
  1
AM_DWGMGR_NAME
  2
AcDmDwgMgrName
  3
AcMechDwgViewMgmt
 90
        0
280
     0
281
     0
  0
CLASS
  1
ACME_DATABASE
  2
AcMeDbDatabase
  3
AcMeServices
 90
        0
280
     0
281
     0
  0
CLASS
  1
ACRFINSADJUSTERMGR
  2
AcRfInsAdjusterMgr
  3
AcMeServices
 90
        0
280
     0
281
     0
  0
CLASS
  1
ACGREFACADMASTER
  2
AcGrefacadMaster
  3
AcGrefServices
 90
        0
280
     0
281
     0
  0
CLASS
  1
AMDTMENUSTATEMGR
  2
AmdtMenuStateMgr
  3
McadcomServices
 90
        0
280
     0
281
     0
  0
CLASS
  1
AMDTMCOMMENUSTATE
  2
AmdtMcomMenuState
  3
McadcomServices
 90
        0
280
     0
281
     0
  0
CLASS
  1
AMIMASTER
  2
AmiMaster
  3
AmiServices
 90
        0
280
     0
281
     0
  0
CLASS
  1
ASAPP
  2
AcAsAppObject
  3
AutoSurfServices
 90
        0
280
     0
281
     0
  0
CLASS
  1
IM_STATIC_MAN
  2
AcImStaticVarManager
  3
AcMeServices
 90
        0
280
     0
281
     0
  0
CLASS
  1
ACIMSTRSYSVAR
  2
AcImStrSysVar
  3
AcMeServices
 90
        0
280
     0
281
     0
  0
CLASS
  1
ACIMDBLSTATICVAR
  2
AcImDblStaticVar
  3
AcMeServices
 90
        0
280
     0
281
     0
  0
CLASS
  1
ACIMSTRSTATICVAR
  2
AcImStrStaticVar
  3
AcMeServices
 90
        0
280
     0
281
     0
  0
CLASS
  1
ACIMINTSTATICVAR
  2
AcImIntStaticVar
  3
AcMeServices
 90
        0
280
     0
281
     0
  0
CLASS
  1
ACASGREFMASTER
  2
AcAsGrefMaster
  3
AutoSurfResolverServices
 90
        0
280
     0
281
     0
  0
CLASS
  1
ACADGREFMODULE
  2
AcAdGrefModule
  3
AdGrefServices
 90
        0
280
     0
281
     0
  0
CLASS
  1
AMDTMAPISURFMOUDULE
  2
AmdtMApiSurfModule
  3
MApiSurfServices
 90
        0
280
     0
281
     0
  0
CLASS
  1
MAPIAMMOUDLE
  2
MApiAmModule
  3
MApiAmServices
 90
        0
280
     0
281
     0
  0
CLASS
  1
AMDTADMENUSTATE
  2
AmdtAdMenuState
  3
DesignerServices
 90
        0
280
     0
281
     0
  0
CLASS
  1
ADAPPL
  2
AcAdAppl
  3
DesignerServices
 90
        0
280
     0
281
     0
  0
CLASS
  1
DEPMGR
  2
AcAdDepMgr
  3
DesignerServices
 90
        0
280
     0
281
     0
  0
CLASS
  1
PARAMMGR
  2
AcAdParamMgr
  3
DesignerServices
 90
        0
280
     0
281
     0
  0
CLASS
  1
PARAMSCOPE
  2
AcAdParamScope
  3
DesignerServices
 90
        0
280
     0
281
     0
  0
CLASS
  1
NAMEDAPPL
  2
AcAdNamedAppl
  3
DesignerServices
 90
        0
280
     0
281
     0
  0
CLASS
  1
AMDTDMMENUSTATE
  2
AmdtDmMenuState
  3
AcMechDwgViewMgmt
 90
        0
280
     0
281
     0
  0
CLASS
  1
MAPIADMODULE
  2
MApiAdModule
  3
MApiAdServices
 90
        0
280
     0
281
     0
  0
CLASS
  1
AMDTAMMENUSTATE
  2
AmdtAmMenuState
  3
DesignerAssemblies
 90
        0
280
     0
281
     0
  0
CLASS
  1
ACAMPROJECT
  2
AcAmProject
  3
DesignerAssemblies
 90
        0
280
     0
281
     0
  0
CLASS
  1
ACAMGRCOMPDEF
  2
AcAmGrCompDef
  3
DesignerAssemblies
 90
        0
280
     0
281
     0
  0
CLASS
  1
ACCMCONTEXT
  2
AcCmContext
  3
DesignerAssemblies
 90
        0
280
     0
281
     0
  0
CLASS
  1
ACAMCOMPDEF
  2
AcAmCompDef
  3
DesignerAssemblies
 90
        0
280
     0
281
     0
  0
CLASS
  1
ACAMCOMPDEFMGR
  2
AcAmCompDefMgr
  3
DesignerAssemblies
 90
        0
280
     0
281
     0
  0
CLASS
  1
AMCONTEXTMGR
  2
AcAmContextMgr
  3
DesignerAssemblies
 90
        0
280
     0
281
     0
  0
CLASS
  1
ACAMCONTEXTMODELER
  2
AcAmContextModeler
  3
DesignerAssemblies
 90
        0
280
     0
281
     0
  0
CLASS
  1
ACMDATADICTIONARY
  2
AcmDataDictionary
  3
"AcmSymBB|Product Description: AutoCAD Mechanical 2000|Company: Autodesk"
 90
        0
280
     0
281
     0
  0
CLASS
  1
ACMDATAENTRYBLOCK
  2
AcmDataEntryBlock
  3
"AcmSymBB|Product Description: AutoCAD Mechanical 2000|Company: Autodesk"
 90
        0
280
     0
281
     0
  0
CLASS
  1
CATALOGSTATE
  2
AcAmCatalogState
  3
DesignerAssemblies
 90
        0
280
     0
281
     0
  0
CLASS
  1
ACAMGRCOMPDEFSET
  2
AcAmGrCompDefSet
  3
DesignerAssemblies
 90
        0
280
     0
281
     0
  0
CLASS
  1
AMDTBROWSERDBTAB
  2
AmdtBrowserDbTab
  3
McadcomServices
 90
        0
280
     0
281
     0
  0
CLASS
  1
CBROWSERAPPOBJECT
  2
CBrowserAppObject
  3
McadcomServices
 90
        0
280
     0
281
     0
  0
CLASS
  1
DM_PLACEHOLDER
  2
AcDmSelsetPlaceholder
  3
AcMechDwgViewMgmt
 90
        0
280
     0
281
     0
  0
CLASS
  1
AMGOBJPROPCFG
  2
AmgObjPropCfg
  3
"AmgLay|Product Description: AutoCAD Mechanical 2000|Company: Autodesk"
 90
        1
280
     0
281
     0
  0
CLASS
  1
ACAMGFILTERDAT
  2
AcAmgFilterDat
  3
"AcadM|Product Description: AutoCAD Mechanical 2000|Company: Autodesk"
 90
        0
280
     0
281
     0
  0
CLASS
  1
LAYER_INDEX
  2
AcDbLayerIndex
  3
AutoCAD 2000
 90
        0
280
     0
281
     0
  0
CLASS
  1
IDBUFFER
  2
AcDbIdBuffer
  3
AutoCAD 2000
 90
        0
280
     0
281
     0
  0
CLASS
  1
DICTIONARYVAR
  2
AcDbDictionaryVar
  3
AutoCAD 2000
 90
        0
280
     0
281
     0
  0
ENDSEC
  0
SECTION
  2
TABLES
  0
TABLE
  2
VPORT
  5
8
330
0
100
AcDbSymbolTable
 70
     4
  0
VPORT
  5
1B9
330
8
100
AcDbSymbolTableRecord
100
AcDbViewportTableRecord
  2
*Active
 70
     0
 10
0.0
 20
0.0
 11
1.0
 21
1.0
 12
0.0
 22
0.0
 13
0.0
 23
0.0
 14
10.0
 24
10.0
 15
10.0
 25
10.0
 16
0.0
 26
0.0
 36
1.0
 17
148.5
 27
115.4733247906232
 37
0.0
 40
127.1068705812464
 41
1.462378640776698
 42
50.0
 43
0.0
 44
0.0
 50
0.0
 51
0.0
 71
     0
 72
   100
 73
     1
 74
     0
 75
     0
 76
     0
 77
     0
 78
     0
281
     0
 65
     0
110
0.0
120
0.0
130
0.0
111
1.0
121
0.0
131
0.0
112
0.0
122
1.0
132
0.0
 79
     0
146
0.0
  0
ENDTAB
  0
TABLE
  2
LTYPE
  5
5
330
0
100
AcDbSymbolTable
 70
    16
  0
LTYPE
  5
13
330
5
100
AcDbSymbolTableRecord
100
AcDbLinetypeTableRecord
  2
ByBlock
 70
     0
  3

 72
    65
 73
     0
 40
0.0
  0
LTYPE
  5
14
330
5
100
AcDbSymbolTableRecord
100
AcDbLinetypeTableRecord
  2
ByLayer
 70
     0
  3

 72
    65
 73
     0
 40
0.0
  0
LTYPE
  5
15
330
5
100
AcDbSymbolTableRecord
100
AcDbLinetypeTableRecord
  2
CONTINUOUS
 70
     0
  3
Solid line
 72
    65
 73
     0
 40
0.0
  0
LTYPE
  5
23
330
5
100
AcDbSymbolTableRecord
100
AcDbLinetypeTableRecord
  2
CENTER
 70
     0
  3
____ _ ____ _ ____ _ ____ _ ____ _ ____ _ ____
 72
    65
 73
     4
 40
2.0
 49
1.25
 74
     0
 49
-0.25
 74
     0
 49
0.25
 74
     0
 49
-0.25
 74
     0
  0
LTYPE
  5
C9
330
5
100
AcDbSymbolTableRecord
100
AcDbLinetypeTableRecord
  2
HIDDEN
 70
     0
  3
Hidden __ __ __ __ __ __ __ __ __ __ __ __ __ _
 72
    65
 73
     2
 40
0.375
 49
0.25
 74
     0
 49
-0.125
 74
     0
  0
LTYPE
  5
CA
330
5
100
AcDbSymbolTableRecord
100
AcDbLinetypeTableRecord
  2
PHANTOM2
 70
     0
  3
Phantom (.5x) ___ _ _ ___ _ _ ___ _ _ ___ _ _
 72
    65
 73
     6
 40
1.25
 49
0.625
 74
     0
 49
-0.125
 74
     0
 49
0.125
 74
     0
 49
-0.125
 74
     0
 49
0.125
 74
     0
 49
-0.125
 74
     0
  0
LTYPE
  5
12C
330
5
100
AcDbSymbolTableRecord
100
AcDbLinetypeTableRecord
  2
ASULTYPE
 70
     0
  3
実線
 72
    65
 73
     2
 40
3.0
 49
2.5
 74
     0
 49
0.5
 74
     0
  0
LTYPE
  5
12D
330
5
100
AcDbSymbolTableRecord
100
AcDbLinetypeTableRecord
  2
ASVLTYPE
 70
     0
  3
__ __ __ __ __ __ __ __ __ __ __ __ __ __ __ __ __ __ __ __ __
 72
    65
 73
     2
 40
0.75
 49
0.5
 74
     0
 49
-0.25
 74
     0
  0
LTYPE
  5
16E
330
5
100
AcDbSymbolTableRecord
100
AcDbLinetypeTableRecord
  2
AM_ISO02W050
 70
     0
  3
__ __ __ __ __ __ __ __ __ __ __ __ __ __ __
 72
    65
 73
     2
 40
7.5
 49
6.0
 74
     0
 49
-1.5
 74
     0
  0
LTYPE
  5
16F
330
5
100
AcDbSymbolTableRecord
100
AcDbLinetypeTableRecord
  2
AM_ISO08W050
 70
     0
  3
____ . ____ . ____ . ____ . ____ . ____ . ____
 72
    65
 73
     4
 40
18.0
 49
12.0
 74
     0
 49
-1.5
 74
     0
 49
3.0
 74
     0
 49
-1.5
 74
     0
  0
LTYPE
  5
170
330
5
100
AcDbSymbolTableRecord
100
AcDbLinetypeTableRecord
  2
AM_ISO09W050
 70
     0
  3
_____ . . _____ . . _____ . . ____ .. ____
 72
    65
 73
     6
 40
22.5
 49
12.0
 74
     0
 49
-1.5
 74
     0
 49
3.0
 74
     0
 49
-1.5
 74
     0
 49
3.0
 74
     0
 49
-1.5
 74
     0
  0
LTYPE
  5
171
330
5
100
AcDbSymbolTableRecord
100
AcDbLinetypeTableRecord
  2
Amconstr
 70
     0
  3
_______________________
 72
    65
 73
     2
 40
9999.0
 49
9999.0
 74
     0
 49
0.0
 74
     0
  0
LTYPE
  5
172
330
5
100
AcDbSymbolTableRecord
100
AcDbLinetypeTableRecord
  2
AM_ISO08W050x2
 70
     0
  3
__ . __ . __ . __ . __ . __
 72
    65
 73
     4
 40
9.0
 49
6.0
 74
     0
 49
-0.75
 74
     0
 49
1.5
 74
     0
 49
-0.75
 74
     0
  0
LTYPE
  5
173
330
5
100
AcDbSymbolTableRecord
100
AcDbLinetypeTableRecord
  2
AM_ISO02W050x2
 70
     0
  3
 _ _ _ _ _ _ _ _ _ _ _ _
 72
    65
 73
     2
 40
3.75
 49
3.0
 74
     0
 49
-0.75
 74
     0
  0
LTYPE
  5
176
330
5
100
AcDbSymbolTableRecord
100
AcDbLinetypeTableRecord
  2
Amzigzag
 70
     0
  3
/\/-/\/-/\/-/\/-/\/-/\/
 72
    65
 73
     2
 40
11.00009999999999
 49
0.0001
 74
     4
 75
   135
340
175
 46
0.04
 50
0.0
 44
0.0
 45
0.0
 49
-11.0
 74
     0
  0
LTYPE
  5
177
330
5
100
AcDbSymbolTableRecord
100
AcDbLinetypeTableRecord
  2
CENTER2
 70
     0
  3
Center (.5x) ___ _ ___ _ ___ _ ___ _ ___ _ ___
 72
    65
 73
     4
 40
1.125
 49
0.75
 74
     0
 49
-0.125
 74
     0
 49
0.125
 74
     0
 49
-0.125
 74
     0
  0
LTYPE
  5
178
330
5
100
AcDbSymbolTableRecord
100
AcDbLinetypeTableRecord
  2
HIDDEN2
 70
     0
  3
Hidden (.5x) _ _ _ _ _ _ _ _ _ _ _ _ _ _ _ _ _
 72
    65
 73
     2
 40
0.1875
 49
0.125
 74
     0
 49
-0.0625
 74
     0
  0
LTYPE
  5
179
330
5
100
AcDbSymbolTableRecord
100
AcDbLinetypeTableRecord
  2
Amzigzag2
 70
     0
  3
/\/-/\/-/\/-/\/-/\/-/\/
 72
    65
 73
     2
 40
0.4401
 49
0.0001
 74
     4
 75
   135
340
175
 46
0.0016
 50
0.0
 44
0.0
 45
0.0
 49
-0.4400000000000001
 74
     0
  0
ENDTAB
  0
TABLE
  2
LAYER
  5
2
330
0
100
AcDbSymbolTable
 70
    15
  0
LAYER
  5
10
330
2
100
AcDbSymbolTableRecord
100
AcDbLayerTableRecord
  2
0
 70
     0
 62
     7
  6
CONTINUOUS
370
    -3
390
F
  0
LAYER
  5
22
330
2
100
AcDbSymbolTableRecord
100
AcDbLayerTableRecord
  2
CONTINUOUS
 70
     0
 62
     7
  6
CONTINUOUS
370
    -3
390
F
  0
LAYER
  5
24
330
2
100
AcDbSymbolTableRecord
100
AcDbLayerTableRecord
  2
CENTER
 70
     0
 62
     1
  6
CENTER
370
    -3
390
F
  0
LAYER
  5
25
330
2
100
AcDbSymbolTableRecord
100
AcDbLayerTableRecord
  2
TEXT
 70
     0
 62
     3
  6
CONTINUOUS
370
    -3
390
F
  0
LAYER
  5
26
330
2
100
AcDbSymbolTableRecord
100
AcDbLayerTableRecord
  2
THIN
 70
     0
 62
     4
  6
CONTINUOUS
370
    -3
390
F
  0
LAYER
  5
27
330
2
100
AcDbSymbolTableRecord
100
AcDbLayerTableRecord
  2
DASHED
 70
     0
 62
     2
  6
CONTINUOUS
370
    -3
390
F
  0
LAYER
  5
28
330
2
100
AcDbSymbolTableRecord
100
AcDbLayerTableRecord
  2
HATCH
 70
     0
 62
     4
  6
CONTINUOUS
370
    -3
390
F
  0
LAYER
  5
29
330
2
100
AcDbSymbolTableRecord
100
AcDbLayerTableRecord
  2
LEADER
 70
     0
 62
     7
  6
CONTINUOUS
370
    -3
390
F
  0
LAYER
  5
2A
330
2
100
AcDbSymbolTableRecord
100
AcDbLayerTableRecord
  2
LEADERORG
 70
     0
 62
     1
  6
CONTINUOUS
370
    -3
390
F
  0
LAYER
  5
2B
330
2
100
AcDbSymbolTableRecord
100
AcDbLayerTableRecord
  2
DIVIDE
 70
     0
 62
     2
  6
CONTINUOUS
370
    -3
390
F
  0
LAYER
  5
2C
330
2
100
AcDbSymbolTableRecord
100
AcDbLayerTableRecord
  2
POINT
 70
     0
 62
     7
  6
CONTINUOUS
370
    -3
390
F
  0
LAYER
  5
2D
330
2
100
AcDbSymbolTableRecord
100
AcDbLayerTableRecord
  2
DIMENSION
 70
     0
 62
     3
  6
CONTINUOUS
370
    -3
390
F
  0
LAYER
  5
2E
330
2
100
AcDbSymbolTableRecord
100
AcDbLayerTableRecord
  2
DIMENSIONT
 70
     0
 62
    92
  6
CONTINUOUS
370
    -3
390
F
  0
LAYER
  5
2F
330
2
100
AcDbSymbolTableRecord
100
AcDbLayerTableRecord
  2
DOTTED
 70
     0
 62
     2
  6
CONTINUOUS
370
    -3
390
F
  0
LAYER
  5
30
330
2
100
AcDbSymbolTableRecord
100
AcDbLayerTableRecord
  2
FRAME
 70
     0
 62
     5
  6
CONTINUOUS
370
    -3
390
F
  0
ENDTAB
  0
TABLE
  2
STYLE
  5
3
330
0
100
AcDbSymbolTable
 70
     3
  0
STYLE
  5
11
330
3
100
AcDbSymbolTableRecord
100
AcDbTextStyleTableRecord
  2
STANDARD
 70
     0
 40
0.0
 41
1.0
 50
0.0
 71
     0
 42
2.5
  3
txt.shx
  4
EXTFONT.shx
  0
STYLE
  5
31
330
3
100
AcDbSymbolTableRecord
100
AcDbTextStyleTableRecord
  2
K
 70
     0
 40
0.0
 41
1.0
 50
15.0
 71
     0
 42
1.0
  3
ROMANS
  4
EXTFONT
  0
STYLE
  5
175
330
3
100
AcDbSymbolTableRecord
100
AcDbTextStyleTableRecord
  2

 70
     1
 40
0.0
 41
1.0
 50
0.0
 71
     0
 42
2.5
  3
ltypeshp.shx
  4

  0
ENDTAB
  0
TABLE
  2
VIEW
  5
6
330
0
100
AcDbSymbolTable
 70
     0
  0
ENDTAB
  0
TABLE
  2
UCS
  5
7
330
0
100
AcDbSymbolTable
 70
     0
  0
ENDTAB
  0
TABLE
  2
APPID
  5
9
330
0
100
AcDbSymbolTable
 70
    13
  0
APPID
  5
12
330
9
100
AcDbSymbolTableRecord
100
AcDbRegAppTableRecord
  2
ACAD
 70
     0
  0
APPID
  5
32
330
9
100
AcDbSymbolTableRecord
100
AcDbRegAppTableRecord
  2
COMM
 70
     0
  0
APPID
  5
A8
330
9
100
AcDbSymbolTableRecord
100
AcDbRegAppTableRecord
  2
GENIUS_GENDIM_13
 70
     0
  0
APPID
  5
A9
330
9
100
AcDbSymbolTableRecord
100
AcDbRegAppTableRecord
  2
GENIUS_GENDTOL_13
 70
     0
  0
APPID
  5
AA
330
9
100
AcDbSymbolTableRecord
100
AcDbRegAppTableRecord
  2
GENIUS_GE3DTOL_13
 70
     0
  0
APPID
  5
AC
330
9
100
AcDbSymbolTableRecord
100
AcDbRegAppTableRecord
  2
MCAD_NO_VIS
 70
     0
  0
APPID
  5
AD
330
9
100
AcDbSymbolTableRecord
100
AcDbRegAppTableRecord
  2
ACAD_TEMP_GRAPHIC
 70
     0
  0
APPID
  5
DF
330
9
100
AcDbSymbolTableRecord
100
AcDbRegAppTableRecord
  2
AD_DRAW
 70
     0
  0
APPID
  5
E2
330
9
100
AcDbSymbolTableRecord
100
AcDbRegAppTableRecord
  2
ACATTRIBSERVICES
 70
     0
  0
APPID
  5
12E
330
9
100
AcDbSymbolTableRecord
100
AcDbRegAppTableRecord
  2
ASURF_PCURVE_APPNAME
 70
     0
  0
APPID
  5
15D
330
9
100
AcDbSymbolTableRecord
100
AcDbRegAppTableRecord
  2
DESIGNERASSEMBLIES
 70
     0
  0
APPID
  5
165
330
9
100
AcDbSymbolTableRecord
100
AcDbRegAppTableRecord
  2
ACADM_DIM_EDIT
 70
     0
  0
APPID
  5
166
330
9
100
AcDbSymbolTableRecord
100
AcDbRegAppTableRecord
  2
AMDT_DM_ADJ
 70
     0
  0
ENDTAB
  0
TABLE
  2
DIMSTYLE
  5
A
330
0
100
AcDbSymbolTable
 70
     2
100
AcDbDimStyleTable
 71
     1
340
33
  0
DIMSTYLE
105
33
330
A
100
AcDbSymbolTableRecord
100
AcDbDimStyleTableRecord
  2
ITM
 70
     0
 41
1.5
 42
1.0
 43
6.0
 44
1.0
 47
495.0
 73
     0
 74
     0
 77
     3
 78
     8
140
3.0
141
0.0
147
0.5
172
     1
173
     1
174
     1
271
     2
272
     2
279
     2
284
     8
285
     8
286
     8
340
11
  0
DIMSTYLE
105
34
330
A
100
AcDbSymbolTableRecord
100
AcDbDimStyleTableRecord
  2
STANDARD
 70
     0
271
     2
272
     2
279
     2
284
     8
285
     8
286
     8
340
11
  0
ENDTAB
  0
TABLE
  2
BLOCK_RECORD
  5
1
330
0
100
AcDbSymbolTable
 70
     2
  0
BLOCK_RECORD
  5
1E
102
{ACAD_XDICTIONARY
360
182
102
}
330
1
100
AcDbSymbolTableRecord
100
AcDbBlockTableRecord
  2
*Model_Space
340
21
  0
BLOCK_RECORD
  5
1A
330
1
100
AcDbSymbolTableRecord
100
AcDbBlockTableRecord
  2
*Paper_Space
340
1D
  0
BLOCK_RECORD
  5
38
330
1
100
AcDbSymbolTableRecord
100
AcDbBlockTableRecord
  2
ITM
340
0
102
{BLKREFS
331
A0
102
}
  0
BLOCK_RECORD
  5
154
330
1
100
AcDbSymbolTableRecord
100
AcDbBlockTableRecord
  2
*U1
340
0
  0
ENDTAB
  0
ENDSEC
  0
SECTION
  2
BLOCKS
  0
BLOCK
  5
1F
330
1E
100
AcDbEntity
  8
0
100
AcDbBlockBegin
  2
*Model_Space
 70
     0
 10
0.0
 20
0.0
 30
0.0
  3
*Model_Space
  1

  0
ENDBLK
  5
20
330
1E
100
AcDbEntity
  8
0
100
AcDbBlockEnd
  0
BLOCK
  5
1B
330
1A
100
AcDbEntity
 67
     1
  8
0
100
AcDbBlockBegin
  2
*Paper_Space
 70
     0
 10
0.0
 20
0.0
 30
0.0
  3
*Paper_Space
  1

  0
ENDBLK
  5
1C
330
1A
100
AcDbEntity
 67
     1
  8
0
100
AcDbBlockEnd
  0
BLOCK
  5
39
330
38
100
AcDbEntity
  8
0
100
AcDbBlockBegin
  2
ITM
 70
     0
 10
0.0
 20
0.0
 30
0.0
  3
ITM
  1

  0
ENDBLK
  5
3A
330
38
100
AcDbEntity
  8
0
100
AcDbBlockEnd
  0
BLOCK
  5
155
330
154
100
AcDbEntity
  8
0
100
AcDbBlockBegin
  2
*U1
 70
     1
 10
0.0
 20
0.0
 30
0.0
  3
*U1
  1

  0
ENDBLK
  5
156
330
154
100
AcDbEntity
  8
0
100
AcDbBlockEnd
  0
ENDSEC
  0
SECTION
  2
ENTITIES
  0
CIRCLE
  5
3C
330
1E
100
AcDbEntity
  8
CONTINUOUS
100
AcDbCircle
 10
104.3220049999999
 20
137.4159379999999
 30
0.0
 40
6.0
  0
CIRCLE
  5
3D
330
1E
100
AcDbEntity
  8
CONTINUOUS
100
AcDbCircle
 10
104.3220049999999
 20
137.4159379999999
 30
0.0
 40
4.5
  0
CIRCLE
  5
3E
330
1E
100
AcDbEntity
  8
CONTINUOUS
100
AcDbCircle
 10
104.3220049999999
 20
137.4159379999999
 30
0.0
 40
5.5
  0
LINE
  5
3F
330
1E
100
AcDbEntity
  8
THIN
100
AcDbLine
 10
106.707005
 20
95.86038
 30
0.0
 11
106.707005
 21
99.86036400000001
 31
0.0
  0
LINE
  5
40
330
1E
100
AcDbEntity
  8
THIN
100
AcDbLine
 10
106.707005
 20
99.86036400000001
 30
0.0
 11
106.707005
 21
107.857911
 31
0.0
  0
LINE
  5
41
330
1E
100
AcDbEntity
  8
CENTER
100
AcDbLine
 10
104.3220049999999
 20
123.357885
 30
0.0
 11
104.3220049999999
 21
90.860382
 31
0.0
  0
LINE
  5
42
330
1E
100
AcDbEntity
  8
CONTINUOUS
100
AcDbLine
 10
104.3220049999999
 20
112.357897
 30
0.0
 11
101.322005
 21
112.357885
 31
0.0
  0
LINE
  5
43
330
1E
100
AcDbEntity
  8
CONTINUOUS
100
AcDbLine
 10
101.393701
 20
112.357911
 30
0.0
 11
100.884185
 21
112.0637419999999
 31
0.0
1001
ACAD
1000
ASC_BOUNDS
1002
{
1070
    19
1002
}
  0
ARC
  5
44
330
1E
100
AcDbEntity
  8
CONTINUOUS
100
AcDbCircle
 10
101.7466849999999
 20
111.040129
 30
0.0
 40
1.317782999999999
100
AcDbArc
 50
49.11760800000001
 51
130.8823919999999
1001
ACAD
1000
ASC_BOUNDS
1002
{
1070
    19
1002
}
  0
ARC
  5
45
330
1E
100
AcDbEntity
  8
CONTINUOUS
100
AcDbCircle
 10
104.334185
 20
107.182911
 30
0.0
 40
5.174999999999999
100
AcDbArc
 50
90.0
 51
109.4712209999999
  0
ARC
  5
46
330
1E
100
AcDbEntity
  8
CONTINUOUS
100
AcDbCircle
 10
104.309825
 20
107.182911
 30
0.0
 40
5.174999999999999
100
AcDbArc
 50
70.528779
 51
90.0
  0
ARC
  5
47
330
1E
100
AcDbEntity
  8
CONTINUOUS
100
AcDbCircle
 10
106.8973249999999
 20
111.040129
 30
0.0
 40
1.317782999999999
100
AcDbArc
 50
49.11760800000001
 51
130.8823919999999
1001
ACAD
1000
ASC_BOUNDS
1002
{
1070
    19
1002
}
  0
LINE
  5
48
330
1E
100
AcDbEntity
  8
CONTINUOUS
100
AcDbLine
 10
107.250309
 20
112.357911
 30
0.0
 11
107.759825
 21
112.0637419999999
 31
0.0
1001
ACAD
1000
ASC_BOUNDS
1002
{
1070
    19
1002
}
  0
LINE
  5
49
330
1E
100
AcDbEntity
  8
CONTINUOUS
100
AcDbLine
 10
104.3220049999999
 20
112.357897
 30
0.0
 11
107.3220049999999
 21
112.357885
 31
0.0
  0
LINE
  5
4A
330
1E
100
AcDbEntity
  8
CONTINUOUS
100
AcDbLine
 10
106.3220049999999
 20
93.002414
 30
0.0
 11
106.3220049999999
 21
95.86038
 31
0.0
  0
LINE
  5
4B
330
1E
100
AcDbEntity
  8
CONTINUOUS
100
AcDbLine
 10
106.3220049999999
 20
93.002414
 30
0.0
 11
106.132005
 21
92.293324
 31
0.0
  0
LINE
  5
4C
330
1E
100
AcDbEntity
  8
CONTINUOUS
100
AcDbLine
 10
104.3220049999999
 20
93.002414
 30
0.0
 11
106.3220049999999
 21
93.002414
 31
0.0
  0
LINE
  5
4D
330
1E
100
AcDbEntity
  8
CONTINUOUS
100
AcDbLine
 10
106.132005
 20
92.293324
 30
0.0
 11
104.3220049999999
 21
92.293324
 31
0.0
  0
ARC
  5
4E
330
1E
100
AcDbEntity
  8
CONTINUOUS
100
AcDbCircle
 10
104.3220049999999
 20
95.860382
 30
0.0
 40
4.0
100
AcDbArc
 50
243.0958049999999
 51
296.904195
  0
LINE
  5
4F
330
1E
100
AcDbEntity
  8
CONTINUOUS
100
AcDbLine
 10
101.322005
 20
96.47538
 30
0.0
 11
104.3220049999999
 21
96.47538
 31
0.0
  0
LINE
  5
50
330
1E
100
AcDbEntity
  8
CONTINUOUS
100
AcDbLine
 10
104.3066759999999
 20
95.86036400000001
 30
0.0
 11
101.937005
 21
95.86038
 31
0.0
  0
LINE
  5
51
330
1E
100
AcDbEntity
  8
CONTINUOUS
100
AcDbLine
 10
101.937005
 20
95.86038
 30
0.0
 11
101.322005
 21
96.47538
 31
0.0
  0
LINE
  5
52
330
1E
100
AcDbEntity
  8
THIN
100
AcDbLine
 10
101.937005
 20
95.86038
 30
0.0
 11
101.937005
 21
99.86036400000001
 31
0.0
  0
LINE
  5
53
330
1E
100
AcDbEntity
  8
CONTINUOUS
100
AcDbLine
 10
101.322005
 20
96.47538
 30
0.0
 11
101.322005
 21
99.86036400000001
 31
0.0
1001
ACAD
1000
ASC_BOUNDS
1002
{
1070
    19
1002
}
  0
LINE
  5
54
330
1E
100
AcDbEntity
  8
CONTINUOUS
100
AcDbLine
 10
107.3220049999999
 20
96.47538
 30
0.0
 11
107.3220049999999
 21
99.86036400000001
 31
0.0
1001
ACAD
1000
ASC_BOUNDS
1002
{
1070
    19
1002
}
  0
LINE
  5
55
330
1E
100
AcDbEntity
  8
CONTINUOUS
100
AcDbLine
 10
106.707005
 20
95.86038
 30
0.0
 11
107.3220049999999
 21
96.47538
 31
0.0
  0
LINE
  5
56
330
1E
100
AcDbEntity
  8
CONTINUOUS
100
AcDbLine
 10
104.3220049999999
 20
95.860382
 30
0.0
 11
106.707005
 21
95.86038
 31
0.0
  0
LINE
  5
57
330
1E
100
AcDbEntity
  8
CONTINUOUS
100
AcDbLine
 10
107.3220049999999
 20
96.47538
 30
0.0
 11
104.3220049999999
 21
96.47538
 31
0.0
  0
LINE
  5
58
330
1E
100
AcDbEntity
  8
CONTINUOUS
100
AcDbLine
 10
101.3815209999999
 20
107.857911
 30
0.0
 11
101.322005
 21
107.7983949999999
 31
0.0
  0
LINE
  5
59
330
1E
100
AcDbEntity
  8
CONTINUOUS
100
AcDbLine
 10
101.322005
 20
99.86036400000001
 30
0.0
 11
101.322005
 21
107.7983949999999
 31
0.0
1001
ACAD
1000
ASC_BOUNDS
1002
{
1070
    19
1002
}
  0
LINE
  5
5A
330
1E
100
AcDbEntity
  8
THIN
100
AcDbLine
 10
101.937005
 20
99.86036400000001
 30
0.0
 11
101.937005
 21
107.857911
 31
0.0
  0
LINE
  5
5B
330
1E
100
AcDbEntity
  8
CONTINUOUS
100
AcDbLine
 10
107.3220049999999
 20
99.86036400000001
 30
0.0
 11
107.3220049999999
 21
107.7983949999999
 31
0.0
1001
ACAD
1000
ASC_BOUNDS
1002
{
1070
    19
1002
}
  0
LINE
  5
5C
330
1E
100
AcDbEntity
  8
CONTINUOUS
100
AcDbLine
 10
107.2624889999999
 20
107.857911
 30
0.0
 11
107.3220049999999
 21
107.7983949999999
 31
0.0
  0
LINE
  5
5D
330
1E
100
AcDbEntity
  8
CONTINUOUS
100
AcDbLine
 10
106.034825
 20
108.1538749999999
 30
0.0
 11
106.034825
 21
112.061948
 31
0.0
1001
ACAD
1000
ASC_BOUNDS
1002
{
1070
    19
1002
}
  0
LINE
  5
5E
330
1E
100
AcDbEntity
  8
CONTINUOUS
100
AcDbLine
 10
107.759825
 20
112.0637419999999
 30
0.0
 11
107.759825
 21
108.152081
 31
0.0
1001
ACAD
1000
ASC_BOUNDS
1002
{
1070
    19
1002
}
  0
ARC
  5
5F
330
1E
100
AcDbEntity
  8
CONTINUOUS
100
AcDbCircle
 10
104.309825
 20
113.032911
 30
0.0
 40
5.174999999999999
100
AcDbArc
 50
270.0
 51
289.471221
  0
LINE
  5
60
330
1E
100
AcDbEntity
  8
CONTINUOUS
100
AcDbLine
 10
107.250309
 20
107.857911
 30
0.0
 11
107.759825
 21
108.152081
 31
0.0
1001
ACAD
1000
ASC_BOUNDS
1002
{
1070
    19
1002
}
  0
ARC
  5
61
330
1E
100
AcDbEntity
  8
CONTINUOUS
100
AcDbCircle
 10
106.8973249999999
 20
109.175694
 30
0.0
 40
1.317782999999999
100
AcDbArc
 50
229.117608
 51
310.8823919999999
1001
ACAD
1000
ASC_BOUNDS
1002
{
1070
    19
1002
}
  0
LINE
  5
62
330
1E
100
AcDbEntity
  8
CONTINUOUS
100
AcDbLine
 10
104.3220049999999
 20
107.857926
 30
0.0
 11
107.250309
 21
107.857911
 31
0.0
  0
LINE
  5
63
330
1E
100
AcDbEntity
  8
CONTINUOUS
100
AcDbLine
 10
102.5120049999999
 20
92.293324
 30
0.0
 11
104.3220049999999
 21
92.293324
 31
0.0
  0
LINE
  5
64
330
1E
100
AcDbEntity
  8
CONTINUOUS
100
AcDbLine
 10
104.3220049999999
 20
93.002414
 30
0.0
 11
102.322005
 21
93.002414
 31
0.0
  0
LINE
  5
65
330
1E
100
AcDbEntity
  8
CONTINUOUS
100
AcDbLine
 10
104.3220049999999
 20
107.857926
 30
0.0
 11
101.393701
 21
107.857911
 31
0.0
  0
LINE
  5
66
330
1E
100
AcDbEntity
  8
CONTINUOUS
100
AcDbLine
 10
102.322005
 20
93.002414
 30
0.0
 11
102.5120049999999
 21
92.293324
 31
0.0
  0
LINE
  5
67
330
1E
100
AcDbEntity
  8
CONTINUOUS
100
AcDbLine
 10
102.322005
 20
93.002414
 30
0.0
 11
102.322005
 21
95.86038
 31
0.0
  0
ARC
  5
68
330
1E
100
AcDbEntity
  8
CONTINUOUS
100
AcDbCircle
 10
101.7466849999999
 20
109.175694
 30
0.0
 40
1.317782999999999
100
AcDbArc
 50
229.117608
 51
310.8823919999999
1001
ACAD
1000
ASC_BOUNDS
1002
{
1070
    19
1002
}
  0
LINE
  5
69
330
1E
100
AcDbEntity
  8
CONTINUOUS
100
AcDbLine
 10
101.393701
 20
107.857911
 30
0.0
 11
100.884185
 21
108.152081
 31
0.0
1001
ACAD
1000
ASC_BOUNDS
1002
{
1070
    19
1002
}
  0
ARC
  5
6A
330
1E
100
AcDbEntity
  8
CONTINUOUS
100
AcDbCircle
 10
104.334185
 20
113.032911
 30
0.0
 40
5.174999999999999
100
AcDbArc
 50
250.528779
 51
270.0
  0
LINE
  5
6B
330
1E
100
AcDbEntity
  8
CONTINUOUS
100
AcDbLine
 10
100.884185
 20
112.0637419999999
 30
0.0
 11
100.884185
 21
108.152081
 31
0.0
1001
ACAD
1000
ASC_BOUNDS
1002
{
1070
    19
1002
}
  0
LINE
  5
6C
330
1E
100
AcDbEntity
  8
CONTINUOUS
100
AcDbLine
 10
102.609185
 20
108.1538749999999
 30
0.0
 11
102.609185
 21
112.061948
 31
0.0
1001
ACAD
1000
ASC_BOUNDS
1002
{
1070
    19
1002
}
  0
LINE
  5
6D
330
1E
100
AcDbEntity
  8
CONTINUOUS
100
AcDbLine
 10
104.5832249999999
 20
120.857885
 30
0.0
 11
104.5832249999999
 21
122.057885
 31
0.0
  0
LINE
  5
6E
330
1E
100
AcDbEntity
  8
CONTINUOUS
100
AcDbLine
 10
104.983225
 20
120.857885
 30
0.0
 11
104.983225
 21
122.057885
 31
0.0
  0
LINE
  5
6F
330
1E
100
AcDbEntity
  8
CONTINUOUS
100
AcDbLine
 10
105.3832249999999
 20
120.857885
 30
0.0
 11
105.3832249999999
 21
122.057885
 31
0.0
  0
LINE
  5
70
330
1E
100
AcDbEntity
  8
CONTINUOUS
100
AcDbLine
 10
105.783225
 20
120.857885
 30
0.0
 11
105.783225
 21
122.057885
 31
0.0
  0
LINE
  5
71
330
1E
100
AcDbEntity
  8
CONTINUOUS
100
AcDbLine
 10
106.1832249999999
 20
120.857885
 30
0.0
 11
106.1832249999999
 21
122.057885
 31
0.0
  0
LINE
  5
72
330
1E
100
AcDbEntity
  8
CONTINUOUS
100
AcDbLine
 10
106.5832249999999
 20
120.857885
 30
0.0
 11
106.5832249999999
 21
122.057885
 31
0.0
  0
LINE
  5
73
330
1E
100
AcDbEntity
  8
CONTINUOUS
100
AcDbLine
 10
106.983225
 20
120.857885
 30
0.0
 11
106.983225
 21
122.057885
 31
0.0
  0
LINE
  5
74
330
1E
100
AcDbEntity
  8
CONTINUOUS
100
AcDbLine
 10
110.1832249999999
 20
120.857885
 30
0.0
 11
110.1832249999999
 21
122.057885
 31
0.0
  0
LINE
  5
75
330
1E
100
AcDbEntity
  8
CONTINUOUS
100
AcDbLine
 10
109.7832249999999
 20
120.857885
 30
0.0
 11
109.7832249999999
 21
122.057885
 31
0.0
  0
LINE
  5
76
330
1E
100
AcDbEntity
  8
CONTINUOUS
100
AcDbLine
 10
109.3832249999999
 20
120.857885
 30
0.0
 11
109.3832249999999
 21
122.057885
 31
0.0
  0
LINE
  5
77
330
1E
100
AcDbEntity
  8
CONTINUOUS
100
AcDbLine
 10
108.983225
 20
120.857885
 30
0.0
 11
108.983225
 21
122.057885
 31
0.0
  0
LINE
  5
78
330
1E
100
AcDbEntity
  8
CONTINUOUS
100
AcDbLine
 10
108.5832249999999
 20
120.857885
 30
0.0
 11
108.5832249999999
 21
122.057885
 31
0.0
  0
LINE
  5
79
330
1E
100
AcDbEntity
  8
CONTINUOUS
100
AcDbLine
 10
108.1832249999999
 20
120.857885
 30
0.0
 11
108.1832249999999
 21
122.057885
 31
0.0
  0
LINE
  5
7A
330
1E
100
AcDbEntity
  8
CONTINUOUS
100
AcDbLine
 10
107.7832249999999
 20
120.857885
 30
0.0
 11
107.7832249999999
 21
122.057885
 31
0.0
  0
LINE
  5
7B
330
1E
100
AcDbEntity
  8
CONTINUOUS
100
AcDbLine
 10
107.3832249999999
 20
120.857885
 30
0.0
 11
107.3832249999999
 21
122.057885
 31
0.0
  0
LINE
  5
7C
330
1E
100
AcDbEntity
  8
CONTINUOUS
100
AcDbLine
 10
104.060785
 20
120.857885
 30
0.0
 11
104.060785
 21
122.057885
 31
0.0
  0
LINE
  5
7D
330
1E
100
AcDbEntity
  8
CONTINUOUS
100
AcDbLine
 10
103.6607849999999
 20
120.857885
 30
0.0
 11
103.6607849999999
 21
122.057885
 31
0.0
  0
LINE
  5
7E
330
1E
100
AcDbEntity
  8
CONTINUOUS
100
AcDbLine
 10
103.2607849999999
 20
120.857885
 30
0.0
 11
103.2607849999999
 21
122.057885
 31
0.0
  0
LINE
  5
7F
330
1E
100
AcDbEntity
  8
CONTINUOUS
100
AcDbLine
 10
102.8607849999999
 20
120.857885
 30
0.0
 11
102.8607849999999
 21
122.057885
 31
0.0
  0
LINE
  5
80
330
1E
100
AcDbEntity
  8
CONTINUOUS
100
AcDbLine
 10
102.4607849999999
 20
120.857885
 30
0.0
 11
102.4607849999999
 21
122.057885
 31
0.0
  0
LINE
  5
81
330
1E
100
AcDbEntity
  8
CONTINUOUS
100
AcDbLine
 10
102.0607849999999
 20
120.857885
 30
0.0
 11
102.0607849999999
 21
122.057885
 31
0.0
  0
LINE
  5
82
330
1E
100
AcDbEntity
  8
CONTINUOUS
100
AcDbLine
 10
101.6607849999999
 20
120.857885
 30
0.0
 11
101.6607849999999
 21
122.057885
 31
0.0
  0
LINE
  5
83
330
1E
100
AcDbEntity
  8
CONTINUOUS
100
AcDbLine
 10
98.460785
 20
120.857885
 30
0.0
 11
98.460785
 21
122.057885
 31
0.0
  0
LINE
  5
84
330
1E
100
AcDbEntity
  8
CONTINUOUS
100
AcDbLine
 10
98.86078499999999
 20
120.857885
 30
0.0
 11
98.86078499999999
 21
122.057885
 31
0.0
  0
LINE
  5
85
330
1E
100
AcDbEntity
  8
CONTINUOUS
100
AcDbLine
 10
99.260785
 20
120.857885
 30
0.0
 11
99.260785
 21
122.057885
 31
0.0
  0
LINE
  5
86
330
1E
100
AcDbEntity
  8
CONTINUOUS
100
AcDbLine
 10
99.66078500000001
 20
120.857885
 30
0.0
 11
99.66078500000001
 21
122.057885
 31
0.0
  0
LINE
  5
87
330
1E
100
AcDbEntity
  8
CONTINUOUS
100
AcDbLine
 10
100.0607849999999
 20
120.857885
 30
0.0
 11
100.0607849999999
 21
122.057885
 31
0.0
  0
LINE
  5
88
330
1E
100
AcDbEntity
  8
CONTINUOUS
100
AcDbLine
 10
100.4607849999999
 20
120.857885
 30
0.0
 11
100.4607849999999
 21
122.057885
 31
0.0
  0
LINE
  5
89
330
1E
100
AcDbEntity
  8
CONTINUOUS
100
AcDbLine
 10
100.8607849999999
 20
120.857885
 30
0.0
 11
100.8607849999999
 21
122.057885
 31
0.0
  0
LINE
  5
8A
330
1E
100
AcDbEntity
  8
CONTINUOUS
100
AcDbLine
 10
101.2607849999999
 20
120.857885
 30
0.0
 11
101.2607849999999
 21
122.057885
 31
0.0
  0
LINE
  5
8B
330
1E
100
AcDbEntity
  8
CONTINUOUS
100
AcDbLine
 10
107.8514199999999
 20
118.321749
 30
0.0
 11
104.3220049999999
 21
118.321749
 31
0.0
  0
LINE
  5
8C
330
1E
100
AcDbEntity
  8
CONTINUOUS
100
AcDbLine
 10
109.740384
 20
119.237996
 30
0.0
 11
104.3220049999999
 21
119.237996
 31
0.0
  0
LINE
  5
8D
330
1E
100
AcDbEntity
  8
CONTINUOUS
100
AcDbLine
 10
110.321999
 20
120.857885
 30
0.0
 11
104.3220049999999
 21
120.857885
 31
0.0
1001
ACAD
1000
ASC_BOUNDS
1002
{
1070
    19
1002
}
  0
LINE
  5
8E
330
1E
100
AcDbEntity
  8
CONTINUOUS
100
AcDbLine
 10
110.321999
 20
122.057885
 30
0.0
 11
104.3220049999999
 21
122.057885
 31
0.0
1001
ACAD
1000
ASC_BOUNDS
1002
{
1070
    19
1002
}
  0
LINE
  5
8F
330
1E
100
AcDbEntity
  8
CONTINUOUS
100
AcDbLine
 10
101.1367069999999
 20
117.664135
 30
0.0
 11
101.322005
 21
112.357885
 31
0.0
  0
LINE
  5
90
330
1E
100
AcDbEntity
  8
CONTINUOUS
100
AcDbLine
 10
98.622011
 20
122.357885
 30
0.0
 11
110.021999
 21
122.357885
 31
0.0
1001
ACAD
1000
ASC_BOUNDS
1002
{
1070
    19
1002
}
  0
LINE
  5
91
330
1E
100
AcDbEntity
  8
CONTINUOUS
100
AcDbLine
 10
98.322011
 20
122.057885
 30
0.0
 11
104.3220049999999
 21
122.057885
 31
0.0
1001
ACAD
1000
ASC_BOUNDS
1002
{
1070
    19
1002
}
  0
LINE
  5
92
330
1E
100
AcDbEntity
  8
CONTINUOUS
100
AcDbLine
 10
98.322011
 20
120.857885
 30
0.0
 11
104.3220049999999
 21
120.857885
 31
0.0
1001
ACAD
1000
ASC_BOUNDS
1002
{
1070
    19
1002
}
  0
LINE
  5
93
330
1E
100
AcDbEntity
  8
CONTINUOUS
100
AcDbLine
 10
98.90362600000001
 20
119.237996
 30
0.0
 11
104.3220049999999
 21
119.237996
 31
0.0
  0
LINE
  5
94
330
1E
100
AcDbEntity
  8
CONTINUOUS
100
AcDbLine
 10
100.79259
 20
118.321749
 30
0.0
 11
104.3220049999999
 21
118.321749
 31
0.0
  0
ARC
  5
95
330
1E
100
AcDbEntity
  8
CONTINUOUS
100
AcDbCircle
 10
99.52201099999999
 20
119.778677
 30
0.0
 40
1.199999999999999
100
AcDbArc
 50
180.0
 51
255.0
1001
ACAD
1000
ASC_BOUNDS
1002
{
1070
    19
1005
0
1002
}
  0
LINE
  5
96
330
1E
100
AcDbEntity
  8
CONTINUOUS
100
AcDbLine
 10
98.322011
 20
122.057885
 30
0.0
 11
98.322011
 21
119.778677
 31
0.0
1001
ACAD
1000
ASC_BOUNDS
1002
{
1070
    19
1002
}
  0
LINE
  5
97
330
1E
100
AcDbEntity
  8
CONTINUOUS
100
AcDbLine
 10
99.211428
 20
118.6195659999999
 30
0.0
 11
100.6923639999999
 21
118.222751
 31
0.0
  0
ARC
  5
98
330
1E
100
AcDbEntity
  8
CONTINUOUS
100
AcDbCircle
 10
100.5370719999999
 20
117.643195
 30
0.0
 40
0.6
100
AcDbArc
 50
2.0
 51
75.0
  0
LINE
  5
99
330
1E
100
AcDbEntity
  8
CONTINUOUS
100
AcDbLine
 10
98.322011
 20
122.057885
 30
0.0
 11
98.622011
 21
122.357885
 31
0.0
1001
ACAD
1000
ASC_BOUNDS
1002
{
1070
    19
1005
0
1002
}
  0
LINE
  5
9A
330
1E
100
AcDbEntity
  8
CONTINUOUS
100
AcDbLine
 10
110.321999
 20
122.057885
 30
0.0
 11
110.021999
 21
122.357885
 31
0.0
1001
ACAD
1000
ASC_BOUNDS
1002
{
1070
    19
1002
}
  0
LINE
  5
9B
330
1E
100
AcDbEntity
  8
CONTINUOUS
100
AcDbLine
 10
107.507303
 20
117.664135
 30
0.0
 11
107.3220049999999
 21
112.357885
 31
0.0
1001
ACAD
1000
ASC_BOUNDS
1002
{
1070
    19
1002
}
  0
ARC
  5
9C
330
1E
100
AcDbEntity
  8
CONTINUOUS
100
AcDbCircle
 10
109.121999
 20
119.778677
 30
0.0
 40
1.199999999999999
100
AcDbArc
 50
285.0
 51
0.0
1001
ACAD
1000
ASC_BOUNDS
1002
{
1070
    19
1005
0
1002
}
  0
LINE
  5
9D
330
1E
100
AcDbEntity
  8
CONTINUOUS
100
AcDbLine
 10
109.432582
 20
118.6195659999999
 30
0.0
 11
107.951646
 21
118.222751
 31
0.0
1001
ACAD
1000
ASC_BOUNDS
1002
{
1070
    19
1002
}
  0
ARC
  5
9E
330
1E
100
AcDbEntity
  8
CONTINUOUS
100
AcDbCircle
 10
108.1069379999999
 20
117.643195
 30
0.0
 40
0.6
100
AcDbArc
 50
105.0
 51
178.0
1001
ACAD
1000
ASC_BOUNDS
1002
{
1070
    19
1002
}
  0
LINE
  5
9F
330
1E
100
AcDbEntity
  8
CONTINUOUS
100
AcDbLine
 10
110.321999
 20
122.057885
 30
0.0
 11
110.321999
 21
119.778677
 31
0.0
1001
ACAD
1000
ASC_BOUNDS
1002
{
1070
    19
1002
}
  0
INSERT
  5
A0
330
1E
100
AcDbEntity
  8
0
  6
Continuous
100
AcDbBlockReference
  2
ITM
 10
90.38856700000001
 20
54.95024599999999
 30
0.0
  0
LINE
  5
A1
330
1E
100
AcDbEntity
  8
CENTER
100
AcDbLine
 10
104.3220049999999
 20
144.4159379999999
 30
0.0
 11
104.3220049999999
 21
130.4159379999999
 31
0.0
  0
LINE
  5
A2
330
1E
100
AcDbEntity
  8
CENTER
100
AcDbLine
 10
111.322005
 20
137.4159379999999
 30
0.0
 11
97.32200500000001
 21
137.4159379999999
 31
0.0
  0
TEXT
  5
1B7
330
1E
100
AcDbEntity
  8
CONTINUOUS
100
AcDbText
 10
94.01575067657807
 20
86.20022724648157
 30
0.0
 40
2.5
  1
IP-6
100
AcDbText
  0
ENDSEC
  0
SECTION
  2
OBJECTS
  0
DICTIONARY
  5
C
330
0
100
AcDbDictionary
281
     1
  3
ACAD_GROUP
350
D
  3
ACAD_LAYOUT
350
19
  3
ACAD_MLINESTYLE
350
16
  3
ACAD_PLOTSETTINGS
350
18
  3
ACAD_PLOTSTYLENAME
350
E
  3
AcDbVariableDictionary
350
195
  3
AcmDictionary
350
15E
  3
AMG
350
A5
  3
AMGSNAPSETTINGS
350
17B
  3
DWGPROPS
350
1AE
  3
MAPISURF_MODULE
350
131
  0
DICTIONARY
  5
182
330
1E
100
AcDbDictionary
280
     1
281
     1
  3
ACAD_INDEX
360
183
  0
DICTIONARY
  5
D
102
{ACAD_REACTORS
330
C
102
}
330
C
100
AcDbDictionary
281
     1
  0
DICTIONARY
  5
19
102
{ACAD_REACTORS
330
C
102
}
330
C
100
AcDbDictionary
281
     1
  3
Model
350
21
  3
ﾚｲｱｳﾄ1
350
1D
  0
DICTIONARY
  5
16
102
{ACAD_REACTORS
330
C
102
}
330
C
100
AcDbDictionary
281
     1
  3
Standard
350
17
  0
DICTIONARY
  5
18
102
{ACAD_REACTORS
330
C
102
}
330
C
100
AcDbDictionary
281
     1
  0
ACDBDICTIONARYWDFLT
  5
E
102
{ACAD_REACTORS
330
C
102
}
330
C
100
AcDbDictionary
281
     1
  3
Normal
350
F
100
AcDbDictionaryWithDefault
340
F
  0
DICTIONARY
  5
195
102
{ACAD_REACTORS
330
C
102
}
330
C
100
AcDbDictionary
281
     1
  3
DIMASSOC
350
197
  3
INDEXCTL
350
196
  0
DICTIONARY
  5
15E
102
{ACAD_REACTORS
330
C
102
}
330
C
100
AcDbDictionary
281
     1
  3
AcmBOMDATA
350
15F
  0
DICTIONARY
  5
A5
102
{ACAD_REACTORS
330
C
102
}
330
C
100
AcDbDictionary
281
     1
  3
AcMgSettings
350
A6
  3
AMGLAYCFG
350
16B
  0
DICTIONARY
  5
17B
102
{ACAD_REACTORS
330
C
102
}
330
C
100
AcDbDictionary
281
     1
  3
DIMENSION
350
180
  3
FEA
350
17F
  3
HATCH (1)
350
17C
  3
HATCH (2)
350
17D
  3
SIMPLE WELD
350
181
  3
SYMBOLS
350
17E
  0
XRECORD
  5
1AE
102
{ACAD_REACTORS
330
C
102
}
330
C
100
AcDbXrecord
280
     1
  1
DWGPROPS COOKIE
  2

  3

  4

  6

  7

  8

  9

300
AmdtFileType=84
301
=
302
=
303
=
304
=
305
=
306
=
307
=
308
=
309
=
 40
0.0294504861111111
 41
2451449.035611226
 42
2454131.676581123
  1

 90
        1
  0
DICTIONARY
  5
183
102
{ACAD_REACTORS
330
182
102
}
330
182
100
AcDbDictionary
281
     1
  3
*A1
350
184
  0
LAYOUT
  5
21
102
{ACAD_REACTORS
330
19
102
}
330
19
100
AcDbPlotSettings
  1

  2
EPSON PM-3700C
  4

  6

 40
0.0
 41
0.0
 42
0.0
 43
0.0
 44
0.0
 45
0.0
 46
0.0
 47
0.0
 48
0.0
 49
0.0
140
0.0
141
0.0
142
1.0
143
1.0
 70
  1712
 72
     0
 73
     0
 74
     0
  7

 75
     0
147
1.0
148
0.0
149
0.0
100
AcDbLayout
  1
Model
 70
     1
 71
     0
 10
0.0
 20
0.0
 11
12.0
 21
9.0
 12
0.0
 22
0.0
 32
0.0
 14
0.0
 24
0.0
 34
0.0
 15
0.0
 25
0.0
 35
0.0
146
0.0
 13
0.0
 23
0.0
 33
0.0
 16
1.0
 26
0.0
 36
0.0
 17
0.0
 27
1.0
 37
0.0
 76
     0
330
1E
  0
LAYOUT
  5
1D
102
{ACAD_REACTORS
330
19
102
}
330
19
100
AcDbPlotSettings
  1

  2
EPSON PM-3700C
  4

  6

 40
0.0
 41
0.0
 42
0.0
 43
0.0
 44
0.0
 45
0.0
 46
0.0
 47
0.0
 48
0.0
 49
0.0
140
0.0
141
0.0
142
1.0
143
1.0
 70
   688
 72
     0
 73
     0
 74
     5
  7

 75
    16
147
1.0
148
0.0
149
0.0
100
AcDbLayout
  1
ﾚｲｱｳﾄ1
 70
     1
 71
     1
 10
0.0
 20
0.0
 11
420.0
 21
297.0
 12
0.0
 22
0.0
 32
0.0
 14
1.000000000000000E+20
 24
1.000000000000000E+20
 34
1.000000000000000E+20
 15
-1.000000000000000E+20
 25
-1.000000000000000E+20
 35
-1.000000000000000E+20
146
0.0
 13
0.0
 23
0.0
 33
0.0
 16
1.0
 26
0.0
 36
0.0
 17
0.0
 27
1.0
 37
0.0
 76
     0
330
1A
  0
MLINESTYLE
  5
17
102
{ACAD_REACTORS
330
16
102
}
330
16
100
AcDbMlineStyle
  2
STANDARD
 70
     0
  3

 62
   256
 51
90.0
 52
90.0
 71
     2
 49
0.5
 62
   256
  6
BYLAYER
 49
-0.5
 62
   256
  6
BYLAYER
  0
ACDBPLACEHOLDER
  5
F
102
{ACAD_REACTORS
330
E
102
}
330
E
  0
DICTIONARYVAR
  5
197
102
{ACAD_REACTORS
330
195
102
}
330
195
100
DictionaryVariables
280
     0
  1
0
  0
DICTIONARYVAR
  5
196
102
{ACAD_REACTORS
330
195
102
}
330
195
100
DictionaryVariables
280
     0
  1
1
  0
ACMDATADICTIONARY
  5
15F
102
{ACAD_REACTORS
330
15E
102
}
330
15E
100
AcDbDictionary
281
     1
  3
*A1
350
160
100
AcmDataDictionary
  0
DICTIONARY
  5
A6
102
{ACAD_REACTORS
330
A5
102
}
330
A5
100
AcDbDictionary
281
     1
  3
DWGSETTINGS
350
A7
  0
ACAMGFILTERDAT
  5
180
102
{ACAD_REACTORS
330
17B
102
}
330
17B
100
AcAmgFilterDat
 70
    15
  1
DIMENSION,AMDT_*_DIM
  2
*
  3
*
  4
*
  5
*
290
     1
  0
ACAMGFILTERDAT
  5
17F
102
{ACAD_REACTORS
330
17B
102
}
330
17B
100
AcAmgFilterDat
 70
    15
  1
*
  2
AM_FEA-AM_*
  3
*
  4
*
  5
*
290
     1
  0
ACAMGFILTERDAT
  5
17C
102
{ACAD_REACTORS
330
17B
102
}
330
17B
100
AcAmgFilterDat
 70
    15
  1
HATCH
  2
*
  3
*
  4
*
  5
*
290
     1
  0
ACAMGFILTERDAT
  5
17D
102
{ACAD_REACTORS
330
17B
102
}
330
17B
100
AcAmgFilterDat
 70
    15
  1
LINE
  2
8,8N,*-8,*-8N,AM_8,AM_8N,*-AM_8,*-AM_8N
  3
*
  4
*
  5
INSERT,STDPART2D
290
     1
  0
ACAMGFILTERDAT
  5
181
102
{ACAD_REACTORS
330
17B
102
}
330
17B
100
AcAmgFilterDat
 70
    15
  1
ARC
  2
AM_5
  3
*
  4
2
  5
INSERT
290
     0
  0
ACAMGFILTERDAT
  5
17E
102
{ACAD_REACTORS
330
17B
102
}
330
17B
100
AcAmgFilterDat
 70
    15
  1
ACMFCFRAME,ACMDATUMTARGET,ACMDATUMID,ACMWELDSYM,ACMSURFSYM,ACMFEATID,ACMPARTREF,ACMBALLOON,AMDTEDGESYM,AMGSCREWCALCTABLE
  2
*
  3
*
  4
*
  5
*
290
     1
  0
LAYER_INDEX
  5
184
102
{ACAD_REACTORS
330
183
102
}
330
183
100
AcDbIndex
 40
2454131.684641736
100
AcDbLayerIndex
  8
0
360
185
 90
        1
  8
CONTINUOUS
360
186
 90
       96
  8
CENTER
360
187
 90
        3
  8
TEXT
360
188
 90
        0
  8
THIN
360
189
 90
        4
  8
DASHED
360
18A
 90
        0
  8
HATCH
360
18B
 90
        0
  8
LEADER
360
18C
 90
        0
  8
LEADERORG
360
18D
 90
        0
  8
DIVIDE
360
18E
 90
        0
  8
POINT
360
18F
 90
        0
  8
DIMENSION
360
190
 90
        0
  8
DIMENSIONT
360
191
 90
        0
  8
DOTTED
360
192
 90
        0
  8
FRAME
360
193
 90
        0
  0
ACMDATAENTRYBLOCK
  5
160
102
{ACAD_REACTORS
330
15F
102
}
330
15F
100
AcmDataEntry
100
AcmDataEntryBlock
  0
IDBUFFER
  5
185
330
0
100
AcDbIdBuffer
330
A0
  0
IDBUFFER
  5
186
330
0
100
AcDbIdBuffer
330
1B7
330
71
330
72
330
73
330
74
330
75
330
76
330
77
330
78
330
79
330
7A
330
7B
330
7C
330
7D
330
7E
330
7F
330
80
330
81
330
82
330
83
330
84
330
85
330
86
330
87
330
88
330
89
330
8A
330
8B
330
8C
330
8D
330
8E
330
8F
330
90
330
91
330
92
330
93
330
94
330
95
330
96
330
97
330
98
330
99
330
9A
330
9B
330
9C
330
9D
330
9E
330
9F
330
3C
330
3D
330
3E
330
42
330
43
330
44
330
45
330
46
330
47
330
48
330
49
330
4A
330
4B
330
4C
330
4D
330
4E
330
4F
330
50
330
51
330
53
330
54
330
55
330
56
330
57
330
58
330
59
330
5B
330
5C
330
5D
330
5E
330
5F
330
60
330
61
330
62
330
63
330
64
330
65
330
66
330
67
330
68
330
69
330
6A
330
6B
330
6C
330
6D
330
6E
330
6F
330
70
  0
IDBUFFER
  5
187
330
0
100
AcDbIdBuffer
330
41
330
A1
330
A2
  0
IDBUFFER
  5
188
330
0
100
AcDbIdBuffer
  0
IDBUFFER
  5
189
330
0
100
AcDbIdBuffer
330
3F
330
40
330
52
330
5A
  0
IDBUFFER
  5
18A
330
0
100
AcDbIdBuffer
  0
IDBUFFER
  5
18B
330
0
100
AcDbIdBuffer
  0
IDBUFFER
  5
18C
330
0
100
AcDbIdBuffer
  0
IDBUFFER
  5
18D
330
0
100
AcDbIdBuffer
  0
IDBUFFER
  5
18E
330
0
100
AcDbIdBuffer
  0
IDBUFFER
  5
18F
330
0
100
AcDbIdBuffer
  0
IDBUFFER
  5
190
330
0
100
AcDbIdBuffer
  0
IDBUFFER
  5
191
330
0
100
AcDbIdBuffer
  0
IDBUFFER
  5
192
330
0
100
AcDbIdBuffer
  0
IDBUFFER
  5
193
330
0
100
AcDbIdBuffer
  0
ENDSEC
  0
EOF
