  0
SECTION
  2
HEADER
  9
$ACADVER
  1
AC1014
  9
$ACADMAINTVER
 70
     0
  9
$DWGCODEPAGE
  3
ANSI_932
  9
$INSBASE
 10
0.0
 20
0.0
 30
0.0
  9
$EXTMIN
 10
7.0
 20
30.0
 30
0.0
  9
$EXTMAX
 10
144.5
 20
72.0
 30
0.0
  9
$LIMMIN
 10
0.0
 20
0.0
  9
$LIMMAX
 10
150.0
 20
100.0
  9
$ORTHOMODE
 70
     0
  9
$REGENMODE
 70
     1
  9
$FILLMODE
 70
     1
  9
$QTEXTMODE
 70
     0
  9
$MIRRTEXT
 70
     1
  9
$DRAGMODE
 70
     2
  9
$LTSCALE
 40
1.0
  9
$OSMODE
 70
     0
  9
$ATTMODE
 70
     1
  9
$TEXTSIZE
 40
7.0
  9
$TRACEWID
 40
1.0
  9
$TEXTSTYLE
  7
STANDARD
  9
$CLAYER
  8
0
  9
$CELTYPE
  6
BYLAYER
  9
$CECOLOR
 62
   256
  9
$CELTSCALE
 40
1.0
  9
$DELOBJ
 70
     1
  9
$DISPSILH
 70
     0
  9
$DIMSCALE
 40
1.0
  9
$DIMASZ
 40
2.5
  9
$DIMEXO
 40
0.625
  9
$DIMDLI
 40
3.75
  9
$DIMRND
 40
0.0
  9
$DIMDLE
 40
0.0
  9
$DIMEXE
 40
1.25
  9
$DIMTP
 40
0.0
  9
$DIMTM
 40
0.0
  9
$DIMTXT
 40
2.5
  9
$DIMCEN
 40
2.5
  9
$DIMTSZ
 40
0.0
  9
$DIMTOL
 70
     0
  9
$DIMLIM
 70
     0
  9
$DIMTIH
 70
     1
  9
$DIMTOH
 70
     0
  9
$DIMSE1
 70
     0
  9
$DIMSE2
 70
     0
  9
$DIMTAD
 70
     1
  9
$DIMZIN
 70
     8
  9
$DIMBLK
  1

  9
$DIMASO
 70
     1
  9
$DIMSHO
 70
     1
  9
$DIMPOST
  1

  9
$DIMAPOST
  1

  9
$DIMALT
 70
     0
  9
$DIMALTD
 70
     2
  9
$DIMALTF
 40
0.0394
  9
$DIMLFAC
 40
1.0
  9
$DIMTOFL
 70
     1
  9
$DIMTVP
 40
1.0
  9
$DIMTIX
 70
     0
  9
$DIMSOXD
 70
     0
  9
$DIMSAH
 70
     0
  9
$DIMBLK1
  1

  9
$DIMBLK2
  1

  9
$DIMSTYLE
  2
ISO-25
  9
$DIMCLRD
 70
     0
  9
$DIMCLRE
 70
     0
  9
$DIMCLRT
 70
     0
  9
$DIMTFAC
 40
1.0
  9
$DIMGAP
 40
0.625
  9
$DIMJUST
 70
     0
  9
$DIMSD1
 70
     0
  9
$DIMSD2
 70
     0
  9
$DIMTOLJ
 70
     1
  9
$DIMTZIN
 70
     8
  9
$DIMALTZ
 70
     8
  9
$DIMALTTZ
 70
     8
  9
$DIMFIT
 70
     5
  9
$DIMUPT
 70
     0
  9
$DIMUNIT
 70
     2
  9
$DIMDEC
 70
     4
  9
$DIMTDEC
 70
     4
  9
$DIMALTU
 70
     2
  9
$DIMALTTD
 70
     2
  9
$DIMTXSTY
  7
STANDARD
  9
$DIMAUNIT
 70
     0
  9
$LUNITS
 70
     2
  9
$LUPREC
 70
     4
  9
$SKETCHINC
 40
1.0
  9
$FILLETRAD
 40
2.0
  9
$AUNITS
 70
     0
  9
$AUPREC
 70
     0
  9
$MENU
  1
.
  9
$ELEVATION
 40
0.0
  9
$PELEVATION
 40
0.0
  9
$THICKNESS
 40
0.0
  9
$LIMCHECK
 70
     0
  9
$BLIPMODE
 70
     0
  9
$CHAMFERA
 40
1.0
  9
$CHAMFERB
 40
1.0
  9
$CHAMFERC
 40
0.0
  9
$CHAMFERD
 40
0.0
  9
$SKPOLY
 70
     0
  9
$TDCREATE
 40
2450870.565377546
  9
$TDUPDATE
 40
2453082.606597754
  9
$TDINDWG
 40
0.0133246528
  9
$TDUSRTIMER
 40
0.0133246528
  9
$USRTIMER
 70
     1
  9
$ANGBASE
 50
0.0
  9
$ANGDIR
 70
     0
  9
$PDMODE
 70
     0
  9
$PDSIZE
 40
0.0
  9
$PLINEWID
 40
0.0
  9
$COORDS
 70
     2
  9
$SPLFRAME
 70
     0
  9
$SPLINETYPE
 70
     6
  9
$SPLINESEGS
 70
     8
  9
$ATTDIA
 70
     0
  9
$ATTREQ
 70
     1
  9
$HANDLING
 70
     1
  9
$HANDSEED
  5
CF9
  9
$SURFTAB1
 70
     6
  9
$SURFTAB2
 70
     6
  9
$SURFTYPE
 70
     6
  9
$SURFU
 70
     6
  9
$SURFV
 70
     6
  9
$UCSNAME
  2

  9
$UCSORG
 10
0.0
 20
0.0
 30
0.0
  9
$UCSXDIR
 10
1.0
 20
0.0
 30
0.0
  9
$UCSYDIR
 10
0.0
 20
1.0
 30
0.0
  9
$PUCSNAME
  2

  9
$PUCSORG
 10
0.0
 20
0.0
 30
0.0
  9
$PUCSXDIR
 10
1.0
 20
0.0
 30
0.0
  9
$PUCSYDIR
 10
0.0
 20
1.0
 30
0.0
  9
$USERI1
 70
     0
  9
$USERI2
 70
     0
  9
$USERI3
 70
     0
  9
$USERI4
 70
     0
  9
$USERI5
 70
     0
  9
$USERR1
 40
0.0
  9
$USERR2
 40
0.0
  9
$USERR3
 40
0.0
  9
$USERR4
 40
0.0
  9
$USERR5
 40
0.0
  9
$WORLDVIEW
 70
     1
  9
$SHADEDGE
 70
     3
  9
$SHADEDIF
 70
    70
  9
$TILEMODE
 70
     1
  9
$MAXACTVP
 70
    16
  9
$PINSBASE
 10
0.0
 20
0.0
 30
0.0
  9
$PLIMCHECK
 70
     0
  9
$PEXTMIN
 10
1.000000E+20
 20
1.000000E+20
 30
1.000000E+20
  9
$PEXTMAX
 10
-1.000000E+20
 20
-1.000000E+20
 30
-1.000000E+20
  9
$PLIMMIN
 10
0.0
 20
0.0
  9
$PLIMMAX
 10
420.0
 20
297.0
  9
$UNITMODE
 70
     0
  9
$VISRETAIN
 70
     0
  9
$PLINEGEN
 70
     0
  9
$PSLTSCALE
 70
     1
  9
$TREEDEPTH
 70
  3020
  9
$PICKSTYLE
 70
     1
  9
$CMLSTYLE
  2
STANDARD
  9
$CMLJUST
 70
     0
  9
$CMLSCALE
 40
1.0
  9
$PROXYGRAPHICS
 70
     1
  9
$MEASUREMENT
 70
     0
  0
ENDSEC
  0
SECTION
  2
CLASSES
  0
CLASS
  1
DICTIONARYVAR
  2
AcDbDictionaryVar
  3
"AutoCAD"
 90
        0
280
     0
281
     0
  0
CLASS
  1
LWPOLYLINE
  2
AcDbPolyline
  3
"AutoCAD"
 90
        0
280
     0
281
     1
  0
ENDSEC
  0
SECTION
  2
TABLES
  0
TABLE
  2
VPORT
  5
C76
100
AcDbSymbolTable
 70
     1
  0
VPORT
  5
CF4
100
AcDbSymbolTableRecord
100
AcDbViewportTableRecord
  2
*ACTIVE
 70
     0
 10
0.0
 20
0.0
 11
1.0
 21
1.0
 12
79.598145
 22
50.0
 13
0.0
 23
0.0
 14
0.5
 24
0.5
 15
1.0
 25
1.0
 16
0.0
 26
0.0
 36
1.0
 17
0.0
 27
0.0
 37
0.0
 40
100.0
 41
1.591963
 42
50.0
 43
0.0
 44
0.0
 50
0.0
 51
0.0
 71
     0
 72
 20000
 73
     1
 74
     1
 75
     1
 76
     1
 77
     0
 78
     0
  0
ENDTAB
  0
TABLE
  2
LTYPE
  5
C73
100
AcDbSymbolTable
 70
     3
  0
LTYPE
  5
C7F
100
AcDbSymbolTableRecord
100
AcDbLinetypeTableRecord
  2
BYBLOCK
 70
     0
  3

 72
    65
 73
     0
 40
0.0
  0
LTYPE
  5
C80
100
AcDbSymbolTableRecord
100
AcDbLinetypeTableRecord
  2
BYLAYER
 70
     0
  3

 72
    65
 73
     0
 40
0.0
  0
LTYPE
  5
C81
100
AcDbSymbolTableRecord
100
AcDbLinetypeTableRecord
  2
CONTINUOUS
 70
     0
  3
Solid line
 72
    65
 73
     0
 40
0.0
  0
LTYPE
  5
C8A
100
AcDbSymbolTableRecord
100
AcDbLinetypeTableRecord
  2
TENSEN
 70
     0
  3

 72
    65
 73
     2
 40
2.5
 49
1.5
 74
     0
 49
-1.0
 74
     0
  0
LTYPE
  5
C8B
100
AcDbSymbolTableRecord
100
AcDbLinetypeTableRecord
  2
ITTEN
 70
     0
  3

 72
    65
 73
     4
 40
3.6
 49
2.0
 74
     0
 49
-0.5
 74
     0
 49
0.6
 74
     0
 49
-0.5
 74
     0
  0
ENDTAB
  0
TABLE
  2
LAYER
  5
C70
100
AcDbSymbolTable
 70
     4
  0
LAYER
  5
C7C
100
AcDbSymbolTableRecord
100
AcDbLayerTableRecord
  2
0
 70
     0
 62
     7
  6
CONTINUOUS
  0
LAYER
  5
C97
100
AcDbSymbolTableRecord
100
AcDbLayerTableRecord
  2
2
 70
     0
 62
     2
  6
TENSEN
  0
LAYER
  5
C98
100
AcDbSymbolTableRecord
100
AcDbLayerTableRecord
  2
1
 70
     0
 62
     1
  6
ITTEN
  0
LAYER
  5
C99
100
AcDbSymbolTableRecord
100
AcDbLayerTableRecord
  2
3
 70
     0
 62
     3
  6
CONTINUOUS
  0
ENDTAB
  0
TABLE
  2
STYLE
  5
C71
100
AcDbSymbolTable
 70
     1
  0
STYLE
  5
C7D
100
AcDbSymbolTableRecord
100
AcDbTextStyleTableRecord
  2
STANDARD
 70
     0
 40
7.0
 41
0.8
 50
0.0
 71
     0
 42
7.0
  3
ISOCP
  4
bigfont.shx
  0
ENDTAB
  0
TABLE
  2
VIEW
  5
C74
100
AcDbSymbolTable
 70
     0
  0
ENDTAB
  0
TABLE
  2
UCS
  5
C75
100
AcDbSymbolTable
 70
     0
  0
ENDTAB
  0
TABLE
  2
APPID
  5
C77
100
AcDbSymbolTable
 70
     1
  0
APPID
  5
C7E
100
AcDbSymbolTableRecord
100
AcDbRegAppTableRecord
  2
ACAD
 70
     0
  0
ENDTAB
  0
TABLE
  2
DIMSTYLE
  5
C78
100
AcDbSymbolTable
 70
     8
  0
DIMSTYLE
105
C8D
100
AcDbSymbolTableRecord
100
AcDbDimStyleTableRecord
  2
STANDARD
 70
     0
  3

  4

  5

  6

  7

 40
1.0
 41
0.18
 42
0.0625
 43
0.38
 44
0.18
 45
0.0
 46
0.0
 47
0.0
 48
0.0
140
0.18
141
0.09
142
0.0
143
25.4
144
1.0
145
0.0
146
1.0
147
0.09
 71
     0
 72
     0
 73
     1
 74
     1
 75
     0
 76
     0
 77
     0
 78
     0
170
     0
171
     2
172
     0
173
     0
174
     0
175
     0
176
     0
177
     0
178
     0
270
     2
271
     4
272
     4
273
     2
274
     2
340
C7D
275
     0
280
     0
281
     0
282
     0
283
     1
284
     8
285
     8
286
     8
287
     5
288
     0
  0
DIMSTYLE
105
C8E
100
AcDbSymbolTableRecord
100
AcDbDimStyleTableRecord
  2
ISO-25
 70
     0
  3

  4

  5

  6

  7

 40
1.0
 41
2.5
 42
0.625
 43
3.75
 44
1.25
 45
0.0
 46
0.0
 47
0.0
 48
0.0
140
2.5
141
2.5
142
0.0
143
0.0394
144
1.0
145
1.0
146
1.0
147
0.625
 71
     0
 72
     0
 73
     1
 74
     0
 75
     0
 76
     0
 77
     1
 78
     8
170
     0
171
     2
172
     1
173
     0
174
     0
175
     0
176
     0
177
     0
178
     0
270
     2
271
     4
272
     4
273
     2
274
     2
340
C7D
275
     0
280
     0
281
     0
282
     0
283
     1
284
     8
285
     8
286
     8
287
     5
288
     0
  0
DIMSTYLE
105
C8F
100
AcDbSymbolTableRecord
100
AcDbDimStyleTableRecord
  2
ISO-35
 70
     0
  3

  4

  5

  6

  7

 40
1.0
 41
3.5
 42
0.875
 43
5.25
 44
1.75
 45
0.0
 46
0.0
 47
0.0
 48
0.0
140
3.5
141
3.5
142
0.0
143
0.0394
144
1.0
145
1.4
146
1.0
147
0.875
 71
     0
 72
     0
 73
     1
 74
     0
 75
     0
 76
     0
 77
     1
 78
     8
170
     0
171
     2
172
     1
173
     0
174
     0
175
     0
176
     0
177
     0
178
     0
270
     2
271
     4
272
     4
273
     2
274
     2
340
C7D
275
     0
280
     0
281
     0
282
     0
283
     1
284
     8
285
     8
286
     8
287
     5
288
     0
  0
DIMSTYLE
105
C90
100
AcDbSymbolTableRecord
100
AcDbDimStyleTableRecord
  2
ISO-5
 70
     0
  3

  4

  5

  6

  7

 40
1.0
 41
5.0
 42
1.25
 43
7.5
 44
2.5
 45
0.0
 46
0.0
 47
0.0
 48
0.0
140
5.0
141
5.0
142
0.0
143
0.0394
144
1.0
145
2.0
146
1.0
147
1.25
 71
     0
 72
     0
 73
     1
 74
     0
 75
     0
 76
     0
 77
     1
 78
     8
170
     0
171
     2
172
     1
173
     0
174
     0
175
     0
176
     0
177
     0
178
     0
270
     2
271
     4
272
     4
273
     2
274
     2
340
C7D
275
     0
280
     0
281
     0
282
     0
283
     1
284
     8
285
     8
286
     8
287
     5
288
     0
  0
DIMSTYLE
105
C91
100
AcDbSymbolTableRecord
100
AcDbDimStyleTableRecord
  2
ISO-7
 70
     0
  3

  4

  5

  6

  7

 40
1.0
 41
7.0
 42
1.75
 43
10.5
 44
3.5
 45
0.0
 46
0.0
 47
0.0
 48
0.0
140
7.0
141
7.0
142
0.0
143
0.0394
144
1.0
145
2.8
146
1.0
147
1.75
 71
     0
 72
     0
 73
     1
 74
     0
 75
     0
 76
     0
 77
     1
 78
     8
170
     0
171
     2
172
     1
173
     0
174
     0
175
     0
176
     0
177
     0
178
     0
270
     2
271
     4
272
     4
273
     2
274
     2
340
C7D
275
     0
280
     0
281
     0
282
     0
283
     1
284
     8
285
     8
286
     8
287
     5
288
     0
  0
DIMSTYLE
105
C92
100
AcDbSymbolTableRecord
100
AcDbDimStyleTableRecord
  2
ISO1
 70
     0
  3

  4

  5

  6

  7

 40
1.0
 41
10.0
 42
2.5
 43
15.0
 44
5.0
 45
0.0
 46
0.0
 47
0.0
 48
0.0
140
10.0
141
10.0
142
0.0
143
0.0394
144
1.0
145
4.0
146
1.0
147
2.5
 71
     0
 72
     0
 73
     1
 74
     0
 75
     0
 76
     0
 77
     1
 78
     8
170
     0
171
     2
172
     1
173
     0
174
     0
175
     0
176
     0
177
     0
178
     0
270
     2
271
     4
272
     4
273
     2
274
     2
340
C7D
275
     0
280
     0
281
     0
282
     0
283
     1
284
     8
285
     8
286
     8
287
     5
288
     0
  0
DIMSTYLE
105
C93
100
AcDbSymbolTableRecord
100
AcDbDimStyleTableRecord
  2
ISO1-4
 70
     0
  3

  4

  5

  6

  7

 40
1.0
 41
14.0
 42
3.5
 43
21.0
 44
7.0
 45
0.0
 46
0.0
 47
0.0
 48
0.0
140
14.0
141
14.0
142
0.0
143
0.0394
144
1.0
145
5.6
146
1.0
147
3.5
 71
     0
 72
     0
 73
     1
 74
     0
 75
     0
 76
     0
 77
     1
 78
     8
170
     0
171
     2
172
     1
173
     0
174
     0
175
     0
176
     0
177
     0
178
     0
270
     2
271
     4
272
     4
273
     2
274
     2
340
C7D
275
     0
280
     0
281
     0
282
     0
283
     1
284
     8
285
     8
286
     8
287
     5
288
     0
  0
DIMSTYLE
105
C94
100
AcDbSymbolTableRecord
100
AcDbDimStyleTableRecord
  2
ISO2
 70
     0
  3

  4

  5

  6

  7

 40
1.0
 41
20.0
 42
5.0
 43
30.0
 44
10.0
 45
0.0
 46
0.0
 47
0.0
 48
0.0
140
20.0
141
20.0
142
0.0
143
0.0394
144
1.0
145
8.0
146
1.0
147
5.0
 71
     0
 72
     0
 73
     1
 74
     0
 75
     0
 76
     0
 77
     1
 78
     8
170
     0
171
     2
172
     1
173
     0
174
     0
175
     0
176
     0
177
     0
178
     0
270
     2
271
     4
272
     4
273
     2
274
     2
340
C7D
275
     0
280
     0
281
     0
282
     0
283
     1
284
     8
285
     8
286
     8
287
     5
288
     0
  0
ENDTAB
  0
TABLE
  2
BLOCK_RECORD
  5
C6F
100
AcDbSymbolTable
 70
     0
  0
BLOCK_RECORD
  5
C85
100
AcDbSymbolTableRecord
100
AcDbBlockTableRecord
  2
*MODEL_SPACE
  0
BLOCK_RECORD
  5
C82
100
AcDbSymbolTableRecord
100
AcDbBlockTableRecord
  2
*PAPER_SPACE
  0
ENDTAB
  0
ENDSEC
  0
SECTION
  2
BLOCKS
  0
BLOCK
  5
C9C
100
AcDbEntity
  8
0
100
AcDbBlockBegin
  2
*MODEL_SPACE
 70
     0
 10
0.0
 20
0.0
 30
0.0
  3
*MODEL_SPACE
  1

  0
ENDBLK
  5
C9D
100
AcDbEntity
  8
0
100
AcDbBlockEnd
  0
BLOCK
  5
C9A
100
AcDbEntity
 67
     1
  8
0
100
AcDbBlockBegin
  2
*PAPER_SPACE
 70
     0
 10
0.0
 20
0.0
 30
0.0
  3
*PAPER_SPACE
  1

  0
ENDBLK
  5
C9B
100
AcDbEntity
 67
     1
  8
0
100
AcDbBlockEnd
  0
ENDSEC
  0
SECTION
  2
ENTITIES
  0
LINE
  5
CA4
100
AcDbEntity
  8
1
100
AcDbLine
 10
7.0
 20
52.0
 30
0.0
 11
51.5
 21
52.0
 31
0.0
  0
LINE
  5
CA5
100
AcDbEntity
  8
1
100
AcDbLine
 10
29.5
 20
72.0
 30
0.0
 11
29.5
 21
30.0
 31
0.0
  0
CIRCLE
  5
CA6
100
AcDbEntity
  8
0
100
AcDbCircle
 10
29.5
 20
52.0
 30
0.0
 40
10.0
  0
LWPOLYLINE
  5
CA9
100
AcDbEntity
  8
0
100
AcDbPolyline
 90
        6
 70
     1
 43
0.0
 10
29.5
 20
69.0
 10
14.777568
 20
60.5
 10
14.777568
 20
43.5
 10
29.5
 20
35.0
 10
44.222432
 20
43.5
 10
44.222432
 20
60.5
  0
CIRCLE
  5
CAA
100
AcDbEntity
  8
0
100
AcDbCircle
 10
29.5
 20
52.0
 30
0.0
 40
9.0
  0
CIRCLE
  5
CAB
100
AcDbEntity
  8
0
100
AcDbCircle
 10
29.5
 20
52.0
 30
0.0
 40
5.0
  0
CIRCLE
  5
CAC
100
AcDbEntity
  8
0
100
AcDbCircle
 10
29.5
 20
52.0
 30
0.0
 40
4.5
  0
LINE
  5
CAE
100
AcDbEntity
  8
0
100
AcDbLine
 10
75.5
 20
57.0
 30
0.0
 11
83.0
 21
57.0
 31
0.0
  0
LINE
  5
CAF
100
AcDbEntity
  8
0
100
AcDbLine
 10
83.0
 20
57.0
 30
0.0
 11
83.0
 21
52.0
 31
0.0
  0
LINE
  5
CB0
100
AcDbEntity
  8
0
100
AcDbLine
 10
83.0
 20
52.0
 30
0.0
 11
83.0
 21
61.0
 31
0.0
  0
LINE
  5
CB1
100
AcDbEntity
  8
0
100
AcDbLine
 10
84.0
 20
62.0
 30
0.0
 11
98.0
 21
62.0
 31
0.0
  0
LINE
  5
CB2
100
AcDbEntity
  8
0
100
AcDbLine
 10
126.0
 20
61.0
 30
0.0
 11
126.0
 21
53.0
 31
0.0
  0
LINE
  5
CB4
100
AcDbEntity
  8
0
100
AcDbLine
 10
126.0
 20
56.0
 30
0.0
 11
136.0
 21
56.0
 31
0.0
  0
LINE
  5
CB5
100
AcDbEntity
  8
0
100
AcDbLine
 10
137.0
 20
55.0
 30
0.0
 11
137.0
 21
52.0
 31
0.0
  0
LINE
  5
CB6
100
AcDbEntity
  8
0
100
AcDbLine
 10
75.5
 20
57.0
 30
0.0
 11
73.5
 21
56.5
 31
0.0
  0
LINE
  5
CB7
100
AcDbEntity
  8
0
100
AcDbLine
 10
73.5
 20
56.5
 30
0.0
 11
73.5
 21
52.0
 31
0.0
  0
LINE
  5
CB8
100
AcDbEntity
  8
0
100
AcDbLine
 10
75.5
 20
57.0
 30
0.0
 11
75.5
 21
52.0
 31
0.0
  0
LINE
  5
CB9
100
AcDbEntity
  8
0
100
AcDbLine
 10
84.0
 20
62.0
 30
0.0
 11
83.0
 21
61.0
 31
0.0
  0
LINE
  5
CBA
100
AcDbEntity
  8
0
100
AcDbLine
 10
125.0
 20
62.0
 30
0.0
 11
126.0
 21
61.0
 31
0.0
  0
LINE
  5
CBB
100
AcDbEntity
  8
0
100
AcDbLine
 10
136.0
 20
56.0
 30
0.0
 11
137.0
 21
55.0
 31
0.0
  0
LINE
  5
CBC
100
AcDbEntity
  8
0
100
AcDbLine
 10
126.0
 20
53.0
 30
0.0
 11
124.0
 21
53.0
 31
0.0
  0
LINE
  5
CBD
100
AcDbEntity
  8
0
100
AcDbLine
 10
124.0
 20
53.0
 30
0.0
 11
124.0
 21
52.0
 31
0.0
  0
LINE
  5
CBE
100
AcDbEntity
  8
0
100
AcDbLine
 10
84.0
 20
62.0
 30
0.0
 11
84.0
 21
52.0
 31
0.0
  0
LINE
  5
CBF
100
AcDbEntity
  8
0
100
AcDbLine
 10
83.0
 20
61.0
 30
0.0
 11
98.0
 21
61.0
 31
0.0
  0
LINE
  5
CC0
100
AcDbEntity
  8
0
100
AcDbLine
 10
125.0
 20
62.0
 30
0.0
 11
125.0
 21
53.0
 31
0.0
  0
LINE
  5
CC1
100
AcDbEntity
  8
0
100
AcDbLine
 10
136.0
 20
56.0
 30
0.0
 11
136.0
 21
52.0
 31
0.0
  0
LINE
  5
CC2
100
AcDbEntity
  8
0
100
AcDbLine
 10
137.0
 20
55.0
 30
0.0
 11
126.0
 21
55.0
 31
0.0
  0
LINE
  5
CC3
100
AcDbEntity
  8
0
100
AcDbLine
 10
83.0
 20
43.0
 30
0.0
 11
98.0
 21
43.0
 31
0.0
  0
LINE
  5
CC4
100
AcDbEntity
  8
0
100
AcDbLine
 10
84.0
 20
42.0
 30
0.0
 11
98.0
 21
42.0
 31
0.0
  0
LINE
  5
CC5
100
AcDbEntity
  8
0
100
AcDbLine
 10
75.5
 20
47.0
 30
0.0
 11
73.5
 21
47.5
 31
0.0
  0
LINE
  5
CC6
100
AcDbEntity
  8
0
100
AcDbLine
 10
73.5
 20
47.5
 30
0.0
 11
73.5
 21
52.0
 31
0.0
  0
LINE
  5
CC7
100
AcDbEntity
  8
0
100
AcDbLine
 10
84.0
 20
42.0
 30
0.0
 11
84.0
 21
52.0
 31
0.0
  0
LINE
  5
CC8
100
AcDbEntity
  8
0
100
AcDbLine
 10
83.0
 20
52.0
 30
0.0
 11
83.0
 21
43.0
 31
0.0
  0
LINE
  5
CC9
100
AcDbEntity
  8
0
100
AcDbLine
 10
75.5
 20
47.0
 30
0.0
 11
75.5
 21
52.0
 31
0.0
  0
LINE
  5
CCA
100
AcDbEntity
  8
0
100
AcDbLine
 10
83.0
 20
47.0
 30
0.0
 11
83.0
 21
52.0
 31
0.0
  0
LINE
  5
CCB
100
AcDbEntity
  8
0
100
AcDbLine
 10
75.5
 20
47.0
 30
0.0
 11
83.0
 21
47.0
 31
0.0
  0
LINE
  5
CCC
100
AcDbEntity
  8
0
100
AcDbLine
 10
84.0
 20
42.0
 30
0.0
 11
83.0
 21
43.0
 31
0.0
  0
LINE
  5
CCD
100
AcDbEntity
  8
0
100
AcDbLine
 10
137.0
 20
49.0
 30
0.0
 11
126.0
 21
49.0
 31
0.0
  0
LINE
  5
CCE
100
AcDbEntity
  8
0
100
AcDbLine
 10
126.0
 20
48.0
 30
0.0
 11
136.0
 21
48.0
 31
0.0
  0
LINE
  5
CCF
100
AcDbEntity
  8
0
100
AcDbLine
 10
125.0
 20
42.0
 30
0.0
 11
125.0
 21
51.0
 31
0.0
  0
LINE
  5
CD0
100
AcDbEntity
  8
0
100
AcDbLine
 10
126.0
 20
43.0
 30
0.0
 11
126.0
 21
51.0
 31
0.0
  0
LINE
  5
CD1
100
AcDbEntity
  8
0
100
AcDbLine
 10
124.0
 20
51.0
 30
0.0
 11
124.0
 21
52.0
 31
0.0
  0
LINE
  5
CD2
100
AcDbEntity
  8
0
100
AcDbLine
 10
126.0
 20
51.0
 30
0.0
 11
124.0
 21
51.0
 31
0.0
  0
LINE
  5
CD3
100
AcDbEntity
  8
0
100
AcDbLine
 10
125.0
 20
42.0
 30
0.0
 11
126.0
 21
43.0
 31
0.0
  0
LINE
  5
CD4
100
AcDbEntity
  8
0
100
AcDbLine
 10
136.0
 20
48.0
 30
0.0
 11
136.0
 21
52.0
 31
0.0
  0
LINE
  5
CD5
100
AcDbEntity
  8
0
100
AcDbLine
 10
137.0
 20
49.0
 30
0.0
 11
137.0
 21
52.0
 31
0.0
  0
LINE
  5
CD6
100
AcDbEntity
  8
0
100
AcDbLine
 10
136.0
 20
48.0
 30
0.0
 11
137.0
 21
49.0
 31
0.0
  0
ARC
  5
CD7
100
AcDbEntity
  8
0
100
AcDbCircle
 10
83.125
 20
52.0
 30
0.0
 40
10.625
100
AcDbArc
 50
154.942385
 51
205.057615
  0
LINE
  5
CD9
100
AcDbEntity
  8
0
100
AcDbLine
 10
98.0
 20
52.0
 30
0.0
 11
98.0
 21
66.0
 31
0.0
  0
LINE
  5
CDA
100
AcDbEntity
  8
0
100
AcDbLine
 10
99.5
 20
69.0
 30
0.0
 11
106.5
 21
69.0
 31
0.0
  0
LINE
  5
CDB
100
AcDbEntity
  8
0
100
AcDbLine
 10
108.0
 20
66.0
 30
0.0
 11
108.0
 21
52.0
 31
0.0
  0
CIRCLE
  5
CDC
100
AcDbEntity
  8
0
100
AcDbCircle
 10
29.5
 20
52.0
 30
0.0
 40
14.008926
  0
LINE
  5
CDE
100
AcDbEntity
  8
0
100
AcDbLine
 10
99.5
 20
60.5
 30
0.0
 11
106.5
 21
60.5
 31
0.0
  0
LINE
  5
CDF
100
AcDbEntity
  8
0
100
AcDbLine
 10
98.0
 20
66.0
 30
0.0
 11
99.5
 21
69.0
 31
0.0
  0
LINE
  5
CE0
100
AcDbEntity
  8
0
100
AcDbLine
 10
108.0
 20
66.0
 30
0.0
 11
106.5
 21
69.0
 31
0.0
  0
ARC
  5
CE1
100
AcDbEntity
  8
0
100
AcDbCircle
 10
98.25
 20
64.75
 30
0.0
 40
9.280356
100
AcDbArc
 50
332.744672
 51
27.255328
  0
ARC
  5
CE2
100
AcDbEntity
  8
0
100
AcDbCircle
 10
108.0
 20
64.75
 30
0.0
 40
9.503289
100
AcDbArc
 50
153.434949
 51
206.565051
  0
LINE
  5
CE3
100
AcDbEntity
  8
0
100
AcDbLine
 10
98.0
 20
38.0
 30
0.0
 11
99.5
 21
35.0
 31
0.0
  0
LINE
  5
CE4
100
AcDbEntity
  8
0
100
AcDbLine
 10
98.0
 20
52.0
 30
0.0
 11
98.0
 21
38.0
 31
0.0
  0
ARC
  5
CE5
100
AcDbEntity
  8
0
100
AcDbCircle
 10
108.0
 20
39.25
 30
0.0
 40
9.503289
100
AcDbArc
 50
153.434949
 51
206.565051
  0
ARC
  5
CE6
100
AcDbEntity
  8
0
100
AcDbCircle
 10
98.25
 20
39.25
 30
0.0
 40
9.280356
100
AcDbArc
 50
332.744672
 51
27.255328
  0
LINE
  5
CE7
100
AcDbEntity
  8
0
100
AcDbLine
 10
108.0
 20
38.0
 30
0.0
 11
108.0
 21
52.0
 31
0.0
  0
LINE
  5
CE8
100
AcDbEntity
  8
0
100
AcDbLine
 10
99.5
 20
43.5
 30
0.0
 11
106.5
 21
43.5
 31
0.0
  0
LINE
  5
CE9
100
AcDbEntity
  8
0
100
AcDbLine
 10
99.5
 20
35.0
 30
0.0
 11
106.5
 21
35.0
 31
0.0
  0
LINE
  5
CEA
100
AcDbEntity
  8
0
100
AcDbLine
 10
108.0
 20
38.0
 30
0.0
 11
106.5
 21
35.0
 31
0.0
  0
ARC
  5
CEB
100
AcDbEntity
  8
0
100
AcDbCircle
 10
70.875
 20
52.0
 30
0.0
 40
36.625
100
AcDbArc
 50
346.580326
 51
13.419674
  0
ARC
  5
CEC
100
AcDbEntity
  8
0
100
AcDbCircle
 10
135.125
 20
52.0
 30
0.0
 40
36.625
100
AcDbArc
 50
166.580326
 51
193.419674
  0
LINE
  5
CED
100
AcDbEntity
  8
0
100
AcDbLine
 10
108.0
 20
62.0
 30
0.0
 11
125.0
 21
62.0
 31
0.0
  0
LINE
  5
CEE
100
AcDbEntity
  8
0
100
AcDbLine
 10
108.0
 20
61.0
 30
0.0
 11
126.0
 21
61.0
 31
0.0
  0
LINE
  5
CEF
100
AcDbEntity
  8
0
100
AcDbLine
 10
108.0
 20
42.0
 30
0.0
 11
125.0
 21
42.0
 31
0.0
  0
LINE
  5
CF0
100
AcDbEntity
  8
0
100
AcDbLine
 10
108.0
 20
43.0
 30
0.0
 11
126.0
 21
43.0
 31
0.0
  0
LINE
  5
CF1
100
AcDbEntity
  8
1
100
AcDbLine
 10
65.0
 20
52.0
 30
0.0
 11
144.5
 21
52.0
 31
0.0
  0
VIEWPORT
  5
22
100
AcDbEntity
 67
     1
  8
0
100
AcDbViewport
 10
261.517699
 20
148.5
 30
0.0
 40
523.035398
 41
297.0
 68
    -1
 69
     1
1001
ACAD
1000
MVIEW
1002
{
1070
    16
1010
0.0
1020
0.0
1030
0.0
1010
0.0
1020
0.0
1030
1.0
1040
0.0
1040
297.0
1040
261.517699
1040
148.5
1040
50.0
1040
0.0
1040
0.0
1070
     0
1070
   100
1070
     1
1070
     1
1070
     0
1070
     0
1070
     0
1070
     0
1040
0.0
1040
0.0
1040
0.0
1040
1.0
1040
1.0
1040
10.0
1040
10.0
1070
     0
1002
{
1002
}
1002
}
  0
ENDSEC
  0
SECTION
  2
OBJECTS
  0
DICTIONARY
  5
C7A
100
AcDbDictionary
  3
ACAD_GROUP
350
C7B
  3
ACAD_MLINESTYLE
350
C88
  3
ACDBVARIABLEDICTIONARY
350
C9E
  0
DICTIONARY
  5
C7B
102
{ACAD_REACTORS
330
C7A
102
}
100
AcDbDictionary
  0
DICTIONARY
  5
C88
102
{ACAD_REACTORS
330
C7A
102
}
100
AcDbDictionary
  3
STANDARD
350
C89
  0
DICTIONARY
  5
C9E
102
{ACAD_REACTORS
330
C7A
102
}
100
AcDbDictionary
  3
DIMADEC
350
C9F
  0
MLINESTYLE
  5
C89
102
{ACAD_REACTORS
330
C88
102
}
100
AcDbMlineStyle
  2
STANDARD
 70
     0
  3

 62
   256
 51
90.0
 52
90.0
 71
     2
 49
0.5
 62
   256
  6
BYLAYER
 49
-0.5
 62
   256
  6
BYLAYER
  0
DICTIONARYVAR
  5
C9F
102
{ACAD_REACTORS
330
C9E
102
}
100
DictionaryVariables
280
     0
  1
0
  0
ENDSEC
  0
EOF
