  0
SECTION
  2
HEADER
  9
$ACADVER
  1
AC1015
  9
$ACADMAINTVER
 70
    13
  9
$DWGCODEPAGE
  3
ANSI_932
  9
$INSBASE
 10
0.0
 20
0.0
 30
0.0
  9
$EXTMIN
 10
28.62907282722642
 20
12.01788147079642
 30
0.0
  9
$EXTMAX
 10
200.626176789128
 20
101.8442684213277
 30
0.0
  9
$LIMMIN
 10
0.0
 20
0.0
  9
$LIMMAX
 10
220.0
 20
170.0
  9
$ORTHOMODE
 70
     1
  9
$REGENMODE
 70
     1
  9
$FILLMODE
 70
     1
  9
$QTEXTMODE
 70
     0
  9
$MIRRTEXT
 70
     1
  9
$LTSCALE
 40
1.0
  9
$ATTMODE
 70
     1
  9
$TEXTSIZE
 40
7.0
  9
$TRACEWID
 40
1.0
  9
$TEXTSTYLE
  7
STANDARD
  9
$CLAYER
  8
0
  9
$CELTYPE
  6
BYLAYER
  9
$CECOLOR
 62
   256
  9
$CELTSCALE
 40
1.0
  9
$DISPSILH
 70
     0
  9
$DIMSCALE
 40
1.0
  9
$DIMASZ
 40
2.5
  9
$DIMEXO
 40
0.625
  9
$DIMDLI
 40
3.75
  9
$DIMRND
 40
0.0
  9
$DIMDLE
 40
0.0
  9
$DIMEXE
 40
1.25
  9
$DIMTP
 40
0.0
  9
$DIMTM
 40
0.0
  9
$DIMTXT
 40
2.5
  9
$DIMCEN
 40
2.5
  9
$DIMTSZ
 40
0.0
  9
$DIMTOL
 70
     0
  9
$DIMLIM
 70
     0
  9
$DIMTIH
 70
     1
  9
$DIMTOH
 70
     0
  9
$DIMSE1
 70
     0
  9
$DIMSE2
 70
     0
  9
$DIMTAD
 70
     1
  9
$DIMZIN
 70
     8
  9
$DIMBLK
  1

  9
$DIMASO
 70
     1
  9
$DIMSHO
 70
     1
  9
$DIMPOST
  1

  9
$DIMAPOST
  1

  9
$DIMALT
 70
     0
  9
$DIMALTD
 70
     2
  9
$DIMALTF
 40
0.0394
  9
$DIMLFAC
 40
1.0
  9
$DIMTOFL
 70
     1
  9
$DIMTVP
 40
1.0
  9
$DIMTIX
 70
     0
  9
$DIMSOXD
 70
     0
  9
$DIMSAH
 70
     0
  9
$DIMBLK1
  1

  9
$DIMBLK2
  1

  9
$DIMSTYLE
  2
ISO-25
  9
$DIMCLRD
 70
     0
  9
$DIMCLRE
 70
     0
  9
$DIMCLRT
 70
     0
  9
$DIMTFAC
 40
1.0
  9
$DIMGAP
 40
0.625
  9
$DIMJUST
 70
     0
  9
$DIMSD1
 70
     0
  9
$DIMSD2
 70
     0
  9
$DIMTOLJ
 70
     1
  9
$DIMTZIN
 70
     8
  9
$DIMALTZ
 70
     8
  9
$DIMALTTZ
 70
     8
  9
$DIMUPT
 70
     0
  9
$DIMDEC
 70
     4
  9
$DIMTDEC
 70
     4
  9
$DIMALTU
 70
     2
  9
$DIMALTTD
 70
     2
  9
$DIMTXSTY
  7
STANDARD
  9
$DIMAUNIT
 70
     0
  9
$DIMADEC
 70
     0
  9
$DIMALTRND
 40
0.0
  9
$DIMAZIN
 70
     0
  9
$DIMDSEP
 70
    46
  9
$DIMATFIT
 70
     3
  9
$DIMFRAC
 70
     0
  9
$DIMLDRBLK
  1

  9
$DIMLUNIT
 70
     2
  9
$DIMLWD
 70
    -2
  9
$DIMLWE
 70
    -2
  9
$DIMTMOVE
 70
     0
  9
$LUNITS
 70
     2
  9
$LUPREC
 70
     4
  9
$SKETCHINC
 40
1.0
  9
$FILLETRAD
 40
2.5
  9
$AUNITS
 70
     0
  9
$AUPREC
 70
     0
  9
$MENU
  1
.
  9
$ELEVATION
 40
0.0
  9
$PELEVATION
 40
0.0
  9
$THICKNESS
 40
0.0
  9
$LIMCHECK
 70
     0
  9
$CHAMFERA
 40
1.199999999999999
  9
$CHAMFERB
 40
1.199999999999999
  9
$CHAMFERC
 40
0.0
  9
$CHAMFERD
 40
0.0
  9
$SKPOLY
 70
     0
  9
$TDCREATE
 40
2450687.671712963
  9
$TDUCREATE
 40
2450687.296712962
  9
$TDUPDATE
 40
2454130.752905625
  9
$TDUUPDATE
 40
2454130.377905625
  9
$TDINDWG
 40
0.0435163426
  9
$TDUSRTIMER
 40
0.0435163426
  9
$USRTIMER
 70
     1
  9
$ANGBASE
 50
0.0
  9
$ANGDIR
 70
     0
  9
$PDMODE
 70
     0
  9
$PDSIZE
 40
0.0
  9
$PLINEWID
 40
0.0
  9
$SPLFRAME
 70
     0
  9
$SPLINETYPE
 70
     6
  9
$SPLINESEGS
 70
     8
  9
$HANDSEED
  5
14E1
  9
$SURFTAB1
 70
     6
  9
$SURFTAB2
 70
     6
  9
$SURFTYPE
 70
     6
  9
$SURFU
 70
     6
  9
$SURFV
 70
     6
  9
$UCSBASE
  2

  9
$UCSNAME
  2

  9
$UCSORG
 10
0.0
 20
0.0
 30
0.0
  9
$UCSXDIR
 10
1.0
 20
0.0
 30
0.0
  9
$UCSYDIR
 10
0.0
 20
1.0
 30
0.0
  9
$UCSORTHOREF
  2

  9
$UCSORTHOVIEW
 70
     0
  9
$UCSORGTOP
 10
0.0
 20
0.0
 30
0.0
  9
$UCSORGBOTTOM
 10
0.0
 20
0.0
 30
0.0
  9
$UCSORGLEFT
 10
0.0
 20
0.0
 30
0.0
  9
$UCSORGRIGHT
 10
0.0
 20
0.0
 30
0.0
  9
$UCSORGFRONT
 10
0.0
 20
0.0
 30
0.0
  9
$UCSORGBACK
 10
0.0
 20
0.0
 30
0.0
  9
$PUCSBASE
  2

  9
$PUCSNAME
  2

  9
$PUCSORG
 10
0.0
 20
0.0
 30
0.0
  9
$PUCSXDIR
 10
1.0
 20
0.0
 30
0.0
  9
$PUCSYDIR
 10
0.0
 20
1.0
 30
0.0
  9
$PUCSORTHOREF
  2

  9
$PUCSORTHOVIEW
 70
     0
  9
$PUCSORGTOP
 10
0.0
 20
0.0
 30
0.0
  9
$PUCSORGBOTTOM
 10
0.0
 20
0.0
 30
0.0
  9
$PUCSORGLEFT
 10
0.0
 20
0.0
 30
0.0
  9
$PUCSORGRIGHT
 10
0.0
 20
0.0
 30
0.0
  9
$PUCSORGFRONT
 10
0.0
 20
0.0
 30
0.0
  9
$PUCSORGBACK
 10
0.0
 20
0.0
 30
0.0
  9
$USERI1
 70
     0
  9
$USERI2
 70
     0
  9
$USERI3
 70
     0
  9
$USERI4
 70
     0
  9
$USERI5
 70
     0
  9
$USERR1
 40
0.0
  9
$USERR2
 40
0.0
  9
$USERR3
 40
0.0
  9
$USERR4
 40
0.0
  9
$USERR5
 40
0.0
  9
$WORLDVIEW
 70
     1
  9
$SHADEDGE
 70
     3
  9
$SHADEDIF
 70
    70
  9
$TILEMODE
 70
     1
  9
$MAXACTVP
 70
    16
  9
$PINSBASE
 10
0.0
 20
0.0
 30
0.0
  9
$PLIMCHECK
 70
     0
  9
$PEXTMIN
 10
1.000000000000000E+20
 20
1.000000000000000E+20
 30
1.000000000000000E+20
  9
$PEXTMAX
 10
-1.000000000000000E+20
 20
-1.000000000000000E+20
 30
-1.000000000000000E+20
  9
$PLIMMIN
 10
0.0
 20
0.0
  9
$PLIMMAX
 10
420.0
 20
297.0
  9
$UNITMODE
 70
     0
  9
$VISRETAIN
 70
     0
  9
$PLINEGEN
 70
     0
  9
$PSLTSCALE
 70
     1
  9
$TREEDEPTH
 70
  3020
  9
$CMLSTYLE
  2
STANDARD
  9
$CMLJUST
 70
     0
  9
$CMLSCALE
 40
1.0
  9
$PROXYGRAPHICS
 70
     1
  9
$MEASUREMENT
 70
     0
  9
$CELWEIGHT
370
    -1
  9
$ENDCAPS
280
     0
  9
$JOINSTYLE
280
     0
  9
$LWDISPLAY
290
     0
  9
$INSUNITS
 70
     0
  9
$HYPERLINKBASE
  1

  9
$STYLESHEET
  1

  9
$XEDIT
290
     1
  9
$CEPSNTYPE
380
     0
  9
$PSTYLEMODE
290
     1
  9
$FINGERPRINTGUID
  2
{5905E162-39BF-4FAB-B78F-C4F4AB28FF1A}
  9
$VERSIONGUID
  2
{B7DD61A4-FA18-4BDF-A498-5AEA03B6E013}
  9
$EXTNAMES
290
     1
  9
$PSVPSCALE
 40
0.0
  9
$OLESTARTUP
290
     0
  0
ENDSEC
  0
SECTION
  2
CLASSES
  0
CLASS
  1
DICTIONARYVAR
  2
AcDbDictionaryVar
  3
AutoCAD 2000
 90
        0
280
     0
281
     0
  0
CLASS
  1
LWPOLYLINE
  2
AcDbPolyline
  3
AutoCAD 2000
 90
    32768
280
     0
281
     1
  0
CLASS
  1
ACDBDICTIONARYWDFLT
  2
AcDbDictionaryWithDefault
  3
AutoCAD 2000
 90
        0
280
     0
281
     0
  0
CLASS
  1
ACDBPLACEHOLDER
  2
AcDbPlaceHolder
  3
AutoCAD 2000
 90
        0
280
     0
281
     0
  0
CLASS
  1
LAYOUT
  2
AcDbLayout
  3
AutoCAD 2000
 90
        0
280
     0
281
     0
  0
CLASS
  1
AMGSETTINGSOBJ
  2
AmgSettingsObj
  3
"AcadM|Product Description: AutoCAD Mechanical 2000|Company: Autodesk"
 90
        0
280
     0
281
     0
  0
CLASS
  1
ACME_DOCUMENT
  2
AcMeDbDoc
  3
AcMeServices
 90
        0
280
     0
281
     0
  0
CLASS
  1
ACMESCOPE
  2
AcMeScope
  3
AcMeServices
 90
        0
280
     0
281
     0
  0
CLASS
  1
ACMECOMMANDHISTORY
  2
AcMeCommandHistory
  3
AcMeServices
 90
        0
280
     0
281
     0
  0
CLASS
  1
ACIMSYSVARMAN
  2
AcImSysVarManager
  3
AcMeServices
 90
        0
280
     0
281
     0
  0
CLASS
  1
ACIMREALSYSVAR
  2
AcImRealSysVar
  3
AcMeServices
 90
        0
280
     0
281
     0
  0
CLASS
  1
ACIMINTSYSVAR
  2
AcImIntSysVar
  3
AcMeServices
 90
        0
280
     0
281
     0
  0
CLASS
  1
ACMEDRAWINGMAN
  2
AcMeDrawingMan
  3
AcMeServices
 90
        0
280
     0
281
     0
  0
CLASS
  1
ACMEVIEW
  2
AcMeView
  3
AcMeServices
 90
        0
280
     0
281
     0
  0
CLASS
  1
ACDBENTITYCACHE
  2
AcMeEntityCache
  3
AcMeServices
 90
        0
280
     0
281
     0
  0
CLASS
  1
GSMANAGER
  2
AcMeGSManager
  3
AcMeServices
 90
        0
280
     0
281
     0
  0
CLASS
  1
AMDTINTERNALREACTOR
  2
AmdtInternalReactor
  3
AcMeServices
 90
        0
280
     0
281
     0
  0
CLASS
  1
ACMESTATEMGR
  2
AcMeStateMgr
  3
AcMeServices
 90
        0
280
     0
281
     0
  0
CLASS
  1
ACGREFMASTER
  2
AcGrefMaster
  3
AcAttribServices
 90
        0
280
     0
281
     0
  0
CLASS
  1
AM_DRAWING_MGR
  2
AcDmDwgMgr
  3
AcMechDwgViewMgmt
 90
        0
280
     0
281
     0
  0
CLASS
  1
AM_DWG_DOCUMENT
  2
AcDmDwgDocument
  3
AcMechDwgViewMgmt
 90
        0
280
     0
281
     0
  0
CLASS
  1
AM_DWG_SHEET
  2
AcDmSheet
  3
AcMechDwgViewMgmt
 90
        0
280
     0
281
     0
  0
CLASS
  1
AM_VIEWDIMPARMAP
  2
AcDmViewDimParMap
  3
AcMechDwgViewMgmt
 90
        0
280
     0
281
     0
  0
CLASS
  1
AM_DWGMGR_NAME
  2
AcDmDwgMgrName
  3
AcMechDwgViewMgmt
 90
        0
280
     0
281
     0
  0
CLASS
  1
ACME_DATABASE
  2
AcMeDbDatabase
  3
AcMeServices
 90
        0
280
     0
281
     0
  0
CLASS
  1
ACRFINSADJUSTERMGR
  2
AcRfInsAdjusterMgr
  3
AcMeServices
 90
        0
280
     0
281
     0
  0
CLASS
  1
ACGREFACADMASTER
  2
AcGrefacadMaster
  3
AcGrefServices
 90
        0
280
     0
281
     0
  0
CLASS
  1
AMDTMENUSTATEMGR
  2
AmdtMenuStateMgr
  3
McadcomServices
 90
        0
280
     0
281
     0
  0
CLASS
  1
AMDTMCOMMENUSTATE
  2
AmdtMcomMenuState
  3
McadcomServices
 90
        0
280
     0
281
     0
  0
CLASS
  1
AMIMASTER
  2
AmiMaster
  3
AmiServices
 90
        0
280
     0
281
     0
  0
CLASS
  1
ASAPP
  2
AcAsAppObject
  3
AutoSurfServices
 90
        0
280
     0
281
     0
  0
CLASS
  1
IM_STATIC_MAN
  2
AcImStaticVarManager
  3
AcMeServices
 90
        0
280
     0
281
     0
  0
CLASS
  1
ACIMSTRSYSVAR
  2
AcImStrSysVar
  3
AcMeServices
 90
        0
280
     0
281
     0
  0
CLASS
  1
ACIMDBLSTATICVAR
  2
AcImDblStaticVar
  3
AcMeServices
 90
        0
280
     0
281
     0
  0
CLASS
  1
ACIMSTRSTATICVAR
  2
AcImStrStaticVar
  3
AcMeServices
 90
        0
280
     0
281
     0
  0
CLASS
  1
ACIMINTSTATICVAR
  2
AcImIntStaticVar
  3
AcMeServices
 90
        0
280
     0
281
     0
  0
CLASS
  1
ACASGREFMASTER
  2
AcAsGrefMaster
  3
AutoSurfResolverServices
 90
        0
280
     0
281
     0
  0
CLASS
  1
ACADGREFMODULE
  2
AcAdGrefModule
  3
AdGrefServices
 90
        0
280
     0
281
     0
  0
CLASS
  1
AMDTMAPISURFMOUDULE
  2
AmdtMApiSurfModule
  3
MApiSurfServices
 90
        0
280
     0
281
     0
  0
CLASS
  1
MAPIAMMOUDLE
  2
MApiAmModule
  3
MApiAmServices
 90
        0
280
     0
281
     0
  0
CLASS
  1
AMDTADMENUSTATE
  2
AmdtAdMenuState
  3
DesignerServices
 90
        0
280
     0
281
     0
  0
CLASS
  1
ADAPPL
  2
AcAdAppl
  3
DesignerServices
 90
        0
280
     0
281
     0
  0
CLASS
  1
DEPMGR
  2
AcAdDepMgr
  3
DesignerServices
 90
        0
280
     0
281
     0
  0
CLASS
  1
PARAMMGR
  2
AcAdParamMgr
  3
DesignerServices
 90
        0
280
     0
281
     0
  0
CLASS
  1
PARAMSCOPE
  2
AcAdParamScope
  3
DesignerServices
 90
        0
280
     0
281
     0
  0
CLASS
  1
NAMEDAPPL
  2
AcAdNamedAppl
  3
DesignerServices
 90
        0
280
     0
281
     0
  0
CLASS
  1
AMDTDMMENUSTATE
  2
AmdtDmMenuState
  3
AcMechDwgViewMgmt
 90
        0
280
     0
281
     0
  0
CLASS
  1
MAPIADMODULE
  2
MApiAdModule
  3
MApiAdServices
 90
        0
280
     0
281
     0
  0
CLASS
  1
AMDTAMMENUSTATE
  2
AmdtAmMenuState
  3
DesignerAssemblies
 90
        0
280
     0
281
     0
  0
CLASS
  1
ACAMPROJECT
  2
AcAmProject
  3
DesignerAssemblies
 90
        0
280
     0
281
     0
  0
CLASS
  1
ACAMGRCOMPDEF
  2
AcAmGrCompDef
  3
DesignerAssemblies
 90
        0
280
     0
281
     0
  0
CLASS
  1
ACCMCONTEXT
  2
AcCmContext
  3
DesignerAssemblies
 90
        0
280
     0
281
     0
  0
CLASS
  1
ACAMCOMPDEF
  2
AcAmCompDef
  3
DesignerAssemblies
 90
        0
280
     0
281
     0
  0
CLASS
  1
ACAMCOMPDEFMGR
  2
AcAmCompDefMgr
  3
DesignerAssemblies
 90
        0
280
     0
281
     0
  0
CLASS
  1
AMCONTEXTMGR
  2
AcAmContextMgr
  3
DesignerAssemblies
 90
        0
280
     0
281
     0
  0
CLASS
  1
ACAMCONTEXTMODELER
  2
AcAmContextModeler
  3
DesignerAssemblies
 90
        0
280
     0
281
     0
  0
CLASS
  1
ACMDATADICTIONARY
  2
AcmDataDictionary
  3
"AcmSymBB|Product Description: AutoCAD Mechanical 2000|Company: Autodesk"
 90
        0
280
     0
281
     0
  0
CLASS
  1
ACMDATAENTRYBLOCK
  2
AcmDataEntryBlock
  3
"AcmSymBB|Product Description: AutoCAD Mechanical 2000|Company: Autodesk"
 90
        0
280
     0
281
     0
  0
CLASS
  1
CATALOGSTATE
  2
AcAmCatalogState
  3
DesignerAssemblies
 90
        0
280
     0
281
     0
  0
CLASS
  1
ACAMGRCOMPDEFSET
  2
AcAmGrCompDefSet
  3
DesignerAssemblies
 90
        0
280
     0
281
     0
  0
CLASS
  1
AMDTBROWSERDBTAB
  2
AmdtBrowserDbTab
  3
McadcomServices
 90
        0
280
     0
281
     0
  0
CLASS
  1
CBROWSERAPPOBJECT
  2
CBrowserAppObject
  3
McadcomServices
 90
        0
280
     0
281
     0
  0
CLASS
  1
DM_PLACEHOLDER
  2
AcDmSelsetPlaceholder
  3
AcMechDwgViewMgmt
 90
        0
280
     0
281
     0
  0
CLASS
  1
AMGOBJPROPCFG
  2
AmgObjPropCfg
  3
"AmgLay|Product Description: AutoCAD Mechanical 2000|Company: Autodesk"
 90
        1
280
     0
281
     0
  0
CLASS
  1
LAYER_INDEX
  2
AcDbLayerIndex
  3
AutoCAD 2000
 90
        0
280
     0
281
     0
  0
CLASS
  1
IDBUFFER
  2
AcDbIdBuffer
  3
AutoCAD 2000
 90
        0
280
     0
281
     0
  0
CLASS
  1
ACAMGFILTERDAT
  2
AcAmgFilterDat
  3
"AcadM|Product Description: AutoCAD Mechanical 2000|Company: Autodesk"
 90
        0
280
     0
281
     0
  0
ENDSEC
  0
SECTION
  2
TABLES
  0
TABLE
  2
VPORT
  5
1248
330
0
100
AcDbSymbolTable
 70
     9
  0
VPORT
  5
14E0
330
1248
100
AcDbSymbolTableRecord
100
AcDbViewportTableRecord
  2
*Active
 70
     0
 10
0.0
 20
0.0
 11
1.0
 21
1.0
 12
0.0
 22
0.0
 13
0.0
 23
0.0
 14
0.25
 24
0.25
 15
0.5
 25
0.5
 16
0.0
 26
0.0
 36
1.0
 17
134.3449094459406
 27
91.867376
 37
0.0
 40
183.7425801298146
 41
1.462378640776698
 42
50.0
 43
0.0
 44
0.0
 50
0.0
 51
0.0
 71
     0
 72
 20000
 73
     1
 74
     1
 75
     0
 76
     0
 77
     0
 78
     0
281
     0
 65
     0
110
0.0
120
0.0
130
0.0
111
1.0
121
0.0
131
0.0
112
0.0
122
1.0
132
0.0
 79
     0
146
0.0
  0
ENDTAB
  0
TABLE
  2
LTYPE
  5
1245
330
0
100
AcDbSymbolTable
 70
    18
  0
LTYPE
  5
1251
330
1245
100
AcDbSymbolTableRecord
100
AcDbLinetypeTableRecord
  2
BYBLOCK
 70
     0
  3

 72
    65
 73
     0
 40
0.0
  0
LTYPE
  5
1252
330
1245
100
AcDbSymbolTableRecord
100
AcDbLinetypeTableRecord
  2
BYLAYER
 70
     0
  3

 72
    65
 73
     0
 40
0.0
  0
LTYPE
  5
1253
330
1245
100
AcDbSymbolTableRecord
100
AcDbLinetypeTableRecord
  2
CONTINUOUS
 70
     0
  3
Solid line
 72
    65
 73
     0
 40
0.0
  0
LTYPE
  5
125C
330
1245
100
AcDbSymbolTableRecord
100
AcDbLinetypeTableRecord
  2
TENSEN
 70
     0
  3

 72
    65
 73
     2
 40
2.5
 49
1.5
 74
     0
 49
-1.0
 74
     0
  0
LTYPE
  5
125D
330
1245
100
AcDbSymbolTableRecord
100
AcDbLinetypeTableRecord
  2
ITTEN
 70
     0
  3

 72
    65
 73
     4
 40
3.6
 49
2.0
 74
     0
 49
-0.5
 74
     0
 49
0.6
 74
     0
 49
-0.5
 74
     0
  0
LTYPE
  5
12A7
330
1245
100
AcDbSymbolTableRecord
100
AcDbLinetypeTableRecord
  2
HIDDEN
 70
     0
  3
Hidden __ __ __ __ __ __ __ __ __ __ __ __ __ _
 72
    65
 73
     2
 40
0.375
 49
0.25
 74
     0
 49
-0.125
 74
     0
  0
LTYPE
  5
12A8
330
1245
100
AcDbSymbolTableRecord
100
AcDbLinetypeTableRecord
  2
PHANTOM2
 70
     0
  3
Phantom (.5x) ___ _ _ ___ _ _ ___ _ _ ___ _ _
 72
    65
 73
     6
 40
1.25
 49
0.625
 74
     0
 49
-0.125
 74
     0
 49
0.125
 74
     0
 49
-0.125
 74
     0
 49
0.125
 74
     0
 49
-0.125
 74
     0
  0
LTYPE
  5
12A9
330
1245
100
AcDbSymbolTableRecord
100
AcDbLinetypeTableRecord
  2
CENTER
 70
     0
  3
Center ____ _ ____ _ ____ _ ____ _ ____ _ ____
 72
    65
 73
     4
 40
2.0
 49
1.25
 74
     0
 49
-0.25
 74
     0
 49
0.25
 74
     0
 49
-0.25
 74
     0
  0
LTYPE
  5
130B
330
1245
100
AcDbSymbolTableRecord
100
AcDbLinetypeTableRecord
  2
ASULTYPE
 70
     0
  3
実線
 72
    65
 73
     2
 40
3.0
 49
2.5
 74
     0
 49
0.5
 74
     0
  0
LTYPE
  5
130C
330
1245
100
AcDbSymbolTableRecord
100
AcDbLinetypeTableRecord
  2
ASVLTYPE
 70
     0
  3
__ __ __ __ __ __ __ __ __ __ __ __ __ __ __ __ __ __ __ __ __
 72
    65
 73
     2
 40
0.75
 49
0.5
 74
     0
 49
-0.25
 74
     0
  0
LTYPE
  5
134D
330
1245
100
AcDbSymbolTableRecord
100
AcDbLinetypeTableRecord
  2
AM_ISO02W050
 70
     0
  3
__ __ __ __ __ __ __ __ __ __ __ __ __ __ __
 72
    65
 73
     2
 40
7.5
 49
6.0
 74
     0
 49
-1.5
 74
     0
  0
LTYPE
  5
134E
330
1245
100
AcDbSymbolTableRecord
100
AcDbLinetypeTableRecord
  2
AM_ISO08W050
 70
     0
  3
____ . ____ . ____ . ____ . ____ . ____ . ____
 72
    65
 73
     4
 40
18.0
 49
12.0
 74
     0
 49
-1.5
 74
     0
 49
3.0
 74
     0
 49
-1.5
 74
     0
  0
LTYPE
  5
134F
330
1245
100
AcDbSymbolTableRecord
100
AcDbLinetypeTableRecord
  2
AM_ISO09W050
 70
     0
  3
_____ . . _____ . . _____ . . ____ .. ____
 72
    65
 73
     6
 40
22.5
 49
12.0
 74
     0
 49
-1.5
 74
     0
 49
3.0
 74
     0
 49
-1.5
 74
     0
 49
3.0
 74
     0
 49
-1.5
 74
     0
  0
LTYPE
  5
1350
330
1245
100
AcDbSymbolTableRecord
100
AcDbLinetypeTableRecord
  2
Amconstr
 70
     0
  3
_______________________
 72
    65
 73
     2
 40
9999.0
 49
9999.0
 74
     0
 49
0.0
 74
     0
  0
LTYPE
  5
1351
330
1245
100
AcDbSymbolTableRecord
100
AcDbLinetypeTableRecord
  2
AM_ISO08W050x2
 70
     0
  3
__ . __ . __ . __ . __ . __
 72
    65
 73
     4
 40
9.0
 49
6.0
 74
     0
 49
-0.75
 74
     0
 49
1.5
 74
     0
 49
-0.75
 74
     0
  0
LTYPE
  5
1352
330
1245
100
AcDbSymbolTableRecord
100
AcDbLinetypeTableRecord
  2
AM_ISO02W050x2
 70
     0
  3
 _ _ _ _ _ _ _ _ _ _ _ _
 72
    65
 73
     2
 40
3.75
 49
3.0
 74
     0
 49
-0.75
 74
     0
  0
LTYPE
  5
1355
330
1245
100
AcDbSymbolTableRecord
100
AcDbLinetypeTableRecord
  2
Amzigzag
 70
     0
  3
/\/-/\/-/\/-/\/-/\/-/\/
 72
    65
 73
     2
 40
11.00009999999999
 49
0.0001
 74
     4
 75
   135
340
1354
 46
0.04
 50
0.0
 44
0.0
 45
0.0
 49
-11.0
 74
     0
  0
LTYPE
  5
1356
330
1245
100
AcDbSymbolTableRecord
100
AcDbLinetypeTableRecord
  2
CENTER2
 70
     0
  3
Center (.5x) ___ _ ___ _ ___ _ ___ _ ___ _ ___
 72
    65
 73
     4
 40
1.125
 49
0.75
 74
     0
 49
-0.125
 74
     0
 49
0.125
 74
     0
 49
-0.125
 74
     0
  0
LTYPE
  5
1357
330
1245
100
AcDbSymbolTableRecord
100
AcDbLinetypeTableRecord
  2
HIDDEN2
 70
     0
  3
Hidden (.5x) _ _ _ _ _ _ _ _ _ _ _ _ _ _ _ _ _
 72
    65
 73
     2
 40
0.1875
 49
0.125
 74
     0
 49
-0.0625
 74
     0
  0
LTYPE
  5
1358
330
1245
100
AcDbSymbolTableRecord
100
AcDbLinetypeTableRecord
  2
Amzigzag2
 70
     0
  3
/\/-/\/-/\/-/\/-/\/-/\/
 72
    65
 73
     2
 40
0.4401
 49
0.0001
 74
     4
 75
   135
340
1354
 46
0.0016
 50
0.0
 44
0.0
 45
0.0
 49
-0.4400000000000001
 74
     0
  0
ENDTAB
  0
TABLE
  2
LAYER
  5
1242
330
0
100
AcDbSymbolTable
 70
     4
  0
LAYER
  5
124E
330
1242
100
AcDbSymbolTableRecord
100
AcDbLayerTableRecord
  2
0
 70
     0
 62
     7
  6
CONTINUOUS
370
    -3
390
127D
  0
LAYER
  5
1269
330
1242
100
AcDbSymbolTableRecord
100
AcDbLayerTableRecord
  2
2
 70
     0
 62
     2
  6
TENSEN
370
    -3
390
127D
  0
LAYER
  5
126A
330
1242
100
AcDbSymbolTableRecord
100
AcDbLayerTableRecord
  2
1
 70
     0
 62
     1
  6
ITTEN
370
    -3
390
127D
  0
LAYER
  5
126B
330
1242
100
AcDbSymbolTableRecord
100
AcDbLayerTableRecord
  2
3
 70
     0
 62
     3
  6
CONTINUOUS
370
    -3
390
127D
  0
ENDTAB
  0
TABLE
  2
STYLE
  5
1243
330
0
100
AcDbSymbolTable
 70
     2
  0
STYLE
  5
124F
330
1243
100
AcDbSymbolTableRecord
100
AcDbTextStyleTableRecord
  2
STANDARD
 70
     0
 40
7.0
 41
0.8
 50
0.0
 71
     0
 42
7.0
  3
ISOCP
  4
B:\r13\com\fonts\bigfont.shx
  0
STYLE
  5
1354
330
1243
100
AcDbSymbolTableRecord
100
AcDbTextStyleTableRecord
  2

 70
     1
 40
0.0
 41
1.0
 50
0.0
 71
     0
 42
7.0
  3
ltypeshp.shx
  4

  0
ENDTAB
  0
TABLE
  2
VIEW
  5
1246
330
0
100
AcDbSymbolTable
 70
     0
  0
ENDTAB
  0
TABLE
  2
UCS
  5
1247
330
0
100
AcDbSymbolTable
 70
     0
  0
ENDTAB
  0
TABLE
  2
APPID
  5
1249
330
0
100
AcDbSymbolTable
 70
    12
  0
APPID
  5
1250
330
1249
100
AcDbSymbolTableRecord
100
AcDbRegAppTableRecord
  2
ACAD
 70
     0
  0
APPID
  5
1286
330
1249
100
AcDbSymbolTableRecord
100
AcDbRegAppTableRecord
  2
GENIUS_GENDIM_13
 70
     0
  0
APPID
  5
1287
330
1249
100
AcDbSymbolTableRecord
100
AcDbRegAppTableRecord
  2
GENIUS_GENDTOL_13
 70
     0
  0
APPID
  5
1288
330
1249
100
AcDbSymbolTableRecord
100
AcDbRegAppTableRecord
  2
GENIUS_GE3DTOL_13
 70
     0
  0
APPID
  5
128A
330
1249
100
AcDbSymbolTableRecord
100
AcDbRegAppTableRecord
  2
MCAD_NO_VIS
 70
     0
  0
APPID
  5
128B
330
1249
100
AcDbSymbolTableRecord
100
AcDbRegAppTableRecord
  2
ACAD_TEMP_GRAPHIC
 70
     0
  0
APPID
  5
12BE
330
1249
100
AcDbSymbolTableRecord
100
AcDbRegAppTableRecord
  2
AD_DRAW
 70
     0
  0
APPID
  5
12C1
330
1249
100
AcDbSymbolTableRecord
100
AcDbRegAppTableRecord
  2
ACATTRIBSERVICES
 70
     0
  0
APPID
  5
130D
330
1249
100
AcDbSymbolTableRecord
100
AcDbRegAppTableRecord
  2
ASURF_PCURVE_APPNAME
 70
     0
  0
APPID
  5
133C
330
1249
100
AcDbSymbolTableRecord
100
AcDbRegAppTableRecord
  2
DESIGNERASSEMBLIES
 70
     0
  0
APPID
  5
1344
330
1249
100
AcDbSymbolTableRecord
100
AcDbRegAppTableRecord
  2
ACADM_DIM_EDIT
 70
     0
  0
APPID
  5
1345
330
1249
100
AcDbSymbolTableRecord
100
AcDbRegAppTableRecord
  2
AMDT_DM_ADJ
 70
     0
  0
ENDTAB
  0
TABLE
  2
DIMSTYLE
  5
124A
330
0
100
AcDbSymbolTable
 70
     8
100
AcDbDimStyleTable
 71
     0
  0
DIMSTYLE
105
125F
330
124A
100
AcDbSymbolTableRecord
100
AcDbDimStyleTableRecord
  2
STANDARD
 70
     0
284
     8
285
     8
286
     8
340
124F
  0
DIMSTYLE
105
1260
330
124A
100
AcDbSymbolTableRecord
100
AcDbDimStyleTableRecord
  2
ISO-25
 70
     0
 41
2.5
 42
0.625
 43
3.75
 44
1.25
 74
     0
 77
     1
 78
     8
140
2.5
141
2.5
143
0.0394
145
1.0
147
0.625
172
     1
284
     8
285
     8
286
     8
340
124F
  0
DIMSTYLE
105
1261
330
124A
100
AcDbSymbolTableRecord
100
AcDbDimStyleTableRecord
  2
ISO-35
 70
     0
 41
3.5
 42
0.875
 43
5.25
 44
1.75
 74
     0
 77
     1
 78
     8
140
3.5
141
3.5
143
0.0394
145
1.399999999999999
147
0.875
172
     1
284
     8
285
     8
286
     8
340
124F
  0
DIMSTYLE
105
1262
330
124A
100
AcDbSymbolTableRecord
100
AcDbDimStyleTableRecord
  2
ISO-5
 70
     0
 41
5.0
 42
1.25
 43
7.5
 44
2.5
 74
     0
 77
     1
 78
     8
140
5.0
141
5.0
143
0.0394
145
2.0
147
1.25
172
     1
284
     8
285
     8
286
     8
340
124F
  0
DIMSTYLE
105
1263
330
124A
100
AcDbSymbolTableRecord
100
AcDbDimStyleTableRecord
  2
ISO-7
 70
     0
 41
7.0
 42
1.75
 43
10.5
 44
3.5
 74
     0
 77
     1
 78
     8
140
7.0
141
7.0
143
0.0394
145
2.799999999999999
147
1.75
172
     1
284
     8
285
     8
286
     8
340
124F
  0
DIMSTYLE
105
1264
330
124A
100
AcDbSymbolTableRecord
100
AcDbDimStyleTableRecord
  2
ISO1
 70
     0
 41
10.0
 42
2.5
 43
15.0
 44
5.0
 74
     0
 77
     1
 78
     8
140
10.0
141
10.0
143
0.0394
145
4.0
147
2.5
172
     1
284
     8
285
     8
286
     8
340
124F
  0
DIMSTYLE
105
1265
330
124A
100
AcDbSymbolTableRecord
100
AcDbDimStyleTableRecord
  2
ISO1-4
 70
     0
 41
14.0
 42
3.5
 43
21.0
 44
7.0
 74
     0
 77
     1
 78
     8
140
14.0
141
14.0
143
0.0394
145
5.599999999999999
147
3.5
172
     1
284
     8
285
     8
286
     8
340
124F
  0
DIMSTYLE
105
1266
330
124A
100
AcDbSymbolTableRecord
100
AcDbDimStyleTableRecord
  2
ISO2
 70
     0
 41
20.0
 42
5.0
 43
30.0
 44
10.0
 74
     0
 77
     1
 78
     8
140
20.0
141
20.0
143
0.0394
145
8.0
147
5.0
172
     1
284
     8
285
     8
286
     8
340
124F
  0
ENDTAB
  0
TABLE
  2
BLOCK_RECORD
  5
1241
330
0
100
AcDbSymbolTable
 70
     1
  0
BLOCK_RECORD
  5
1257
102
{ACAD_XDICTIONARY
360
135A
102
}
330
1241
100
AcDbSymbolTableRecord
100
AcDbBlockTableRecord
  2
*MODEL_SPACE
340
1280
  0
BLOCK_RECORD
  5
1254
330
1241
100
AcDbSymbolTableRecord
100
AcDbBlockTableRecord
  2
*PAPER_SPACE
340
1281
  0
BLOCK_RECORD
  5
1333
330
1241
100
AcDbSymbolTableRecord
100
AcDbBlockTableRecord
  2
*U0
340
0
  0
ENDTAB
  0
ENDSEC
  0
SECTION
  2
BLOCKS
  0
BLOCK
  5
126E
330
1257
100
AcDbEntity
  8
0
100
AcDbBlockBegin
  2
*MODEL_SPACE
 70
     0
 10
0.0
 20
0.0
 30
0.0
  3
*MODEL_SPACE
  1

  0
ENDBLK
  5
126F
330
1257
100
AcDbEntity
  8
0
100
AcDbBlockEnd
  0
BLOCK
  5
126C
330
1254
100
AcDbEntity
 67
     1
  8
0
100
AcDbBlockBegin
  2
*PAPER_SPACE
 70
     0
 10
0.0
 20
0.0
 30
0.0
  3
*PAPER_SPACE
  1

  0
ENDBLK
  5
126D
330
1254
100
AcDbEntity
 67
     1
  8
0
100
AcDbBlockEnd
  0
BLOCK
  5
1334
330
1333
100
AcDbEntity
  8
0
100
AcDbBlockBegin
  2
*U0
 70
     1
 10
0.0
 20
0.0
 30
0.0
  3
*U0
  1

  0
ENDBLK
  5
1335
330
1333
100
AcDbEntity
  8
0
100
AcDbBlockEnd
  0
ENDSEC
  0
SECTION
  2
ENTITIES
  0
LINE
  5
1473
330
1257
100
AcDbEntity
  8
1
100
AcDbLine
 10
111.5085065694455
 20
55.04960414799938
 30
0.0
 11
38.65073350840532
 21
55.04960414799938
 31
0.0
  0
LINE
  5
1474
330
1257
100
AcDbEntity
  8
1
100
AcDbLine
 10
76.08175013549566
 20
91.42193946726322
 30
0.0
 11
76.08175013549566
 21
16.58859726178988
 31
0.0
  0
ARC
  5
1475
330
1257
100
AcDbEntity
  8
0
100
AcDbCircle
 10
76.08175013549566
 20
55.04960414799938
 30
0.0
 40
27.5
100
AcDbArc
 50
212.9756816963899
 51
237.0243183036099
  0
ARC
  5
147B
330
1257
100
AcDbEntity
  8
0
100
AcDbCircle
 10
62.42461636281469
 20
88.02084172514941
 30
0.0
 40
9.987810387494677
100
AcDbArc
 50
262.4596196556482
 51
322.5403803443517
  0
ARC
  5
147C
330
1257
100
AcDbEntity
  8
0
100
AcDbCircle
 10
43.11051255834564
 20
68.70673792068036
 30
0.0
 40
9.987810387494677
100
AcDbArc
 50
307.4596196556482
 51
7.540380344351769
  0
ARC
  5
147D
330
1257
100
AcDbEntity
  8
0
100
AcDbCircle
 10
43.11051255834562
 20
41.39247037531842
 30
0.0
 40
9.987810387494677
100
AcDbArc
 50
352.4596196556482
 51
52.54038034435178
  0
ARC
  5
147E
330
1257
100
AcDbEntity
  8
0
100
AcDbCircle
 10
62.42461636281467
 20
22.07836657084939
 30
0.0
 40
9.987810387494677
100
AcDbArc
 50
37.45961965564815
 51
97.54038034435176
  0
ARC
  5
147F
330
1257
100
AcDbEntity
  8
0
100
AcDbCircle
 10
89.73888390817661
 20
22.07836657084935
 30
0.0
 40
9.987810387494677
100
AcDbArc
 50
82.45961965564815
 51
142.5403803443517
  0
ARC
  5
1480
330
1257
100
AcDbEntity
  8
0
100
AcDbCircle
 10
109.0529877126456
 20
41.39247037531839
 30
0.0
 40
9.987810387494677
100
AcDbArc
 50
127.4596196556481
 51
187.5403803443517
  0
ARC
  5
1481
330
1257
100
AcDbEntity
  8
0
100
AcDbCircle
 10
109.0529877126456
 20
68.70673792068032
 30
0.0
 40
9.987810387494677
100
AcDbArc
 50
172.4596196556481
 51
232.5403803443517
  0
ARC
  5
1482
330
1257
100
AcDbEntity
  8
0
100
AcDbCircle
 10
89.73888390817666
 20
88.02084172514943
 30
0.0
 40
9.987810387494677
100
AcDbArc
 50
217.4596196556481
 51
277.5403803443517
  0
CIRCLE
  5
1483
330
1257
100
AcDbEntity
  8
0
100
AcDbCircle
 10
76.08175013549566
 20
55.04960414799938
 30
0.0
 40
23.5
  0
ARC
  5
1484
330
1257
100
AcDbEntity
  8
0
100
AcDbCircle
 10
76.08175013549566
 20
55.04960414799938
 30
0.0
 40
27.5
100
AcDbArc
 50
257.9756816963899
 51
282.02431830361
  0
ARC
  5
1485
330
1257
100
AcDbEntity
  8
0
100
AcDbCircle
 10
76.08175013549566
 20
55.04960414799938
 30
0.0
 40
27.5
100
AcDbArc
 50
302.9756816963899
 51
327.02431830361
  0
ARC
  5
1486
330
1257
100
AcDbEntity
  8
0
100
AcDbCircle
 10
76.08175013549566
 20
55.04960414799938
 30
0.0
 40
27.5
100
AcDbArc
 50
347.9756816963899
 51
12.02431830360998
  0
ARC
  5
1487
330
1257
100
AcDbEntity
  8
0
100
AcDbCircle
 10
76.08175013549566
 20
55.04960414799938
 30
0.0
 40
27.5
100
AcDbArc
 50
32.97568169638992
 51
57.02431830361014
  0
ARC
  5
1488
330
1257
100
AcDbEntity
  8
0
100
AcDbCircle
 10
76.08175013549566
 20
55.04960414799938
 30
0.0
 40
27.5
100
AcDbArc
 50
77.97568169638982
 51
102.02431830361
  0
ARC
  5
1489
330
1257
100
AcDbEntity
  8
0
100
AcDbCircle
 10
76.08175013549566
 20
55.04960414799938
 30
0.0
 40
27.5
100
AcDbArc
 50
122.9756816963899
 51
147.02431830361
  0
ARC
  5
148A
330
1257
100
AcDbEntity
  8
0
100
AcDbCircle
 10
76.08175013549566
 20
55.04960414799938
 30
0.0
 40
27.5
100
AcDbArc
 50
167.9756816963899
 51
192.0243183036101
  0
LINE
  5
148B
330
1257
100
AcDbEntity
  8
1
100
AcDbLine
 10
130.6696222833696
 20
55.04960414799938
 30
0.0
 11
192.6080693819779
 21
55.04960414799938
 31
0.0
  0
LINE
  5
148D
330
1257
100
AcDbEntity
  8
0
100
AcDbLine
 10
141.9875789263895
 20
82.54960414799938
 30
0.0
 11
150.838961187084
 21
82.54960414799937
 31
0.0
  0
LINE
  5
148F
330
1257
100
AcDbEntity
  8
0
100
AcDbLine
 10
156.0169098367321
 20
55.04960414799938
 30
0.0
 11
156.0169098367321
 21
67.24960414799939
 31
0.0
  0
LINE
  5
1490
330
1257
100
AcDbEntity
  8
0
100
AcDbLine
 10
156.0169098367321
 20
67.24960414799939
 30
0.0
 11
168.0169098367321
 21
67.24960414799939
 31
0.0
  0
LINE
  5
1492
330
1257
100
AcDbEntity
  8
0
100
AcDbLine
 10
168.0169098367321
 20
67.24960414799939
 30
0.0
 11
168.0169098367321
 21
55.04960414799938
 31
0.0
  0
LINE
  5
1493
330
1257
100
AcDbEntity
  8
0
100
AcDbLine
 10
168.0169098367321
 20
55.04960414799938
 30
0.0
 11
168.0169098367321
 21
60.04960414799938
 31
0.0
  0
LINE
  5
1494
330
1257
100
AcDbEntity
  8
0
100
AcDbLine
 10
168.0169098367321
 20
60.04960414799938
 30
0.0
 11
181.8169098367321
 21
60.04960414799938
 31
0.0
  0
LINE
  5
1495
330
1257
100
AcDbEntity
  8
0
100
AcDbLine
 10
183.0169098367321
 20
58.84960414799938
 30
0.0
 11
183.0169098367321
 21
55.04960414799938
 31
0.0
  0
LINE
  5
1496
330
1257
100
AcDbEntity
  8
0
100
AcDbLine
 10
183.0169098367321
 20
55.04960414799938
 30
0.0
 11
183.0169098367321
 21
57.54960414799938
 31
0.0
  0
LINE
  5
1497
330
1257
100
AcDbEntity
  8
0
100
AcDbLine
 10
183.0169098367321
 20
57.54960414799938
 30
0.0
 11
186.8169098367321
 21
57.54960414799938
 31
0.0
  0
LINE
  5
1498
330
1257
100
AcDbEntity
  8
0
100
AcDbLine
 10
188.0169098367321
 20
56.34960414799938
 30
0.0
 11
188.0169098367321
 21
55.04960414799938
 31
0.0
  0
LINE
  5
149F
330
1257
100
AcDbEntity
  8
0
100
AcDbLine
 10
181.8169098367321
 20
60.04960414799938
 30
0.0
 11
183.0169098367321
 21
58.84960414799938
 31
0.0
  0
LINE
  5
14A0
330
1257
100
AcDbEntity
  8
0
100
AcDbLine
 10
186.8169098367321
 20
57.54960414799938
 30
0.0
 11
188.0169098367321
 21
56.34960414799938
 31
0.0
  0
LINE
  5
14A1
330
1257
100
AcDbEntity
  8
0
100
AcDbLine
 10
183.0169098367321
 20
58.84960414799938
 30
0.0
 11
168.0169098367321
 21
58.84960414799939
 31
0.0
  0
LINE
  5
14A2
330
1257
100
AcDbEntity
  8
0
100
AcDbLine
 10
181.8169098367321
 20
60.04960414799938
 30
0.0
 11
181.816909836732
 21
55.04960414799938
 31
0.0
  0
LINE
  5
14A8
330
1257
100
AcDbEntity
  8
0
100
AcDbLine
 10
156.0169098367321
 20
42.84960414799939
 30
0.0
 11
168.0169098367321
 21
42.84960414799939
 31
0.0
  0
LINE
  5
14AA
330
1257
100
AcDbEntity
  8
0
100
AcDbLine
 10
156.0169098367321
 20
55.04960414799938
 30
0.0
 11
156.0169098367321
 21
42.84960414799939
 31
0.0
  0
LINE
  5
14AB
330
1257
100
AcDbEntity
  8
0
100
AcDbLine
 10
141.9875789263895
 20
27.54960414799938
 30
0.0
 11
150.838961187084
 21
27.54960414799938
 31
0.0
  0
LINE
  5
14AC
330
1257
100
AcDbEntity
  8
0
100
AcDbLine
 10
181.8169098367321
 20
50.04960414799938
 30
0.0
 11
181.816909836732
 21
55.04960414799939
 31
0.0
  0
LINE
  5
14AD
330
1257
100
AcDbEntity
  8
0
100
AcDbLine
 10
183.0169098367321
 20
51.24960414799939
 30
0.0
 11
183.0169098367321
 21
55.04960414799938
 31
0.0
  0
LINE
  5
14AE
330
1257
100
AcDbEntity
  8
0
100
AcDbLine
 10
168.0169098367321
 20
42.84960414799939
 30
0.0
 11
168.0169098367321
 21
55.04960414799938
 31
0.0
  0
LINE
  5
14AF
330
1257
100
AcDbEntity
  8
0
100
AcDbLine
 10
168.0169098367321
 20
55.04960414799938
 30
0.0
 11
168.0169098367321
 21
50.04960414799938
 31
0.0
  0
LINE
  5
14B0
330
1257
100
AcDbEntity
  8
0
100
AcDbLine
 10
183.0169098367321
 20
52.54960414799938
 30
0.0
 11
186.8169098367321
 21
52.54960414799938
 31
0.0
  0
LINE
  5
14B1
330
1257
100
AcDbEntity
  8
0
100
AcDbLine
 10
183.0169098367321
 20
55.04960414799938
 30
0.0
 11
183.0169098367321
 21
52.54960414799938
 31
0.0
  0
LINE
  5
14B2
330
1257
100
AcDbEntity
  8
0
100
AcDbLine
 10
188.0169098367321
 20
53.74960414799939
 30
0.0
 11
188.0169098367321
 21
55.04960414799938
 31
0.0
  0
LINE
  5
14B3
330
1257
100
AcDbEntity
  8
0
100
AcDbLine
 10
186.8169098367321
 20
52.54960414799938
 30
0.0
 11
188.0169098367321
 21
53.74960414799939
 31
0.0
  0
LINE
  5
14B4
330
1257
100
AcDbEntity
  8
0
100
AcDbLine
 10
183.0169098367321
 20
51.24960414799939
 30
0.0
 11
168.0169098367321
 21
51.24960414799939
 31
0.0
  0
LINE
  5
14B5
330
1257
100
AcDbEntity
  8
0
100
AcDbLine
 10
168.0169098367321
 20
50.04960414799938
 30
0.0
 11
181.8169098367321
 21
50.04960414799938
 31
0.0
  0
LINE
  5
14B6
330
1257
100
AcDbEntity
  8
0
100
AcDbLine
 10
181.8169098367321
 20
50.04960414799938
 30
0.0
 11
183.0169098367321
 21
51.24960414799939
 31
0.0
  0
ARC
  5
14BA
330
1257
100
AcDbEntity
  8
0
100
AcDbCircle
 10
230.2925195928295
 20
55.04960414799939
 30
0.0
 40
94.27560975609736
100
AcDbArc
 50
164.1926589603306
 51
195.8073410396693
  0
ARC
  5
14BB
330
1257
100
AcDbEntity
  8
0
100
AcDbCircle
 10
62.53402052064379
 20
55.04960414799938
 30
0.0
 40
94.27560975609768
100
AcDbArc
 50
344.1926589603307
 51
352.5646268473835
  0
ARC
  5
14BD
330
1257
100
AcDbEntity
  8
0
100
AcDbCircle
 10
62.53402052064379
 20
55.04960414799938
 30
0.0
 40
94.27560975609768
100
AcDbArc
 50
7.435373152616407
 51
15.80734103966929
  0
ARC
  5
14BE
330
1257
100
AcDbEntity
  8
0
100
AcDbCircle
 10
150.838961187084
 20
80.04960414799938
 30
0.0
 40
2.5
100
AcDbArc
 50
15.80734103966925
 51
90.0
  0
ARC
  5
14BF
330
1257
100
AcDbEntity
  8
0
100
AcDbCircle
 10
141.9875789263895
 20
80.04960414799938
 30
0.0
 40
2.5
100
AcDbArc
 50
90.0
 51
164.1926589603305
  0
ARC
  5
14C0
330
1257
100
AcDbEntity
  8
0
100
AcDbCircle
 10
141.9875789263895
 20
30.04960414799938
 30
0.0
 40
2.5
100
AcDbArc
 50
195.8073410396693
 51
270.0
  0
ARC
  5
14C1
330
1257
100
AcDbEntity
  8
0
100
AcDbCircle
 10
150.838961187084
 20
30.04960414799938
 30
0.0
 40
2.5
100
AcDbArc
 50
270.0
 51
344.1926589603308
  0
LINE
  5
14C3
330
1257
100
AcDbEntity
  8
0
100
AcDbLine
 10
138.8627144279412
 20
78.03832578263032
 30
0.0
 11
138.8627144279412
 21
32.06088251336848
 31
0.0
  0
LINE
  5
14C4
330
1257
100
AcDbEntity
  8
0
100
AcDbLine
 10
141.9875789263978
 20
81.94623401098345
 30
0.0
 11
150.8389611870788
 21
81.94623401098345
 31
0.0
  0
LINE
  5
14C5
330
1257
100
AcDbEntity
  8
0
100
AcDbLine
 10
141.9875789263895
 20
78.11939968733253
 30
0.0
 11
150.838961187084
 21
78.11939968733253
 31
0.0
  0
LINE
  5
14C6
330
1257
100
AcDbEntity
  8
0
100
AcDbLine
 10
141.9875789263895
 20
70.01738734302747
 30
0.0
 11
150.8389611870841
 21
70.01738734302747
 31
0.0
  0
LINE
  5
14C7
330
1257
100
AcDbEntity
  8
0
100
AcDbLine
 10
141.9875789263895
 20
60.77859201791454
 30
0.0
 11
150.838961187084
 21
60.77859201791454
 31
0.0
  0
ARC
  5
14CB
330
1257
100
AcDbEntity
  8
0
100
AcDbCircle
 10
145.2203540162775
 20
65.39798968047103
 30
0.0
 40
5.638232838987116
100
AcDbArc
 50
124.9853329086788
 51
235.0146670913213
  0
ARC
  5
14CD
330
1257
100
AcDbEntity
  8
0
100
AcDbCircle
 10
147.606186097196
 20
65.39798968047103
 30
0.0
 40
5.638232838987116
100
AcDbArc
 50
304.9853329086786
 51
55.01466709132113
  0
ARC
  5
14D0
330
1257
100
AcDbEntity
  8
0
100
AcDbCircle
 10
141.4233969201853
 20
79.46444515957731
 30
0.0
 40
1.458577614846336
100
AcDbArc
 50
206.7062037200356
 51
292.755710272531
  0
ARC
  5
14D1
330
1257
100
AcDbEntity
  8
0
100
AcDbCircle
 10
141.9884241045193
 20
79.82146167643627
 30
0.0
 40
2.124772502641895
100
AcDbArc
 50
90.02279074159266
 51
208.4592111188489
  0
ARC
  5
14D2
330
1257
100
AcDbEntity
  8
0
100
AcDbCircle
 10
151.4031431932882
 20
79.46444515957731
 30
0.0
 40
1.458577614846336
100
AcDbArc
 50
247.2442897274689
 51
333.2937962799643
  0
ARC
  5
14D3
330
1257
100
AcDbEntity
  8
0
100
AcDbCircle
 10
150.8381160089542
 20
79.82146167643627
 30
0.0
 40
2.124772502641895
100
AcDbArc
 50
331.540788881151
 51
89.97720925840734
  0
ARC
  5
14D4
330
1257
100
AcDbEntity
  8
0
100
AcDbCircle
 10
141.9884241045193
 20
30.2777466195625
 30
0.0
 40
2.124772502641895
100
AcDbArc
 50
151.540788881151
 51
269.9772092584073
  0
LINE
  5
14D5
330
1257
100
AcDbEntity
  8
0
100
AcDbLine
 10
141.9875789263978
 20
28.15297428501533
 30
0.0
 11
150.8389611870788
 21
28.15297428501533
 31
0.0
  0
ARC
  5
14D6
330
1257
100
AcDbEntity
  8
0
100
AcDbCircle
 10
150.8381160089542
 20
30.2777466195625
 30
0.0
 40
2.124772502641895
100
AcDbArc
 50
270.0227907415926
 51
28.45921111884896
  0
LINE
  5
14D7
330
1257
100
AcDbEntity
  8
0
100
AcDbLine
 10
141.9875789263895
 20
31.97980860866624
 30
0.0
 11
150.838961187084
 21
31.97980860866624
 31
0.0
  0
LINE
  5
14D8
330
1257
100
AcDbEntity
  8
0
100
AcDbLine
 10
141.9875789263895
 20
40.08182095297129
 30
0.0
 11
150.8389611870841
 21
40.08182095297131
 31
0.0
  0
LINE
  5
14D9
330
1257
100
AcDbEntity
  8
0
100
AcDbLine
 10
141.9875789263895
 20
49.32061627808423
 30
0.0
 11
150.838961187084
 21
49.32061627808423
 31
0.0
  0
ARC
  5
14DA
330
1257
100
AcDbEntity
  8
0
100
AcDbCircle
 10
145.2203540162775
 20
44.70121861552775
 30
0.0
 40
5.638232838987116
100
AcDbArc
 50
124.9853329086786
 51
235.0146670913211
  0
ARC
  5
14DB
330
1257
100
AcDbEntity
  8
0
100
AcDbCircle
 10
141.4233969201853
 20
30.63476313642147
 30
0.0
 40
1.458577614846336
100
AcDbArc
 50
67.24428972746892
 51
153.2937962799644
  0
ARC
  5
14DC
330
1257
100
AcDbEntity
  8
0
100
AcDbCircle
 10
147.606186097196
 20
44.70121861552775
 30
0.0
 40
5.638232838987116
100
AcDbArc
 50
304.9853329086788
 51
55.01466709132137
  0
ARC
  5
14DD
330
1257
100
AcDbEntity
  8
0
100
AcDbCircle
 10
151.4031431932882
 20
30.63476313642147
 30
0.0
 40
1.458577614846336
100
AcDbArc
 50
26.70620372003559
 51
112.7557102725311
  0
TEXT
  5
14DE
330
1257
100
AcDbEntity
  8
0
100
AcDbText
 10
100.3673500153887
 20
24.38373711942157
 30
0.0
 40
7.0
  1
FCK55-10
 41
0.8
100
AcDbText
  0
VIEWPORT
  5
22
330
1254
100
AcDbEntity
 67
     1
  8
0
100
AcDbViewport
 10
261.517699
 20
148.5
 30
0.0
 40
523.0353980000001
 41
297.0
 68
    -1
 69
     1
 12
261.517699
 22
148.5
 13
0.0
 23
0.0
 14
1.0
 24
1.0
 15
10.0
 25
10.0
 16
0.0
 26
0.0
 36
1.0
 17
0.0
 27
0.0
 37
0.0
 42
50.0
 43
0.0
 44
0.0
 45
297.0
 50
0.0
 51
0.0
 72
   100
 90
    32800
  1

281
     0
 71
     1
 74
     0
110
0.0
120
0.0
130
0.0
111
1.0
121
0.0
131
0.0
112
0.0
122
1.0
132
0.0
 79
     0
146
0.0
  0
ENDSEC
  0
SECTION
  2
OBJECTS
  0
DICTIONARY
  5
124C
330
0
100
AcDbDictionary
281
     1
  3
ACAD_GROUP
350
124D
  3
ACAD_LAYOUT
350
127E
  3
ACAD_MLINESTYLE
350
125A
  3
ACAD_PLOTSETTINGS
350
127F
  3
ACAD_PLOTSTYLENAME
350
127C
  3
ACDBVARIABLEDICTIONARY
350
1270
  3
AcmDictionary
350
133D
  3
AMG
350
1283
  3
AMGSNAPSETTINGS
350
1364
  3
DWGPROPS
350
1403
  3
MAPISURF_MODULE
350
1310
  0
DICTIONARY
  5
135A
330
1257
100
AcDbDictionary
280
     1
281
     1
  3
ACAD_INDEX
360
135B
  0
DICTIONARY
  5
124D
102
{ACAD_REACTORS
330
124C
102
}
330
124C
100
AcDbDictionary
281
     1
  0
DICTIONARY
  5
127E
102
{ACAD_REACTORS
330
124C
102
}
330
124C
100
AcDbDictionary
281
     1
  3
Model
350
1280
  3
ﾚｲｱｳﾄ1
350
1281
  0
DICTIONARY
  5
125A
102
{ACAD_REACTORS
330
124C
102
}
330
124C
100
AcDbDictionary
281
     1
  3
STANDARD
350
125B
  0
DICTIONARY
  5
127F
102
{ACAD_REACTORS
330
124C
102
}
330
124C
100
AcDbDictionary
281
     1
  0
ACDBDICTIONARYWDFLT
  5
127C
102
{ACAD_REACTORS
330
124C
102
}
330
124C
100
AcDbDictionary
281
     1
  3
Normal
350
127D
100
AcDbDictionaryWithDefault
340
127D
  0
DICTIONARY
  5
1270
102
{ACAD_REACTORS
330
124C
102
}
330
124C
100
AcDbDictionary
281
     1
  3
DIMADEC
350
1271
  3
DIMASSOC
350
1363
  3
INDEXCTL
350
1362
  0
DICTIONARY
  5
133D
102
{ACAD_REACTORS
330
124C
102
}
330
124C
100
AcDbDictionary
281
     1
  3
AcmBOMDATA
350
133E
  0
DICTIONARY
  5
1283
102
{ACAD_REACTORS
330
124C
102
}
330
124C
100
AcDbDictionary
281
     1
  3
AcMgSettings
350
1284
  3
AMGLAYCFG
350
134A
  0
DICTIONARY
  5
1364
102
{ACAD_REACTORS
330
124C
102
}
330
124C
100
AcDbDictionary
281
     1
  3
DIMENSION
350
1369
  3
FEA
350
1368
  3
HATCH (1)
350
1365
  3
HATCH (2)
350
1366
  3
SIMPLE WELD
350
136A
  3
SYMBOLS
350
1367
  0
XRECORD
  5
1403
102
{ACAD_REACTORS
330
124C
102
}
330
124C
100
AcDbXrecord
280
     1
  1
DWGPROPS COOKIE
  2

  3

  4

  6

  7

  8

  9

300
AmdtFileType=84
301
=
302
=
303
=
304
=
305
=
306
=
307
=
308
=
309
=
 40
0.0185886805555556
 41
2450687.671712963
 42
2454130.726933044
  1

 90
        1
  0
DICTIONARY
  5
135B
102
{ACAD_REACTORS
330
135A
102
}
330
135A
100
AcDbDictionary
281
     1
  3
*A1
350
135C
  0
LAYOUT
  5
1280
102
{ACAD_REACTORS
330
127E
102
}
330
127E
100
AcDbPlotSettings
  1

  2
EPSON PM-3700C
  4

  6

 40
0.0
 41
0.0
 42
0.0
 43
0.0
 44
0.0
 45
0.0
 46
0.0
 47
0.0
 48
0.0
 49
0.0
140
0.0
141
0.0
142
1.0
143
1.0
 70
  1712
 72
     0
 73
     0
 74
     0
  7

 75
     0
147
1.0
148
0.0
149
0.0
100
AcDbLayout
  1
Model
 70
     1
 71
     0
 10
0.0
 20
0.0
 11
12.0
 21
9.0
 12
0.0
 22
0.0
 32
0.0
 14
0.0
 24
0.0
 34
0.0
 15
0.0
 25
0.0
 35
0.0
146
0.0
 13
0.0
 23
0.0
 33
0.0
 16
1.0
 26
0.0
 36
0.0
 17
0.0
 27
1.0
 37
0.0
 76
     0
330
1257
  0
LAYOUT
  5
1281
102
{ACAD_REACTORS
330
127E
102
}
330
127E
100
AcDbPlotSettings
  1

  2
EPSON PM-3700C
  4

  6

 40
0.0
 41
0.0
 42
0.0
 43
0.0
 44
0.0
 45
0.0
 46
0.0
 47
0.0
 48
0.0
 49
0.0
140
0.0
141
0.0
142
1.0
143
1.0
 70
   688
 72
     0
 73
     0
 74
     5
  7

 75
    16
147
1.0
148
0.0
149
0.0
100
AcDbLayout
  1
ﾚｲｱｳﾄ1
 70
     1
 71
     1
 10
0.0
 20
0.0
 11
420.0
 21
297.0
 12
0.0
 22
0.0
 32
0.0
 14
1.000000000000000E+20
 24
1.000000000000000E+20
 34
1.000000000000000E+20
 15
-1.000000000000000E+20
 25
-1.000000000000000E+20
 35
-1.000000000000000E+20
146
0.0
 13
0.0
 23
0.0
 33
0.0
 16
1.0
 26
0.0
 36
0.0
 17
0.0
 27
1.0
 37
0.0
 76
     0
330
1254
  0
MLINESTYLE
  5
125B
102
{ACAD_REACTORS
330
125A
102
}
330
125A
100
AcDbMlineStyle
  2
STANDARD
 70
     0
  3

 62
   256
 51
90.0
 52
90.0
 71
     2
 49
0.5
 62
   256
  6
BYLAYER
 49
-0.5
 62
   256
  6
BYLAYER
  0
ACDBPLACEHOLDER
  5
127D
102
{ACAD_REACTORS
330
127C
102
}
330
127C
  0
DICTIONARYVAR
  5
1271
102
{ACAD_REACTORS
330
1270
102
}
330
1270
100
DictionaryVariables
280
     0
  1
0
  0
DICTIONARYVAR
  5
1363
102
{ACAD_REACTORS
330
1270
102
}
330
1270
100
DictionaryVariables
280
     0
  1
1
  0
DICTIONARYVAR
  5
1362
102
{ACAD_REACTORS
330
1270
102
}
330
1270
100
DictionaryVariables
280
     0
  1
1
  0
ACMDATADICTIONARY
  5
133E
102
{ACAD_REACTORS
330
133D
102
}
330
133D
100
AcDbDictionary
281
     1
  3
*A1
350
133F
100
AcmDataDictionary
  0
DICTIONARY
  5
1284
102
{ACAD_REACTORS
330
1283
102
}
330
1283
100
AcDbDictionary
281
     1
  3
DWGSETTINGS
350
1285
  0
ACAMGFILTERDAT
  5
1369
102
{ACAD_REACTORS
330
1364
102
}
330
1364
100
AcAmgFilterDat
 70
    15
  1
DIMENSION,AMDT_*_DIM
  2
*
  3
*
  4
*
  5
*
290
     1
  0
ACAMGFILTERDAT
  5
1368
102
{ACAD_REACTORS
330
1364
102
}
330
1364
100
AcAmgFilterDat
 70
    15
  1
*
  2
AM_FEA-AM_*
  3
*
  4
*
  5
*
290
     1
  0
ACAMGFILTERDAT
  5
1365
102
{ACAD_REACTORS
330
1364
102
}
330
1364
100
AcAmgFilterDat
 70
    15
  1
HATCH
  2
*
  3
*
  4
*
  5
*
290
     1
  0
ACAMGFILTERDAT
  5
1366
102
{ACAD_REACTORS
330
1364
102
}
330
1364
100
AcAmgFilterDat
 70
    15
  1
LINE
  2
8,8N,*-8,*-8N,AM_8,AM_8N,*-AM_8,*-AM_8N
  3
*
  4
*
  5
INSERT,STDPART2D
290
     1
  0
ACAMGFILTERDAT
  5
136A
102
{ACAD_REACTORS
330
1364
102
}
330
1364
100
AcAmgFilterDat
 70
    15
  1
ARC
  2
AM_5
  3
*
  4
2
  5
INSERT
290
     0
  0
ACAMGFILTERDAT
  5
1367
102
{ACAD_REACTORS
330
1364
102
}
330
1364
100
AcAmgFilterDat
 70
    15
  1
ACMFCFRAME,ACMDATUMTARGET,ACMDATUMID,ACMWELDSYM,ACMSURFSYM,ACMFEATID,ACMPARTREF,ACMBALLOON,AMDTEDGESYM,AMGSCREWCALCTABLE
  2
*
  3
*
  4
*
  5
*
290
     1
  0
LAYER_INDEX
  5
135C
102
{ACAD_REACTORS
330
135B
102
}
330
135B
100
AcDbIndex
 40
2454130.752905625
100
AcDbLayerIndex
  8
0
360
135D
 90
       74
  8
2
360
135E
 90
        0
  8
1
360
135F
 90
        3
  8
3
360
1360
 90
        0
  0
ACMDATAENTRYBLOCK
  5
133F
102
{ACAD_REACTORS
330
133E
102
}
330
133E
100
AcmDataEntry
100
AcmDataEntryBlock
  0
IDBUFFER
  5
135D
330
0
100
AcDbIdBuffer
330
14D6
330
14D7
330
14D8
330
14D9
330
14DA
330
14DB
330
14DC
330
14DD
330
14DE
330
1475
330
147B
330
147C
330
147D
330
147E
330
147F
330
1480
330
1481
330
1482
330
1483
330
1484
330
1485
330
1486
330
1487
330
1488
330
1489
330
148A
330
148D
330
148F
330
1490
330
1492
330
1493
330
1494
330
1495
330
1496
330
1497
330
1498
330
149F
330
14A0
330
14A1
330
14A2
330
14A8
330
14AA
330
14AB
330
14AC
330
14AD
330
14AE
330
14AF
330
14B0
330
14B1
330
14B2
330
14B3
330
14B4
330
14B5
330
14B6
330
14BA
330
14BB
330
14BD
330
14BE
330
14BF
330
14C0
330
14C1
330
14C3
330
14C4
330
14C5
330
14C6
330
14C7
330
14D5
330
14D4
330
14D3
330
14CB
330
14D2
330
14CD
330
14D0
330
14D1
  0
IDBUFFER
  5
135E
330
0
100
AcDbIdBuffer
  0
IDBUFFER
  5
135F
330
0
100
AcDbIdBuffer
330
1473
330
1474
330
148B
  0
IDBUFFER
  5
1360
330
0
100
AcDbIdBuffer
  0
ENDSEC
  0
EOF
