  0
SECTION
  2
HEADER
  9
$ACADVER
  1
AC1014
  9
$ACADMAINTVER
 70
     0
  9
$DWGCODEPAGE
  3
ANSI_932
  9
$INSBASE
 10
0.0
 20
0.0
 30
0.0
  9
$EXTMIN
 10
-14.041484
 20
-15.2
 30
0.0
  9
$EXTMAX
 10
38.658516
 20
95.118397
 30
0.0
  9
$LIMMIN
 10
-13.6
 20
-15.2
  9
$LIMMAX
 10
37.85
 20
41.5
  9
$ORTHOMODE
 70
     0
  9
$REGENMODE
 70
     1
  9
$FILLMODE
 70
     1
  9
$QTEXTMODE
 70
     0
  9
$MIRRTEXT
 70
     1
  9
$DRAGMODE
 70
     2
  9
$LTSCALE
 40
1.0
  9
$OSMODE
 70
     0
  9
$ATTMODE
 70
     1
  9
$TEXTSIZE
 40
3.5
  9
$TRACEWID
 40
0.5
  9
$TEXTSTYLE
  7
STANDARD
  9
$CLAYER
  8
0
  9
$CELTYPE
  6
BYLAYER
  9
$CECOLOR
 62
   256
  9
$CELTSCALE
 40
1.0
  9
$DELOBJ
 70
     1
  9
$DISPSILH
 70
     0
  9
$DIMSCALE
 40
1.0
  9
$DIMASZ
 40
0.18
  9
$DIMEXO
 40
0.0625
  9
$DIMDLI
 40
0.38
  9
$DIMRND
 40
0.0
  9
$DIMDLE
 40
0.0
  9
$DIMEXE
 40
0.18
  9
$DIMTP
 40
0.0
  9
$DIMTM
 40
0.0
  9
$DIMTXT
 40
0.18
  9
$DIMCEN
 40
0.09
  9
$DIMTSZ
 40
0.0
  9
$DIMTOL
 70
     0
  9
$DIMLIM
 70
     0
  9
$DIMTIH
 70
     1
  9
$DIMTOH
 70
     1
  9
$DIMSE1
 70
     0
  9
$DIMSE2
 70
     0
  9
$DIMTAD
 70
     0
  9
$DIMZIN
 70
     0
  9
$DIMBLK
  1

  9
$DIMASO
 70
     1
  9
$DIMSHO
 70
     1
  9
$DIMPOST
  1

  9
$DIMAPOST
  1

  9
$DIMALT
 70
     0
  9
$DIMALTD
 70
     2
  9
$DIMALTF
 40
25.4
  9
$DIMLFAC
 40
1.0
  9
$DIMTOFL
 70
     0
  9
$DIMTVP
 40
0.0
  9
$DIMTIX
 70
     0
  9
$DIMSOXD
 70
     0
  9
$DIMSAH
 70
     0
  9
$DIMBLK1
  1

  9
$DIMBLK2
  1

  9
$DIMSTYLE
  2
STANDARD
  9
$DIMCLRD
 70
     0
  9
$DIMCLRE
 70
     0
  9
$DIMCLRT
 70
     0
  9
$DIMTFAC
 40
1.0
  9
$DIMGAP
 40
0.09
  9
$DIMJUST
 70
     0
  9
$DIMSD1
 70
     0
  9
$DIMSD2
 70
     0
  9
$DIMTOLJ
 70
     1
  9
$DIMTZIN
 70
     0
  9
$DIMALTZ
 70
     0
  9
$DIMALTTZ
 70
     0
  9
$DIMFIT
 70
     3
  9
$DIMUPT
 70
     0
  9
$DIMUNIT
 70
     2
  9
$DIMDEC
 70
     4
  9
$DIMTDEC
 70
     4
  9
$DIMALTU
 70
     2
  9
$DIMALTTD
 70
     2
  9
$DIMTXSTY
  7
STANDARD
  9
$DIMAUNIT
 70
     0
  9
$LUNITS
 70
     2
  9
$LUPREC
 70
     4
  9
$SKETCHINC
 40
0.1
  9
$FILLETRAD
 40
2.0
  9
$AUNITS
 70
     0
  9
$AUPREC
 70
     0
  9
$MENU
  1
ACAD
  9
$ELEVATION
 40
0.0
  9
$PELEVATION
 40
0.0
  9
$THICKNESS
 40
0.0
  9
$LIMCHECK
 70
     0
  9
$BLIPMODE
 70
     1
  9
$CHAMFERA
 40
0.0
  9
$CHAMFERB
 40
0.0
  9
$CHAMFERC
 40
0.0
  9
$CHAMFERD
 40
0.0
  9
$SKPOLY
 70
     0
  9
$TDCREATE
 40
0.0000000000
  9
$TDUPDATE
 40
2453553.676582928
  9
$TDINDWG
 40
0.0009903009
  9
$TDUSRTIMER
 40
0.0009903009
  9
$USRTIMER
 70
     1
  9
$ANGBASE
 50
0.0
  9
$ANGDIR
 70
     0
  9
$PDMODE
 70
     0
  9
$PDSIZE
 40
0.0
  9
$PLINEWID
 40
0.0
  9
$COORDS
 70
     2
  9
$SPLFRAME
 70
     0
  9
$SPLINETYPE
 70
     6
  9
$SPLINESEGS
 70
     8
  9
$ATTDIA
 70
     0
  9
$ATTREQ
 70
     1
  9
$HANDLING
 70
     1
  9
$HANDSEED
  5
B5
  9
$SURFTAB1
 70
     6
  9
$SURFTAB2
 70
     6
  9
$SURFTYPE
 70
     6
  9
$SURFU
 70
     6
  9
$SURFV
 70
     6
  9
$UCSNAME
  2

  9
$UCSORG
 10
0.0
 20
0.0
 30
0.0
  9
$UCSXDIR
 10
1.0
 20
0.0
 30
0.0
  9
$UCSYDIR
 10
0.0
 20
1.0
 30
0.0
  9
$PUCSNAME
  2

  9
$PUCSORG
 10
0.0
 20
0.0
 30
0.0
  9
$PUCSXDIR
 10
1.0
 20
0.0
 30
0.0
  9
$PUCSYDIR
 10
0.0
 20
1.0
 30
0.0
  9
$USERI1
 70
     0
  9
$USERI2
 70
     0
  9
$USERI3
 70
     0
  9
$USERI4
 70
     0
  9
$USERI5
 70
     0
  9
$USERR1
 40
0.0
  9
$USERR2
 40
0.0
  9
$USERR3
 40
0.0
  9
$USERR4
 40
0.0
  9
$USERR5
 40
0.0
  9
$WORLDVIEW
 70
     1
  9
$SHADEDGE
 70
     3
  9
$SHADEDIF
 70
    70
  9
$TILEMODE
 70
     1
  9
$MAXACTVP
 70
    48
  9
$PINSBASE
 10
0.0
 20
0.0
 30
0.0
  9
$PLIMCHECK
 70
     0
  9
$PEXTMIN
 10
1.000000E+20
 20
1.000000E+20
 30
1.000000E+20
  9
$PEXTMAX
 10
-1.000000E+20
 20
-1.000000E+20
 30
-1.000000E+20
  9
$PLIMMIN
 10
0.0
 20
0.0
  9
$PLIMMAX
 10
12.0
 20
9.0
  9
$UNITMODE
 70
     0
  9
$VISRETAIN
 70
     1
  9
$PLINEGEN
 70
     0
  9
$PSLTSCALE
 70
     1
  9
$TREEDEPTH
 70
  3020
  9
$PICKSTYLE
 70
     1
  9
$CMLSTYLE
  2
STANDARD
  9
$CMLJUST
 70
     0
  9
$CMLSCALE
 40
1.0
  9
$PROXYGRAPHICS
 70
     1
  9
$MEASUREMENT
 70
     0
  0
ENDSEC
  0
SECTION
  2
CLASSES
  0
ENDSEC
  0
SECTION
  2
TABLES
  0
TABLE
  2
VPORT
  5
8
100
AcDbSymbolTable
 70
     2
  0
VPORT
  5
B4
100
AcDbSymbolTableRecord
100
AcDbViewportTableRecord
  2
*ACTIVE
 70
     0
 10
0.0
 20
0.0
 11
1.0
 21
1.0
 12
12.408128
 22
34.667715
 13
0.0
 23
0.0
 14
1.0
 24
1.0
 15
0.0
 25
0.0
 16
0.0
 26
0.0
 36
1.0
 17
0.0
 27
0.0
 37
0.0
 40
114.242079
 41
1.434944
 42
50.0
 43
0.0
 44
0.0
 50
0.0
 51
0.0
 71
     0
 72
   100
 73
     1
 74
     1
 75
     0
 76
     0
 77
     0
 78
     0
  0
ENDTAB
  0
TABLE
  2
LTYPE
  5
5
100
AcDbSymbolTable
 70
     9
  0
LTYPE
  5
12
100
AcDbSymbolTableRecord
100
AcDbLinetypeTableRecord
  2
BYBLOCK
 70
     0
  3

 72
    65
 73
     0
 40
0.0
  0
LTYPE
  5
13
100
AcDbSymbolTableRecord
100
AcDbLinetypeTableRecord
  2
BYLAYER
 70
     0
  3

 72
    65
 73
     0
 40
0.0
  0
LTYPE
  5
14
100
AcDbSymbolTableRecord
100
AcDbLinetypeTableRecord
  2
CONTINUOUS
 70
     0
  3
Solid line
 72
    65
 73
     0
 40
0.0
  0
LTYPE
  5
1F
100
AcDbSymbolTableRecord
100
AcDbLinetypeTableRecord
  2
BORDER
 70
     0
  3
__ __ . __ __ .
 72
    65
 73
     6
 40
2.611184
 49
0.746053
 74
     0
 49
-0.373026
 74
     0
 49
0.746053
 74
     0
 49
-0.373026
 74
     0
 49
0.0
 74
     0
 49
-0.373026
 74
     0
  0
LTYPE
  5
20
100
AcDbSymbolTableRecord
100
AcDbLinetypeTableRecord
  2
CENTER
 70
     0
  3
____ _ ____ _
 72
    65
 73
     4
 40
2.984211
 49
1.865132
 74
     0
 49
-0.373026
 74
     0
 49
0.373026
 74
     0
 49
-0.373026
 74
     0
  0
LTYPE
  5
21
100
AcDbSymbolTableRecord
100
AcDbLinetypeTableRecord
  2
DASHDOT
 70
     0
  3
__ . __ . __ .
 72
    65
 73
     4
 40
1.492105
 49
0.746053
 74
     0
 49
-0.373026
 74
     0
 49
0.0
 74
     0
 49
-0.373026
 74
     0
  0
LTYPE
  5
22
100
AcDbSymbolTableRecord
100
AcDbLinetypeTableRecord
  2
DASHED
 70
     0
  3
__ __ __ __ __
 72
    65
 73
     2
 40
1.119079
 49
0.746053
 74
     0
 49
-0.373026
 74
     0
  0
LTYPE
  5
23
100
AcDbSymbolTableRecord
100
AcDbLinetypeTableRecord
  2
DIVIDE
 70
     0
  3
__ . . __ . . 
 72
    65
 73
     6
 40
1.865132
 49
0.746053
 74
     0
 49
-0.373026
 74
     0
 49
0.0
 74
     0
 49
-0.373026
 74
     0
 49
0.0
 74
     0
 49
-0.373026
 74
     0
  0
LTYPE
  5
24
100
AcDbSymbolTableRecord
100
AcDbLinetypeTableRecord
  2
DOT
 70
     0
  3
..............
 72
    65
 73
     4
 40
0.746053
 49
0.0
 74
     0
 49
-0.373026
 74
     0
 49
0.0
 74
     0
 49
-0.373026
 74
     0
  0
LTYPE
  5
25
100
AcDbSymbolTableRecord
100
AcDbLinetypeTableRecord
  2
HIDDEN
 70
     0
  3
_ _ _ _ _ _ _
 72
    65
 73
     2
 40
0.559539
 49
0.373026
 74
     0
 49
-0.186513
 74
     0
  0
LTYPE
  5
26
100
AcDbSymbolTableRecord
100
AcDbLinetypeTableRecord
  2
PHANTOM
 70
     0
  3
_____ _ _ _____ _ _ 
 72
    65
 73
     6
 40
3.730263
 49
1.865132
 74
     0
 49
-0.373026
 74
     0
 49
0.373026
 74
     0
 49
-0.373026
 74
     0
 49
0.373026
 74
     0
 49
-0.373026
 74
     0
  0
ENDTAB
  0
TABLE
  2
LAYER
  5
2
100
AcDbSymbolTable
 70
     4
  0
LAYER
  5
E
100
AcDbSymbolTableRecord
100
AcDbLayerTableRecord
  2
0
 70
     0
 62
     7
  6
CONTINUOUS
  0
LAYER
  5
27
100
AcDbSymbolTableRecord
100
AcDbLayerTableRecord
  2
HALDER_NORMTEILE
 70
     0
 62
     7
  6
CONTINUOUS
  0
LAYER
  5
28
100
AcDbSymbolTableRecord
100
AcDbLayerTableRecord
  2
HALDER_NORMTEILE_MITTELLINIE
 70
     0
 62
     7
  6
CONTINUOUS
  0
LAYER
  5
29
100
AcDbSymbolTableRecord
100
AcDbLayerTableRecord
  2
HALDER_INFO
 70
     0
 62
     7
  6
CONTINUOUS
  0
ENDTAB
  0
TABLE
  2
STYLE
  5
3
100
AcDbSymbolTable
 70
     4
  0
STYLE
  5
F
100
AcDbSymbolTableRecord
100
AcDbTextStyleTableRecord
  2
STANDARD
 70
     0
 40
0.0
 41
1.0
 50
0.0
 71
     0
 42
3.5
  3
txt
  4

  0
STYLE
  5
2A
100
AcDbSymbolTableRecord
100
AcDbTextStyleTableRecord
  2
SIMPLEX
 70
     0
 40
0.0
 41
1.0
 50
0.0
 71
     0
 42
3.5
  3
simplex
  4

  0
STYLE
  5
2B
100
AcDbSymbolTableRecord
100
AcDbTextStyleTableRecord
  2
COMPLEX
 70
     0
 40
0.0
 41
1.0
 50
0.0
 71
     0
 42
3.5
  3
complex
  4

  0
STYLE
  5
2C
100
AcDbSymbolTableRecord
100
AcDbTextStyleTableRecord
  2
ITALIC
 70
     0
 40
0.0
 41
1.0
 50
0.0
 71
     0
 42
3.5
  3
italic
  4

  0
ENDTAB
  0
TABLE
  2
VIEW
  5
6
100
AcDbSymbolTable
 70
     0
  0
ENDTAB
  0
TABLE
  2
UCS
  5
7
100
AcDbSymbolTable
 70
     0
  0
ENDTAB
  0
TABLE
  2
APPID
  5
9
100
AcDbSymbolTable
 70
     1
  0
APPID
  5
10
100
AcDbSymbolTableRecord
100
AcDbRegAppTableRecord
  2
ACAD
 70
     0
  0
ENDTAB
  0
TABLE
  2
DIMSTYLE
  5
A
100
AcDbSymbolTable
 70
     1
  0
DIMSTYLE
105
6A
100
AcDbSymbolTableRecord
100
AcDbDimStyleTableRecord
  2
STANDARD
 70
     0
  3

  4

  5

  6

  7

 40
1.0
 41
0.18
 42
0.0625
 43
0.38
 44
0.18
 45
0.0
 46
0.0
 47
0.0
 48
0.0
140
0.18
141
0.09
142
0.0
143
25.4
144
1.0
145
0.0
146
1.0
147
0.09
 71
     0
 72
     0
 73
     1
 74
     1
 75
     0
 76
     0
 77
     0
 78
     0
170
     0
171
     2
172
     0
173
     0
174
     0
175
     0
176
     0
177
     0
178
     0
270
     2
271
     4
272
     4
273
     2
274
     2
340
F
275
     0
280
     0
281
     0
282
     0
283
     1
284
     0
285
     0
286
     0
287
     3
288
     0
  0
ENDTAB
  0
TABLE
  2
BLOCK_RECORD
  5
1
100
AcDbSymbolTable
 70
     3
  0
BLOCK_RECORD
  5
18
100
AcDbSymbolTableRecord
100
AcDbBlockTableRecord
  2
*MODEL_SPACE
  0
BLOCK_RECORD
  5
15
100
AcDbSymbolTableRecord
100
AcDbBlockTableRecord
  2
*PAPER_SPACE
  0
BLOCK_RECORD
  5
30
100
AcDbSymbolTableRecord
100
AcDbBlockTableRecord
  2
HALDER-ET_2236030_A
  0
BLOCK_RECORD
  5
6B
100
AcDbSymbolTableRecord
100
AcDbBlockTableRecord
  2
A$C4D7756F8
  0
BLOCK_RECORD
  5
8F
100
AcDbSymbolTableRecord
100
AcDbBlockTableRecord
  2
A$C49277C34
  0
ENDTAB
  0
ENDSEC
  0
SECTION
  2
BLOCKS
  0
BLOCK
  5
19
100
AcDbEntity
  8
0
100
AcDbBlockBegin
  2
*MODEL_SPACE
 70
     0
 10
0.0
 20
0.0
 30
0.0
  3
*MODEL_SPACE
  1

  0
ENDBLK
  5
1A
100
AcDbEntity
  8
0
100
AcDbBlockEnd
  0
BLOCK
  5
16
100
AcDbEntity
 67
     1
  8
0
100
AcDbBlockBegin
  2
*PAPER_SPACE
 70
     0
 10
0.0
 20
0.0
 30
0.0
  3
*PAPER_SPACE
  1

  0
ENDBLK
  5
17
100
AcDbEntity
 67
     1
  8
0
100
AcDbBlockEnd
  0
BLOCK
  5
31
100
AcDbEntity
  8
0
100
AcDbBlockBegin
  2
HALDER-ET_2236030_A
 70
     0
 10
-5.0
 20
-15.2
 30
0.0
  3
HALDER-ET_2236030_A
  1

  0
LINE
  5
32
100
AcDbEntity
  8
HALDER_NORMTEILE
  6
DASHDOT
 62
     2
100
AcDbLine
 10
0.0
 20
-15.2
 30
0.0
 11
0.0
 21
0.0
 31
0.0
  0
LINE
  5
33
100
AcDbEntity
  8
HALDER_NORMTEILE
 62
     7
100
AcDbLine
 10
-5.0
 20
-11.2
 30
0.0
 11
5.0
 21
-11.2
 31
0.0
  0
LINE
  5
34
100
AcDbEntity
  8
HALDER_NORMTEILE
 62
     7
100
AcDbLine
 10
5.0
 20
-11.2
 30
0.0
 11
5.0
 21
0.0
 31
0.0
  0
LINE
  5
35
100
AcDbEntity
  8
HALDER_NORMTEILE
 62
     7
100
AcDbLine
 10
4.090074
 20
-13.7
 30
0.0
 11
5.0
 21
-11.2
 31
0.0
  0
LINE
  5
36
100
AcDbEntity
  8
HALDER_NORMTEILE
 62
     7
100
AcDbLine
 10
-4.090074
 20
-13.7
 30
0.0
 11
4.090074
 21
-13.7
 31
0.0
  0
LINE
  5
37
100
AcDbEntity
  8
HALDER_NORMTEILE
 62
     7
100
AcDbLine
 10
-5.0
 20
-11.2
 30
0.0
 11
-4.090074
 21
-13.7
 31
0.0
  0
LINE
  5
38
100
AcDbEntity
  8
HALDER_NORMTEILE
 62
     7
100
AcDbLine
 10
-5.0
 20
0.0
 30
0.0
 11
-5.0
 21
-11.2
 31
0.0
  0
CIRCLE
  5
39
100
AcDbEntity
  8
HALDER_NORMTEILE
 62
     7
100
AcDbCircle
 10
0.0
 20
-6.732051
 30
0.0
 40
1.732051
  0
ENDBLK
  5
3A
100
AcDbEntity
  8
0
100
AcDbBlockEnd
  0
BLOCK
  5
8D
100
AcDbEntity
  8
0
100
AcDbBlockBegin
  2
A$C4D7756F8
 70
     0
 10
0.0
 20
0.0
 30
0.0
  3
A$C4D7756F8
  1

  0
ARC
  5
6C
100
AcDbEntity
  8
HALDER_NORMTEILE
 62
     7
100
AcDbCircle
 10
22.629436
 20
34.9
 30
0.0
 40
7.5
100
AcDbArc
 50
197.0
 51
270.0
  0
ARC
  5
6D
100
AcDbEntity
  8
HALDER_NORMTEILE
 62
     7
100
AcDbCircle
 10
22.629436
 20
5.9
 30
0.0
 40
7.5
100
AcDbArc
 50
90.0
 51
163.0
  0
LINE
  5
6E
100
AcDbEntity
  8
HALDER_NORMTEILE_MITTELLINIE
  6
DASHDOT
 62
     2
100
AcDbLine
 10
0.0
 20
20.4
 30
0.0
 11
32.3
 21
20.4
 31
0.0
  0
CIRCLE
  5
6F
100
AcDbEntity
  8
HALDER_NORMTEILE
 62
     7
100
AcDbCircle
 10
11.9
 20
20.4
 30
0.0
 40
6.25
  0
CIRCLE
  5
70
100
AcDbEntity
  8
HALDER_NORMTEILE
  6
DASHED
 62
     3
100
AcDbCircle
 10
11.9
 20
20.4
 30
0.0
 40
4.0
  0
ARC
  5
71
100
AcDbEntity
  8
HALDER_NORMTEILE
 62
     7
100
AcDbCircle
 10
11.9
 20
20.4
 30
0.0
 40
10.5
100
AcDbArc
 50
160.663942
 51
199.336058
  0
LINE
  5
72
100
AcDbEntity
  8
HALDER_NORMTEILE_MITTELLINIE
  6
DASHDOT
 62
     2
100
AcDbLine
 10
11.9
 20
40.8
 30
0.0
 11
11.9
 21
0.0
 31
0.0
  0
ARC
  5
73
100
AcDbEntity
  8
HALDER_NORMTEILE
 62
     7
100
AcDbCircle
 10
11.9
 20
20.4
 30
0.0
 40
19.0
100
AcDbArc
 50
234.682302
 51
271.317698
  0
ARC
  5
74
100
AcDbEntity
  8
HALDER_NORMTEILE
 62
     2
100
AcDbCircle
 10
11.9
 20
20.4
 30
0.0
 40
15.0
100
AcDbArc
 50
225.181861
 51
280.818139
  0
LINE
  5
75
100
AcDbEntity
  8
HALDER_NORMTEILE
 62
     7
100
AcDbLine
 10
2.087616
 20
12.247263
 30
0.0
 11
0.348623
 21
6.559274
 31
0.0
  0
ARC
  5
76
100
AcDbEntity
  8
HALDER_NORMTEILE
 62
     7
100
AcDbCircle
 10
1.78308
 20
6.120717
 30
0.0
 40
1.5
100
AcDbArc
 50
163.0
 51
234.682302
  0
ARC
  5
77
100
AcDbEntity
  8
HALDER_NORMTEILE
 62
     7
100
AcDbCircle
 10
-5.08467
 20
14.440051
 30
0.0
 40
7.5
100
AcDbArc
 50
343.0
 51
19.336058
  0
LINE
  5
78
100
AcDbEntity
  8
HALDER_NORMTEILE
 62
     7
100
AcDbLine
 10
13.73689
 20
2.46607
 30
0.0
 11
15.45715
 21
8.092788
 31
0.0
  0
ARC
  5
79
100
AcDbEntity
  8
HALDER_NORMTEILE
 62
     7
100
AcDbCircle
 10
12.302433
 20
2.904628
 30
0.0
 40
1.5
100
AcDbArc
 50
271.317698
 51
343.0
  0
ARC
  5
7A
100
AcDbEntity
  8
HALDER_NORMTEILE
 62
     7
100
AcDbCircle
 10
11.9
 20
20.4
 30
0.0
 40
19.0
100
AcDbArc
 50
88.682302
 51
125.317698
  0
ARC
  5
7B
100
AcDbEntity
  8
HALDER_NORMTEILE
 62
     2
100
AcDbCircle
 10
11.9
 20
20.4
 30
0.0
 40
15.0
100
AcDbArc
 50
79.181861
 51
134.818139
  0
LINE
  5
7C
100
AcDbEntity
  8
HALDER_NORMTEILE
 62
     7
100
AcDbLine
 10
2.087616
 20
28.552737
 30
0.0
 11
0.348623
 21
34.240726
 31
0.0
  0
ARC
  5
7D
100
AcDbEntity
  8
HALDER_NORMTEILE
 62
     7
100
AcDbCircle
 10
-5.08467
 20
26.359949
 30
0.0
 40
7.5
100
AcDbArc
 50
340.663942
 51
17.0
  0
ARC
  5
7E
100
AcDbEntity
  8
HALDER_NORMTEILE
 62
     7
100
AcDbCircle
 10
1.78308
 20
34.679283
 30
0.0
 40
1.5
100
AcDbArc
 50
125.317698
 51
197.0
  0
LINE
  5
7F
100
AcDbEntity
  8
HALDER_NORMTEILE
 62
     7
100
AcDbLine
 10
13.73689
 20
38.33393
 30
0.0
 11
15.45715
 21
32.707212
 31
0.0
  0
ARC
  5
80
100
AcDbEntity
  8
HALDER_NORMTEILE
 62
     7
100
AcDbCircle
 10
12.302433
 20
37.895372
 30
0.0
 40
1.5
100
AcDbArc
 50
17.0
 51
88.682302
  0
CIRCLE
  5
81
100
AcDbEntity
  8
HALDER_NORMTEILE
 62
     7
100
AcDbCircle
 10
26.9
 20
20.4
 30
0.0
 40
1.75
  0
ARC
  5
82
100
AcDbEntity
  8
HALDER_NORMTEILE
 62
     7
100
AcDbCircle
 10
11.9
 20
20.4
 30
0.0
 40
19.0
100
AcDbArc
 50
341.682302
 51
18.317698
  0
ARC
  5
83
100
AcDbEntity
  8
HALDER_NORMTEILE_MITTELLINIE
  6
DASHDOT
 62
     2
100
AcDbCircle
 10
26.9
 20
20.4
 30
0.0
 40
1.0
100
AcDbArc
 50
90.0
 51
270.0
  0
ARC
  5
84
100
AcDbEntity
  8
HALDER_NORMTEILE_MITTELLINIE
  6
DASHDOT
 62
     2
100
AcDbCircle
 10
40.9
 20
20.4
 30
0.0
 40
1.0
100
AcDbArc
 50
270.0
 51
90.0
  0
LINE
  5
85
100
AcDbEntity
  8
HALDER_NORMTEILE_MITTELLINIE
  6
DASHDOT
 62
     2
100
AcDbLine
 10
26.9
 20
19.4
 30
0.0
 11
40.9
 21
19.4
 31
0.0
  0
LINE
  5
86
100
AcDbEntity
  8
HALDER_NORMTEILE
 62
     7
100
AcDbLine
 10
28.513248
 20
13.4
 30
0.0
 11
22.629436
 21
13.4
 31
0.0
  0
ARC
  5
87
100
AcDbEntity
  8
HALDER_NORMTEILE
 62
     2
100
AcDbCircle
 10
11.9
 20
20.4
 30
0.0
 40
15.0
100
AcDbArc
 50
332.181861
 51
353.345575
  0
ARC
  5
88
100
AcDbEntity
  8
HALDER_NORMTEILE
 62
     7
100
AcDbCircle
 10
28.513248
 20
14.9
 30
0.0
 40
1.5
100
AcDbArc
 50
270.0
 51
341.682302
  0
LINE
  5
89
100
AcDbEntity
  8
HALDER_NORMTEILE_MITTELLINIE
  6
DASHDOT
 62
     2
100
AcDbLine
 10
26.9
 20
21.4
 30
0.0
 11
40.9
 21
21.4
 31
0.0
  0
LINE
  5
8A
100
AcDbEntity
  8
HALDER_NORMTEILE
 62
     7
100
AcDbLine
 10
28.513248
 20
27.4
 30
0.0
 11
22.629436
 21
27.4
 31
0.0
  0
ARC
  5
8B
100
AcDbEntity
  8
HALDER_NORMTEILE
 62
     2
100
AcDbCircle
 10
11.9
 20
20.4
 30
0.0
 40
15.101738
100
AcDbArc
 50
6.654425
 51
27.818139
  0
ARC
  5
8C
100
AcDbEntity
  8
HALDER_NORMTEILE
 62
     7
100
AcDbCircle
 10
28.513248
 20
25.9
 30
0.0
 40
1.5
100
AcDbArc
 50
18.317698
 51
90.0
  0
ENDBLK
  5
8E
100
AcDbEntity
  8
0
100
AcDbBlockEnd
  0
BLOCK
  5
B1
100
AcDbEntity
  8
0
100
AcDbBlockBegin
  2
A$C49277C34
 70
     0
 10
0.0
 20
0.0
 30
0.0
  3
A$C49277C34
  1

  0
ARC
  5
90
100
AcDbEntity
  8
HALDER_NORMTEILE
 62
     7
100
AcDbCircle
 10
26.679338
 20
42.1
 30
0.0
 40
9.0
100
AcDbArc
 50
197.0
 51
270.0
  0
ARC
  5
91
100
AcDbEntity
  8
HALDER_NORMTEILE
 62
     7
100
AcDbCircle
 10
26.679338
 20
8.1
 30
0.0
 40
9.0
100
AcDbArc
 50
90.0
 51
163.0
  0
LINE
  5
92
100
AcDbEntity
  8
HALDER_NORMTEILE_MITTELLINIE
  6
DASHDOT
 62
     2
100
AcDbLine
 10
0.0
 20
25.1
 30
0.0
 11
39.2
 21
25.1
 31
0.0
  0
CIRCLE
  5
93
100
AcDbEntity
  8
HALDER_NORMTEILE
 62
     7
100
AcDbCircle
 10
14.1
 20
25.1
 30
0.0
 40
7.9
  0
CIRCLE
  5
94
100
AcDbEntity
  8
HALDER_NORMTEILE
  6
DASHED
 62
     3
100
AcDbCircle
 10
14.1
 20
25.1
 30
0.0
 40
5.0
  0
ARC
  5
95
100
AcDbEntity
  8
HALDER_NORMTEILE
 62
     7
100
AcDbCircle
 10
14.1
 20
25.1
 30
0.0
 40
12.5
100
AcDbArc
 50
159.250758
 51
200.749242
  0
LINE
  5
96
100
AcDbEntity
  8
HALDER_NORMTEILE_MITTELLINIE
  6
DASHDOT
 62
     2
100
AcDbLine
 10
14.1
 20
50.2
 30
0.0
 11
14.1
 21
0.0
 31
0.0
  0
ARC
  5
97
100
AcDbEntity
  8
HALDER_NORMTEILE
 62
     7
100
AcDbCircle
 10
14.1
 20
25.1
 30
0.0
 40
23.5
100
AcDbArc
 50
235.815204
 51
270.184796
  0
ARC
  5
98
100
AcDbEntity
  8
HALDER_NORMTEILE
 62
     2
100
AcDbCircle
 10
14.1
 20
25.1
 30
0.0
 40
19.6
100
AcDbArc
 50
228.910494
 51
277.089506
  0
LINE
  5
99
100
AcDbEntity
  8
HALDER_NORMTEILE
 62
     7
100
AcDbLine
 10
2.601235
 20
14.851663
 30
0.0
 11
0.304537
 21
7.339504
 31
0.0
  0
ARC
  5
9A
100
AcDbEntity
  8
HALDER_NORMTEILE
 62
     7
100
AcDbCircle
 10
1.738995
 20
6.900947
 30
0.0
 40
1.5
100
AcDbArc
 50
163.0
 51
235.815204
  0
ARC
  5
9B
100
AcDbEntity
  8
HALDER_NORMTEILE
 62
     7
100
AcDbCircle
 10
-6.005508
 20
17.483009
 30
0.0
 40
9.0
100
AcDbArc
 50
343.0
 51
20.749242
  0
LINE
  5
9C
100
AcDbEntity
  8
HALDER_NORMTEILE
 62
     7
100
AcDbLine
 10
15.605414
 20
2.661557
 30
0.0
 11
18.072595
 21
10.731345
 31
0.0
  0
ARC
  5
9D
100
AcDbEntity
  8
HALDER_NORMTEILE
 62
     7
100
AcDbCircle
 10
14.170956
 20
3.100114
 30
0.0
 40
1.5
100
AcDbArc
 50
270.184796
 51
343.0
  0
ARC
  5
9E
100
AcDbEntity
  8
HALDER_NORMTEILE
 62
     7
100
AcDbCircle
 10
14.1
 20
25.1
 30
0.0
 40
23.5
100
AcDbArc
 50
89.815204
 51
124.184796
  0
ARC
  5
9F
100
AcDbEntity
  8
HALDER_NORMTEILE
 62
     2
100
AcDbCircle
 10
14.1
 20
25.1
 30
0.0
 40
19.6
100
AcDbArc
 50
82.910494
 51
131.089506
  0
LINE
  5
A0
100
AcDbEntity
  8
HALDER_NORMTEILE
 62
     7
100
AcDbLine
 10
2.601235
 20
35.348337
 30
0.0
 11
0.304537
 21
42.860496
 31
0.0
  0
ARC
  5
A1
100
AcDbEntity
  8
HALDER_NORMTEILE
 62
     7
100
AcDbCircle
 10
-6.005508
 20
32.716991
 30
0.0
 40
9.0
100
AcDbArc
 50
339.250758
 51
17.0
  0
ARC
  5
A2
100
AcDbEntity
  8
HALDER_NORMTEILE
 62
     7
100
AcDbCircle
 10
1.738995
 20
43.299053
 30
0.0
 40
1.5
100
AcDbArc
 50
124.184796
 51
197.0
  0
LINE
  5
A3
100
AcDbEntity
  8
HALDER_NORMTEILE
 62
     7
100
AcDbLine
 10
15.605414
 20
47.538443
 30
0.0
 11
18.072595
 21
39.468655
 31
0.0
  0
ARC
  5
A4
100
AcDbEntity
  8
HALDER_NORMTEILE
 62
     7
100
AcDbCircle
 10
14.170956
 20
47.099886
 30
0.0
 40
1.5
100
AcDbArc
 50
17.0
 51
89.815204
  0
CIRCLE
  5
A5
100
AcDbEntity
  8
HALDER_NORMTEILE
 62
     7
100
AcDbCircle
 10
33.7
 20
25.1
 30
0.0
 40
1.75
  0
ARC
  5
A6
100
AcDbEntity
  8
HALDER_NORMTEILE
 62
     7
100
AcDbCircle
 10
14.1
 20
25.1
 30
0.0
 40
23.5
100
AcDbArc
 50
342.815204
 51
17.184796
  0
ARC
  5
A7
100
AcDbEntity
  8
HALDER_NORMTEILE_MITTELLINIE
  6
DASHDOT
 62
     2
100
AcDbCircle
 10
33.7
 20
25.1
 30
0.0
 40
1.0
100
AcDbArc
 50
90.0
 51
270.0
  0
ARC
  5
A8
100
AcDbEntity
  8
HALDER_NORMTEILE_MITTELLINIE
  6
DASHDOT
 62
     2
100
AcDbCircle
 10
51.7
 20
25.1
 30
0.0
 40
1.0
100
AcDbArc
 50
270.0
 51
90.0
  0
LINE
  5
A9
100
AcDbEntity
  8
HALDER_NORMTEILE_MITTELLINIE
  6
DASHDOT
 62
     2
100
AcDbLine
 10
33.7
 20
24.1
 30
0.0
 11
51.7
 21
24.1
 31
0.0
  0
LINE
  5
AA
100
AcDbEntity
  8
HALDER_NORMTEILE
 62
     7
100
AcDbLine
 10
35.11785
 20
17.1
 30
0.0
 11
26.679338
 21
17.1
 31
0.0
  0
ARC
  5
AB
100
AcDbEntity
  8
HALDER_NORMTEILE
 62
     2
100
AcDbCircle
 10
14.1
 20
25.1
 30
0.0
 40
19.6
100
AcDbArc
 50
335.910494
 51
354.897835
  0
ARC
  5
AC
100
AcDbEntity
  8
HALDER_NORMTEILE
 62
     7
100
AcDbCircle
 10
35.11785
 20
18.6
 30
0.0
 40
1.5
100
AcDbArc
 50
270.0
 51
342.815204
  0
LINE
  5
AD
100
AcDbEntity
  8
HALDER_NORMTEILE_MITTELLINIE
  6
DASHDOT
 62
     2
100
AcDbLine
 10
33.7
 20
26.1
 30
0.0
 11
51.7
 21
26.1
 31
0.0
  0
LINE
  5
AE
100
AcDbEntity
  8
HALDER_NORMTEILE
 62
     7
100
AcDbLine
 10
35.11785
 20
33.1
 30
0.0
 11
26.679338
 21
33.1
 31
0.0
  0
ARC
  5
AF
100
AcDbEntity
  8
HALDER_NORMTEILE
 62
     2
100
AcDbCircle
 10
14.1
 20
25.1
 30
0.0
 40
19.67797
100
AcDbArc
 50
5.102165
 51
24.089506
  0
ARC
  5
B0
100
AcDbEntity
  8
HALDER_NORMTEILE
 62
     7
100
AcDbCircle
 10
35.11785
 20
31.6
 30
0.0
 40
1.5
100
AcDbArc
 50
17.184796
 51
90.0
  0
ENDBLK
  5
B2
100
AcDbEntity
  8
0
100
AcDbBlockEnd
  0
ENDSEC
  0
SECTION
  2
ENTITIES
  0
LINE
  5
3B
100
AcDbEntity
  8
HALDER_NORMTEILE_MITTELLINIE
  6
DASHDOT
 62
     2
100
AcDbLine
 10
19.6
 20
28.4
 30
0.0
 11
19.6
 21
37.4
 31
0.0
  0
LINE
  5
3C
100
AcDbEntity
  8
HALDER_NORMTEILE_MITTELLINIE
  6
DASHDOT
 62
     2
100
AcDbLine
 10
0.0
 20
41.5
 30
0.0
 11
0.0
 21
0.0
 31
0.0
  0
LINE
  5
3D
100
AcDbEntity
  8
HALDER_NORMTEILE
 62
     7
100
AcDbLine
 10
1.663404
 20
30.373205
 30
0.0
 11
2.85834
 21
35.9
 31
0.0
  0
LINE
  5
3E
100
AcDbEntity
  8
HALDER_NORMTEILE
 62
     7
100
AcDbLine
 10
9.049448
 20
25.438059
 30
0.0
 11
11.596497
 21
27.467973
 31
0.0
  0
LINE
  5
3F
100
AcDbEntity
  8
HALDER_NORMTEILE
 62
     7
100
AcDbLine
 10
5.410482
 20
26.027443
 30
0.0
 11
2.91373
 21
29.68655
 31
0.0
  0
LINE
  5
40
100
AcDbEntity
  8
HALDER_NORMTEILE
 62
     7
100
AcDbLine
 10
-12.5
 20
29.9
 30
0.0
 11
2.2
 21
29.9
 31
0.0
  0
LINE
  5
41
100
AcDbEntity
  8
HALDER_NORMTEILE
 62
     7
100
AcDbLine
 10
22.625143
 20
29.9
 30
0.0
 11
18.6
 21
29.9
 31
0.0
  0
LINE
  5
42
100
AcDbEntity
  8
HALDER_NORMTEILE
 62
     7
100
AcDbLine
 10
18.698011
 20
35.515661
 30
0.0
 11
21.823153
 21
31.515661
 31
0.0
  0
LINE
  5
43
100
AcDbEntity
  8
HALDER_NORMTEILE
 62
     7
100
AcDbLine
 10
20.288011
 20
35.515661
 30
0.0
 11
23.413153
 21
31.515661
 31
0.0
  0
LINE
  5
44
100
AcDbEntity
  8
HALDER_NORMTEILE
 62
     7
100
AcDbLine
 10
17.91
 20
35.9
 30
0.0
 11
19.5
 21
35.9
 31
0.0
  0
LINE
  5
45
100
AcDbEntity
  8
HALDER_NORMTEILE
 62
     7
100
AcDbLine
 10
10.964147
 20
32.775505
 30
0.0
 11
17.482642
 21
35.804083
 31
0.0
  0
LINE
  5
46
100
AcDbEntity
  8
HALDER_NORMTEILE
 62
     7
100
AcDbLine
 10
-12.348926
 20
35.9
 30
0.0
 11
2.85834
 21
35.9
 31
0.0
  0
LINE
  5
47
100
AcDbEntity
  8
HALDER_NORMTEILE
 62
     7
100
AcDbLine
 10
11.5
 20
21.4
 30
0.0
 11
11.5
 21
20.2
 31
0.0
  0
LINE
  5
48
100
AcDbEntity
  8
HALDER_NORMTEILE
 62
     7
100
AcDbLine
 10
-11.5
 20
20.2
 30
0.0
 11
-11.5
 21
21.4
 31
0.0
  0
LINE
  5
49
100
AcDbEntity
  8
HALDER_NORMTEILE
 62
     7
100
AcDbLine
 10
7.9
 20
39.4
 30
0.0
 11
7.9
 21
32.2
 31
0.0
  0
LINE
  5
4A
100
AcDbEntity
  8
HALDER_NORMTEILE
 62
     7
100
AcDbLine
 10
-7.3
 20
40.0
 30
0.0
 11
7.3
 21
40.0
 31
0.0
  0
LINE
  5
4B
100
AcDbEntity
  8
HALDER_NORMTEILE
 62
     7
100
AcDbLine
 10
-7.9
 20
35.9
 30
0.0
 11
-7.9
 21
39.4
 31
0.0
  0
LINE
  5
4C
100
AcDbEntity
  8
HALDER_NORMTEILE
 62
     7
100
AcDbLine
 10
-13.523517
 20
32.659826
 30
0.0
 11
-12.935815
 21
35.424747
 31
0.0
  0
LINE
  5
4D
100
AcDbEntity
  8
HALDER_NORMTEILE
 62
     7
100
AcDbLine
 10
-13.6
 20
30.7
 30
0.0
 11
-13.6
 21
31.932135
 31
0.0
  0
LINE
  5
4E
100
AcDbEntity
  8
HALDER_NORMTEILE
 62
     7
100
AcDbLine
 10
-12.5
 20
29.9
 30
0.0
 11
-12.8
 21
29.9
 31
0.0
  0
LINE
  5
4F
100
AcDbEntity
  8
HALDER_NORMTEILE
 62
     7
100
AcDbLine
 10
-12.5
 20
25.4
 30
0.0
 11
-12.5
 21
29.9
 31
0.0
  0
LINE
  5
50
100
AcDbEntity
  8
HALDER_NORMTEILE
 62
     7
100
AcDbLine
 10
11.5
 20
0.8
 30
0.0
 11
11.5
 21
20.2
 31
0.0
  0
LINE
  5
51
100
AcDbEntity
  8
HALDER_NORMTEILE
 62
     7
100
AcDbLine
 10
-10.7
 20
0.0
 30
0.0
 11
10.7
 21
0.0
 31
0.0
  0
LINE
  5
52
100
AcDbEntity
  8
HALDER_NORMTEILE
 62
     7
100
AcDbLine
 10
-11.5
 20
20.2
 30
0.0
 11
-11.5
 21
0.8
 31
0.0
  0
ARC
  5
53
100
AcDbEntity
  8
HALDER_NORMTEILE
 62
     7
100
AcDbCircle
 10
7.5
 20
27.4
 30
0.0
 40
2.5
100
AcDbArc
 50
213.3
 51
308.3
  0
ARC
  5
54
100
AcDbEntity
  8
HALDER_NORMTEILE
 62
     7
100
AcDbCircle
 10
-13.43
 20
27.65
 30
0.0
 40
2.434625
100
AcDbArc
 50
292.456939
 51
67.543061
  0
ARC
  5
55
100
AcDbEntity
  8
HALDER_NORMTEILE
 62
     7
100
AcDbCircle
 10
1.076955
 20
30.5
 30
0.0
 40
0.6
100
AcDbArc
 50
270.0
 51
347.8
  0
ARC
  5
56
100
AcDbEntity
  8
HALDER_NORMTEILE
 62
     7
100
AcDbCircle
 10
2.2
 20
28.6
 30
0.0
 40
1.3
100
AcDbArc
 50
56.7
 51
90.0
  0
ARC
  5
57
100
AcDbEntity
  8
HALDER_NORMTEILE
 62
     7
100
AcDbCircle
 10
18.6
 20
18.6
 30
0.0
 40
11.3
100
AcDbArc
 50
90.0
 51
128.3
  0
ARC
  5
58
100
AcDbEntity
  8
HALDER_NORMTEILE
 62
     7
100
AcDbCircle
 10
20.0
 20
21.4
 30
0.0
 40
8.5
100
AcDbArc
 50
90.0
 51
180.0
  0
ARC
  5
59
100
AcDbEntity
  8
HALDER_NORMTEILE
 62
     7
100
AcDbCircle
 10
21.035143
 20
30.9
 30
0.0
 40
1.0
100
AcDbArc
 50
270.0
 51
38.0
  0
ARC
  5
5A
100
AcDbEntity
  8
HALDER_NORMTEILE
 62
     7
100
AcDbCircle
 10
22.625143
 20
30.9
 30
0.0
 40
1.0
100
AcDbArc
 50
270.0
 51
38.0
  0
ARC
  5
5B
100
AcDbEntity
  8
HALDER_NORMTEILE
 62
     7
100
AcDbCircle
 10
19.5
 20
34.9
 30
0.0
 40
1.0
100
AcDbArc
 50
38.0
 51
90.0
  0
ARC
  5
5C
100
AcDbEntity
  8
HALDER_NORMTEILE
 62
     7
100
AcDbCircle
 10
17.91
 20
34.9
 30
0.0
 40
1.0
100
AcDbArc
 50
38.0
 51
115.3
  0
ARC
  5
5D
100
AcDbEntity
  8
HALDER_NORMTEILE
 62
     7
100
AcDbCircle
 10
8.4
 20
38.2
 30
0.0
 40
6.0
100
AcDbArc
 50
202.54031
 51
295.3
  0
ARC
  5
5E
100
AcDbEntity
  8
HALDER_NORMTEILE
 62
     7
100
AcDbCircle
 10
-20.0
 20
21.4
 30
0.0
 40
8.5
100
AcDbArc
 50
0.0
 51
28.072487
  0
CIRCLE
  5
5F
100
AcDbEntity
  8
HALDER_NORMTEILE_MITTELLINIE
  6
DASHDOT
 62
     2
100
AcDbCircle
 10
27.85
 20
28.7
 30
0.0
 40
10.0
  0
CIRCLE
  5
60
100
AcDbEntity
  8
HALDER_NORMTEILE_MITTELLINIE
  6
DASHDOT
 62
     2
100
AcDbCircle
 10
27.85
 20
28.7
 30
0.0
 40
8.5
  0
ARC
  5
61
100
AcDbEntity
  8
HALDER_NORMTEILE
 62
     7
100
AcDbCircle
 10
7.3
 20
39.4
 30
0.0
 40
0.6
100
AcDbArc
 50
0.0
 51
90.0
  0
ARC
  5
62
100
AcDbEntity
  8
HALDER_NORMTEILE
 62
     7
100
AcDbCircle
 10
-7.3
 20
39.4
 30
0.0
 40
0.6
100
AcDbArc
 50
90.0
 51
180.0
  0
ARC
  5
63
100
AcDbEntity
  8
HALDER_NORMTEILE
 62
     7
100
AcDbCircle
 10
-12.348926
 20
35.3
 30
0.0
 40
0.6
100
AcDbArc
 50
90.0
 51
168.0
  0
ARC
  5
64
100
AcDbEntity
  8
HALDER_NORMTEILE
 62
     7
100
AcDbCircle
 10
-10.1
 20
31.932135
 30
0.0
 40
3.5
100
AcDbArc
 50
168.0
 51
180.0
  0
ARC
  5
65
100
AcDbEntity
  8
HALDER_NORMTEILE
 62
     7
100
AcDbCircle
 10
10.7
 20
0.8
 30
0.0
 40
0.8
100
AcDbArc
 50
270.0
 51
0.0
  0
ARC
  5
66
100
AcDbEntity
  8
HALDER_NORMTEILE
 62
     7
100
AcDbCircle
 10
-10.7
 20
0.8
 30
0.0
 40
0.8
100
AcDbArc
 50
180.0
 51
270.0
  0
ARC
  5
67
100
AcDbEntity
  8
HALDER_NORMTEILE
 62
     7
100
AcDbCircle
 10
-12.8
 20
30.7
 30
0.0
 40
0.8
100
AcDbArc
 50
180.0
 51
270.0
  0
INSERT
  5
69
100
AcDbEntity
  8
0
100
AcDbBlockReference
  2
HALDER-ET_2236030_A
 10
-5.0
 20
-15.2
 30
0.0
  0
INSERT
  5
B3
100
AcDbEntity
  8
0
100
AcDbBlockReference
  2
A$C49277C34
 10
-14.041484
 20
44.918397
 30
0.0
  0
ENDSEC
  0
SECTION
  2
OBJECTS
  0
DICTIONARY
  5
C
100
AcDbDictionary
  3
ACAD_GROUP
350
D
  3
ACAD_MLINESTYLE
350
1B
  0
DICTIONARY
  5
D
102
{ACAD_REACTORS
330
C
102
}
100
AcDbDictionary
  0
DICTIONARY
  5
1B
102
{ACAD_REACTORS
330
C
102
}
100
AcDbDictionary
  3
STANDARD
350
1C
  0
MLINESTYLE
  5
1C
102
{ACAD_REACTORS
330
1B
102
}
100
AcDbMlineStyle
  2
STANDARD
 70
     0
  3

 62
   256
 51
90.0
 52
90.0
 71
     2
 49
0.5
 62
   256
  6
BYLAYER
 49
-0.5
 62
   256
  6
BYLAYER
  0
ENDSEC
  0
EOF
