  0
SECTION
  2
HEADER
  9
$ACADVER
  1
AC1015
  9
$ACADMAINTVER
 70
    13
  9
$DWGCODEPAGE
  3
ANSI_932
  9
$INSBASE
 10
0.0
 20
0.0
 30
0.0
  9
$EXTMIN
 10
76.60928863991057
 20
145.659046924623
 30
-0.000000000000013
  9
$EXTMAX
 10
248.47374294626
 20
177.1329401090744
 30
0.0000000000000023
  9
$LIMMIN
 10
0.0
 20
0.0
  9
$LIMMAX
 10
360.0
 20
250.0
  9
$ORTHOMODE
 70
     1
  9
$REGENMODE
 70
     1
  9
$FILLMODE
 70
     1
  9
$QTEXTMODE
 70
     0
  9
$MIRRTEXT
 70
     1
  9
$LTSCALE
 40
1.0
  9
$ATTMODE
 70
     1
  9
$TEXTSIZE
 40
4.0
  9
$TRACEWID
 40
0.05
  9
$TEXTSTYLE
  7
EXTFONT
  9
$CLAYER
  8
0
  9
$CELTYPE
  6
BYLAYER
  9
$CECOLOR
 62
   256
  9
$CELTSCALE
 40
1.0
  9
$DISPSILH
 70
     0
  9
$DIMSCALE
 40
0.0
  9
$DIMASZ
 40
2.0
  9
$DIMEXO
 40
0.5
  9
$DIMDLI
 40
0.38
  9
$DIMRND
 40
0.0
  9
$DIMDLE
 40
0.0
  9
$DIMEXE
 40
0.5
  9
$DIMTP
 40
0.0
  9
$DIMTM
 40
0.0
  9
$DIMTXT
 40
4.0
  9
$DIMCEN
 40
0.09
  9
$DIMTSZ
 40
0.0
  9
$DIMTOL
 70
     0
  9
$DIMLIM
 70
     0
  9
$DIMTIH
 70
     0
  9
$DIMTOH
 70
     1
  9
$DIMSE1
 70
     0
  9
$DIMSE2
 70
     0
  9
$DIMTAD
 70
     0
  9
$DIMZIN
 70
     8
  9
$DIMBLK
  1

  9
$DIMASO
 70
     1
  9
$DIMSHO
 70
     1
  9
$DIMPOST
  1

  9
$DIMAPOST
  1

  9
$DIMALT
 70
     0
  9
$DIMALTD
 70
     2
  9
$DIMALTF
 40
25.4
  9
$DIMLFAC
 40
1.0
  9
$DIMTOFL
 70
     1
  9
$DIMTVP
 40
0.0
  9
$DIMTIX
 70
     0
  9
$DIMSOXD
 70
     0
  9
$DIMSAH
 70
     0
  9
$DIMBLK1
  1

  9
$DIMBLK2
  1

  9
$DIMSTYLE
  2
STANDARD
  9
$DIMCLRD
 70
     0
  9
$DIMCLRE
 70
     0
  9
$DIMCLRT
 70
     0
  9
$DIMTFAC
 40
1.0
  9
$DIMGAP
 40
0.09
  9
$DIMJUST
 70
     0
  9
$DIMSD1
 70
     0
  9
$DIMSD2
 70
     0
  9
$DIMTOLJ
 70
     1
  9
$DIMTZIN
 70
     8
  9
$DIMALTZ
 70
     0
  9
$DIMALTTZ
 70
     0
  9
$DIMUPT
 70
     1
  9
$DIMDEC
 70
     2
  9
$DIMTDEC
 70
     2
  9
$DIMALTU
 70
     2
  9
$DIMALTTD
 70
     2
  9
$DIMTXSTY
  7
EXTFONT
  9
$DIMAUNIT
 70
     0
  9
$DIMADEC
 70
     2
  9
$DIMALTRND
 40
0.0
  9
$DIMAZIN
 70
     2
  9
$DIMDSEP
 70
    46
  9
$DIMATFIT
 70
     3
  9
$DIMFRAC
 70
     0
  9
$DIMLDRBLK
  1

  9
$DIMLUNIT
 70
     2
  9
$DIMLWD
 70
    -2
  9
$DIMLWE
 70
    -2
  9
$DIMTMOVE
 70
     0
  9
$LUNITS
 70
     2
  9
$LUPREC
 70
     4
  9
$SKETCHINC
 40
0.1
  9
$FILLETRAD
 40
1.0
  9
$AUNITS
 70
     0
  9
$AUPREC
 70
     0
  9
$MENU
  1
acad
  9
$ELEVATION
 40
0.0
  9
$PELEVATION
 40
0.0
  9
$THICKNESS
 40
0.0
  9
$LIMCHECK
 70
     0
  9
$CHAMFERA
 40
2.0
  9
$CHAMFERB
 40
2.0
  9
$CHAMFERC
 40
0.0
  9
$CHAMFERD
 40
0.0
  9
$SKPOLY
 70
     0
  9
$TDCREATE
 40
2449442.471851852
  9
$TDUCREATE
 40
2449442.096851852
  9
$TDUPDATE
 40
2457676.596506435
  9
$TDUUPDATE
 40
2457676.221506435
  9
$TDINDWG
 40
2.0396976968
  9
$TDUSRTIMER
 40
2.0396976968
  9
$USRTIMER
 70
     1
  9
$ANGBASE
 50
0.0
  9
$ANGDIR
 70
     0
  9
$PDMODE
 70
     0
  9
$PDSIZE
 40
0.0
  9
$PLINEWID
 40
0.0
  9
$SPLFRAME
 70
     0
  9
$SPLINETYPE
 70
     6
  9
$SPLINESEGS
 70
     8
  9
$HANDSEED
  5
247C
  9
$SURFTAB1
 70
     6
  9
$SURFTAB2
 70
     6
  9
$SURFTYPE
 70
     6
  9
$SURFU
 70
     6
  9
$SURFV
 70
     6
  9
$UCSBASE
  2

  9
$UCSNAME
  2

  9
$UCSORG
 10
0.0
 20
0.0
 30
0.0
  9
$UCSXDIR
 10
1.0
 20
0.0
 30
0.0
  9
$UCSYDIR
 10
0.0
 20
1.0
 30
0.0
  9
$UCSORTHOREF
  2

  9
$UCSORTHOVIEW
 70
     0
  9
$UCSORGTOP
 10
0.0
 20
0.0
 30
0.0
  9
$UCSORGBOTTOM
 10
0.0
 20
0.0
 30
0.0
  9
$UCSORGLEFT
 10
0.0
 20
0.0
 30
0.0
  9
$UCSORGRIGHT
 10
0.0
 20
0.0
 30
0.0
  9
$UCSORGFRONT
 10
0.0
 20
0.0
 30
0.0
  9
$UCSORGBACK
 10
0.0
 20
0.0
 30
0.0
  9
$PUCSBASE
  2

  9
$PUCSNAME
  2

  9
$PUCSORG
 10
0.0
 20
0.0
 30
0.0
  9
$PUCSXDIR
 10
1.0
 20
0.0
 30
0.0
  9
$PUCSYDIR
 10
0.0
 20
1.0
 30
0.0
  9
$PUCSORTHOREF
  2

  9
$PUCSORTHOVIEW
 70
     0
  9
$PUCSORGTOP
 10
0.0
 20
0.0
 30
0.0
  9
$PUCSORGBOTTOM
 10
0.0
 20
0.0
 30
0.0
  9
$PUCSORGLEFT
 10
0.0
 20
0.0
 30
0.0
  9
$PUCSORGRIGHT
 10
0.0
 20
0.0
 30
0.0
  9
$PUCSORGFRONT
 10
0.0
 20
0.0
 30
0.0
  9
$PUCSORGBACK
 10
0.0
 20
0.0
 30
0.0
  9
$USERI1
 70
     0
  9
$USERI2
 70
     0
  9
$USERI3
 70
     0
  9
$USERI4
 70
     0
  9
$USERI5
 70
     0
  9
$USERR1
 40
0.0
  9
$USERR2
 40
0.0
  9
$USERR3
 40
0.0
  9
$USERR4
 40
0.0
  9
$USERR5
 40
0.0
  9
$WORLDVIEW
 70
     1
  9
$SHADEDGE
 70
     3
  9
$SHADEDIF
 70
    70
  9
$TILEMODE
 70
     1
  9
$MAXACTVP
 70
    16
  9
$PINSBASE
 10
0.0
 20
0.0
 30
0.0
  9
$PLIMCHECK
 70
     0
  9
$PEXTMIN
 10
1.000000000000000E+20
 20
1.000000000000000E+20
 30
1.000000000000000E+20
  9
$PEXTMAX
 10
-1.000000000000000E+20
 20
-1.000000000000000E+20
 30
-1.000000000000000E+20
  9
$PLIMMIN
 10
0.0
 20
0.0
  9
$PLIMMAX
 10
12.0
 20
9.0
  9
$UNITMODE
 70
     0
  9
$VISRETAIN
 70
     0
  9
$PLINEGEN
 70
     0
  9
$PSLTSCALE
 70
     1
  9
$TREEDEPTH
 70
  3020
  9
$CMLSTYLE
  2
STANDARD
  9
$CMLJUST
 70
     0
  9
$CMLSCALE
 40
1.0
  9
$PROXYGRAPHICS
 70
     1
  9
$MEASUREMENT
 70
     0
  9
$CELWEIGHT
370
    -1
  9
$ENDCAPS
280
     0
  9
$JOINSTYLE
280
     0
  9
$LWDISPLAY
290
     0
  9
$INSUNITS
 70
     0
  9
$HYPERLINKBASE
  1

  9
$STYLESHEET
  1

  9
$XEDIT
290
     1
  9
$CEPSNTYPE
380
     0
  9
$PSTYLEMODE
290
     1
  9
$FINGERPRINTGUID
  2
{1B655932-1847-440D-B8FC-AA2FE066ACFD}
  9
$VERSIONGUID
  2
{67B8A8A9-30BD-4F75-91CD-B45B9E10797C}
  9
$EXTNAMES
290
     1
  9
$PSVPSCALE
 40
0.0
  9
$OLESTARTUP
290
     0
  0
ENDSEC
  0
SECTION
  2
CLASSES
  0
CLASS
  1
DICTIONARYVAR
  2
AcDbDictionaryVar
  3
AutoCAD 2000
 90
        0
280
     0
281
     0
  0
CLASS
  1
LWPOLYLINE
  2
AcDbPolyline
  3
AutoCAD 2000
 90
    32768
280
     0
281
     1
  0
CLASS
  1
HATCH
  2
AcDbHatch
  3
AutoCAD 2000
 90
    32768
280
     0
281
     1
  0
CLASS
  1
ACDBDICTIONARYWDFLT
  2
AcDbDictionaryWithDefault
  3
AutoCAD 2000
 90
        0
280
     0
281
     0
  0
CLASS
  1
ACDBPLACEHOLDER
  2
AcDbPlaceHolder
  3
AutoCAD 2000
 90
        0
280
     0
281
     0
  0
CLASS
  1
LAYOUT
  2
AcDbLayout
  3
AutoCAD 2000
 90
        0
280
     0
281
     0
  0
CLASS
  1
ACME_DOCUMENT
  2
AcMeDbDoc
  3
AcMeServices
 90
        0
280
     0
281
     0
  0
CLASS
  1
AMGSETTINGSOBJ
  2
AmgSettingsObj
  3
"AcadM|Product Description: AutoCAD Mechanical 2000|Company: Autodesk"
 90
        0
280
     0
281
     0
  0
CLASS
  1
ACMESCOPE
  2
AcMeScope
  3
AcMeServices
 90
        0
280
     0
281
     0
  0
CLASS
  1
ACMECOMMANDHISTORY
  2
AcMeCommandHistory
  3
AcMeServices
 90
        0
280
     0
281
     0
  0
CLASS
  1
ACIMSYSVARMAN
  2
AcImSysVarManager
  3
AcMeServices
 90
        0
280
     0
281
     0
  0
CLASS
  1
ACIMREALSYSVAR
  2
AcImRealSysVar
  3
AcMeServices
 90
        0
280
     0
281
     0
  0
CLASS
  1
ACIMINTSYSVAR
  2
AcImIntSysVar
  3
AcMeServices
 90
        0
280
     0
281
     0
  0
CLASS
  1
ACMEDRAWINGMAN
  2
AcMeDrawingMan
  3
AcMeServices
 90
        0
280
     0
281
     0
  0
CLASS
  1
ACMEVIEW
  2
AcMeView
  3
AcMeServices
 90
        0
280
     0
281
     0
  0
CLASS
  1
ACDBENTITYCACHE
  2
AcMeEntityCache
  3
AcMeServices
 90
        0
280
     0
281
     0
  0
CLASS
  1
GSMANAGER
  2
AcMeGSManager
  3
AcMeServices
 90
        0
280
     0
281
     0
  0
CLASS
  1
AMDTINTERNALREACTOR
  2
AmdtInternalReactor
  3
AcMeServices
 90
        0
280
     0
281
     0
  0
CLASS
  1
ACMESTATEMGR
  2
AcMeStateMgr
  3
AcMeServices
 90
        0
280
     0
281
     0
  0
CLASS
  1
ACGREFMASTER
  2
AcGrefMaster
  3
AcAttribServices
 90
        0
280
     0
281
     0
  0
CLASS
  1
AM_DRAWING_MGR
  2
AcDmDwgMgr
  3
AcMechDwgViewMgmt
 90
        0
280
     0
281
     0
  0
CLASS
  1
AM_DWG_DOCUMENT
  2
AcDmDwgDocument
  3
AcMechDwgViewMgmt
 90
        0
280
     0
281
     0
  0
CLASS
  1
AM_DWG_SHEET
  2
AcDmSheet
  3
AcMechDwgViewMgmt
 90
        0
280
     0
281
     0
  0
CLASS
  1
AM_VIEWDIMPARMAP
  2
AcDmViewDimParMap
  3
AcMechDwgViewMgmt
 90
        0
280
     0
281
     0
  0
CLASS
  1
AM_DWGMGR_NAME
  2
AcDmDwgMgrName
  3
AcMechDwgViewMgmt
 90
        0
280
     0
281
     0
  0
CLASS
  1
ACME_DATABASE
  2
AcMeDbDatabase
  3
AcMeServices
 90
        0
280
     0
281
     0
  0
CLASS
  1
ACRFINSADJUSTERMGR
  2
AcRfInsAdjusterMgr
  3
AcMeServices
 90
        0
280
     0
281
     0
  0
CLASS
  1
ACGREFACADMASTER
  2
AcGrefacadMaster
  3
AcGrefServices
 90
        0
280
     0
281
     0
  0
CLASS
  1
AMDTMENUSTATEMGR
  2
AmdtMenuStateMgr
  3
McadcomServices
 90
        0
280
     0
281
     0
  0
CLASS
  1
AMDTMCOMMENUSTATE
  2
AmdtMcomMenuState
  3
McadcomServices
 90
        0
280
     0
281
     0
  0
CLASS
  1
AMIMASTER
  2
AmiMaster
  3
AmiServices
 90
        0
280
     0
281
     0
  0
CLASS
  1
ASAPP
  2
AcAsAppObject
  3
AutoSurfServices
 90
        0
280
     0
281
     0
  0
CLASS
  1
IM_STATIC_MAN
  2
AcImStaticVarManager
  3
AcMeServices
 90
        0
280
     0
281
     0
  0
CLASS
  1
ACIMSTRSYSVAR
  2
AcImStrSysVar
  3
AcMeServices
 90
        0
280
     0
281
     0
  0
CLASS
  1
ACIMDBLSTATICVAR
  2
AcImDblStaticVar
  3
AcMeServices
 90
        0
280
     0
281
     0
  0
CLASS
  1
ACIMSTRSTATICVAR
  2
AcImStrStaticVar
  3
AcMeServices
 90
        0
280
     0
281
     0
  0
CLASS
  1
ACIMINTSTATICVAR
  2
AcImIntStaticVar
  3
AcMeServices
 90
        0
280
     0
281
     0
  0
CLASS
  1
ACASGREFMASTER
  2
AcAsGrefMaster
  3
AutoSurfResolverServices
 90
        0
280
     0
281
     0
  0
CLASS
  1
ACADGREFMODULE
  2
AcAdGrefModule
  3
AdGrefServices
 90
        0
280
     0
281
     0
  0
CLASS
  1
AMDTMAPISURFMOUDULE
  2
AmdtMApiSurfModule
  3
MApiSurfServices
 90
        0
280
     0
281
     0
  0
CLASS
  1
MAPIAMMOUDLE
  2
MApiAmModule
  3
MApiAmServices
 90
        0
280
     0
281
     0
  0
CLASS
  1
AMDTADMENUSTATE
  2
AmdtAdMenuState
  3
DesignerServices
 90
        0
280
     0
281
     0
  0
CLASS
  1
ADAPPL
  2
AcAdAppl
  3
DesignerServices
 90
        0
280
     0
281
     0
  0
CLASS
  1
DEPMGR
  2
AcAdDepMgr
  3
DesignerServices
 90
        0
280
     0
281
     0
  0
CLASS
  1
PARAMMGR
  2
AcAdParamMgr
  3
DesignerServices
 90
        0
280
     0
281
     0
  0
CLASS
  1
PARAMSCOPE
  2
AcAdParamScope
  3
DesignerServices
 90
        0
280
     0
281
     0
  0
CLASS
  1
NAMEDAPPL
  2
AcAdNamedAppl
  3
DesignerServices
 90
        0
280
     0
281
     0
  0
CLASS
  1
AMDTDMMENUSTATE
  2
AmdtDmMenuState
  3
AcMechDwgViewMgmt
 90
        0
280
     0
281
     0
  0
CLASS
  1
MAPIADMODULE
  2
MApiAdModule
  3
MApiAdServices
 90
        0
280
     0
281
     0
  0
CLASS
  1
AMDTAMMENUSTATE
  2
AmdtAmMenuState
  3
DesignerAssemblies
 90
        0
280
     0
281
     0
  0
CLASS
  1
ACAMPROJECT
  2
AcAmProject
  3
DesignerAssemblies
 90
        0
280
     0
281
     0
  0
CLASS
  1
ACAMGRCOMPDEF
  2
AcAmGrCompDef
  3
DesignerAssemblies
 90
        0
280
     0
281
     0
  0
CLASS
  1
ACCMCONTEXT
  2
AcCmContext
  3
DesignerAssemblies
 90
        0
280
     0
281
     0
  0
CLASS
  1
ACAMCOMPDEF
  2
AcAmCompDef
  3
DesignerAssemblies
 90
        0
280
     0
281
     0
  0
CLASS
  1
ACAMCOMPDEFMGR
  2
AcAmCompDefMgr
  3
DesignerAssemblies
 90
        0
280
     0
281
     0
  0
CLASS
  1
AMCONTEXTMGR
  2
AcAmContextMgr
  3
DesignerAssemblies
 90
        0
280
     0
281
     0
  0
CLASS
  1
ACAMCONTEXTMODELER
  2
AcAmContextModeler
  3
DesignerAssemblies
 90
        0
280
     0
281
     0
  0
CLASS
  1
ACMDATADICTIONARY
  2
AcmDataDictionary
  3
"AcmSymBB|Product Description: AutoCAD Mechanical 2000|Company: Autodesk"
 90
        0
280
     0
281
     0
  0
CLASS
  1
ACMDATAENTRYBLOCK
  2
AcmDataEntryBlock
  3
"AcmSymBB|Product Description: AutoCAD Mechanical 2000|Company: Autodesk"
 90
        0
280
     0
281
     0
  0
CLASS
  1
CATALOGSTATE
  2
AcAmCatalogState
  3
DesignerAssemblies
 90
        0
280
     0
281
     0
  0
CLASS
  1
ACAMGRCOMPDEFSET
  2
AcAmGrCompDefSet
  3
DesignerAssemblies
 90
        0
280
     0
281
     0
  0
CLASS
  1
AMDTBROWSERDBTAB
  2
AmdtBrowserDbTab
  3
McadcomServices
 90
        0
280
     0
281
     0
  0
CLASS
  1
CBROWSERAPPOBJECT
  2
CBrowserAppObject
  3
McadcomServices
 90
        0
280
     0
281
     0
  0
CLASS
  1
DM_PLACEHOLDER
  2
AcDmSelsetPlaceholder
  3
AcMechDwgViewMgmt
 90
        0
280
     0
281
     0
  0
CLASS
  1
ACMSTANDARDANSI
  2
AcmStandardANSI
  3
"Amdt_StdImp|Product Description: AutoCAD Mechanical 2000|Company: Autodesk"
 90
        0
280
     0
281
     0
  0
CLASS
  1
AMGOBJPROPCFG
  2
AmgObjPropCfg
  3
"AmgLay|Product Description: AutoCAD Mechanical 2000|Company: Autodesk"
 90
        1
280
     0
281
     0
  0
CLASS
  1
ACMSURFSTANDARDANSI
  2
AcmSurfTextStdANSI
  3
"Amdt_StdImp|Product Description: AutoCAD Mechanical 2000|Company: Autodesk"
 90
        0
280
     0
281
     0
  0
CLASS
  1
ACMFCFSTANDARDANSI
  2
AcmFCFStdANSI
  3
"Amdt_StdImp|Product Description: AutoCAD Mechanical 2000|Company: Autodesk"
 90
        0
280
     0
281
     0
  0
CLASS
  1
ACMWELDSTANDARDANSI
  2
AcmWeldingStdANSI
  3
"Amdt_StdImp|Product Description: AutoCAD Mechanical 2000|Company: Autodesk"
 90
        0
280
     0
281
     0
  0
CLASS
  1
ACMIDSTANDARDANSI
  2
AcmIdStdANSI
  3
"Amdt_StdImp|Product Description: AutoCAD Mechanical 2000|Company: Autodesk"
 90
        0
280
     0
281
     0
  0
CLASS
  1
ACMDATUMSTANDARDANSI
  2
AcmDatumStdANSI
  3
"Amdt_StdImp|Product Description: AutoCAD Mechanical 2000|Company: Autodesk"
 90
        0
280
     0
281
     0
  0
CLASS
  1
ACMBOMSTANDARDANSI
  2
AcmBOMStdANSI
  3
"Amdt_StdImp|Product Description: AutoCAD Mechanical 2000|Company: Autodesk"
 90
        0
280
     0
281
     0
  0
CLASS
  1
ACMDETAILSTANDARDANSI
  2
AmdtDetailSymStdANSI
  3
"Amdt_StdImp|Product Description: AutoCAD Mechanical 2000|Company: Autodesk"
 90
        0
280
     0
281
     0
  0
CLASS
  1
ACMSECTIONSTANDARDANSI
  2
AmdtSectionSymStdANSI
  3
"Amdt_StdImp|Product Description: AutoCAD Mechanical 2000|Company: Autodesk"
 90
        0
280
     0
281
     0
  0
CLASS
  1
ACMCENTERLINESTANDARDANSI
  2
AmdtCenterLineStdANSI
  3
"Amdt_StdImp|Product Description: AutoCAD Mechanical 2000|Company: Autodesk"
 90
        0
280
     0
281
     0
  0
CLASS
  1
ACMTHREADLINESTANDARDANSI
  2
AmdtThreadLineStdANSI
  3
"Amdt_StdImp|Product Description: AutoCAD Mechanical 2000|Company: Autodesk"
 90
        0
280
     0
281
     0
  0
CLASS
  1
ACMNOTESTANDARDANSI
  2
AmdtNoteStdANSI
  3
"Amdt_StdImp|Product Description: AutoCAD Mechanical 2000|Company: Autodesk"
 90
        0
280
     0
281
     0
  0
CLASS
  1
ACAMGLAYSTD
  2
AcAmgLayStd
  3
"AcAmgLayStd|Product Description: AutoCAD Mechanical 2000|Company: Autodesk"
 90
        0
280
     0
281
     0
  0
CLASS
  1
ACAMGDIMSTD
  2
AcAmgDimStd
  3
"AcAmgDimStd|Product Description: AutoCAD Mechanical 2000|Company: Autodesk"
 90
        0
280
     0
281
     0
  0
CLASS
  1
ACAMGHOLECHARTSTDANSI
  2
AcAmgHoleChartStdANSI
  3
ACMSYMBB_MODULE_NAME
 90
        0
280
     0
281
     0
  0
CLASS
  1
ACAMGTITLESTD
  2
AcAmgTitleStd
  3
"TITLEAPP"
 90
        0
280
     0
281
     0
  0
CLASS
  1
LAYER_INDEX
  2
AcDbLayerIndex
  3
AutoCAD 2000
 90
        0
280
     0
281
     0
  0
CLASS
  1
IDBUFFER
  2
AcDbIdBuffer
  3
AutoCAD 2000
 90
        0
280
     0
281
     0
  0
CLASS
  1
ACAMGFILTERDAT
  2
AcAmgFilterDat
  3
"AcadM|Product Description: AutoCAD Mechanical 2000|Company: Autodesk"
 90
        0
280
     0
281
     0
  0
CLASS
  1
AMDTFORMULAUPDATEDISPATCHER
  2
AmdtFormulaUpdateDispatcher
  3
AcMeServices
 90
        0
280
     0
281
     0
  0
ENDSEC
  0
SECTION
  2
TABLES
  0
TABLE
  2
VPORT
  5
8
330
0
100
AcDbSymbolTable
 70
    16
  0
VPORT
  5
247B
330
8
100
AcDbSymbolTableRecord
100
AcDbViewportTableRecord
  2
*Active
 70
     0
 10
0.0
 20
0.0
 11
1.0
 21
1.0
 12
-3.032707165187446
 22
61.71353120655078
 13
0.0
 23
0.0
 14
5.0
 24
5.0
 15
5.0
 25
5.0
 16
0.0
 26
0.0
 36
1.0
 17
167.0600509472066
 27
97.50000045401975
 37
0.0
 40
128.0501788197326
 41
1.489721886336154
 42
50.0
 43
0.0
 44
0.0
 50
0.0
 51
0.0
 71
     0
 72
 20000
 73
     1
 74
     1
 75
     0
 76
     0
 77
     0
 78
     0
281
     0
 65
     0
110
0.0
120
0.0
130
0.0
111
1.0
121
0.0
131
0.0
112
0.0
122
1.0
132
0.0
 79
     0
146
0.0
  0
ENDTAB
  0
TABLE
  2
LTYPE
  5
5
330
0
100
AcDbSymbolTable
 70
    23
  0
LTYPE
  5
11
330
5
100
AcDbSymbolTableRecord
100
AcDbLinetypeTableRecord
  2
BYBLOCK
 70
     0
  3

 72
    65
 73
     0
 40
0.0
  0
LTYPE
  5
12
330
5
100
AcDbSymbolTableRecord
100
AcDbLinetypeTableRecord
  2
BYLAYER
 70
     0
  3

 72
    65
 73
     0
 40
0.0
  0
LTYPE
  5
13
330
5
100
AcDbSymbolTableRecord
100
AcDbLinetypeTableRecord
  2
CONTINUOUS
 70
     0
  3
Solid line
 72
    65
 73
     0
 40
0.0
  0
LTYPE
  5
1D
330
5
100
AcDbSymbolTableRecord
100
AcDbLinetypeTableRecord
  2
ITTEN1
 70
     0
  3

 72
    65
 73
     4
 40
8.199999999999999
 49
5.0
 74
     0
 49
-1.0
 74
     0
 49
1.199999999999999
 74
     0
 49
-1.0
 74
     0
  0
LTYPE
  5
1E
330
5
100
AcDbSymbolTableRecord
100
AcDbLinetypeTableRecord
  2
TENSEN2
 70
     0
  3

 72
    65
 73
     2
 40
2.1
 49
1.5
 74
     0
 49
-0.6
 74
     0
  0
LTYPE
  5
ACB
330
5
100
AcDbSymbolTableRecord
100
AcDbLinetypeTableRecord
  2
HIDDEN2
 70
     0
  3
Hidden (.5x) _ _ _ _ _ _ _ _ _ _ _ _ _ _ _ _ _
 72
    65
 73
     2
 40
0.1875
 49
0.125
 74
     0
 49
-0.0625
 74
     0
  0
LTYPE
  5
ACC
330
5
100
AcDbSymbolTableRecord
100
AcDbLinetypeTableRecord
  2
HIDDEN
 70
     0
  3
Hidden __ __ __ __ __ __ __ __ __ __ __ __ __ _
 72
    65
 73
     2
 40
0.375
 49
0.25
 74
     0
 49
-0.125
 74
     0
  0
LTYPE
  5
EA7
330
5
100
AcDbSymbolTableRecord
100
AcDbLinetypeTableRecord
  2
TENSEN3
 70
     0
  3

 72
    65
 73
     2
 40
4.0
 49
3.0
 74
     0
 49
-1.0
 74
     0
  0
LTYPE
  5
144F
330
5
100
AcDbSymbolTableRecord
100
AcDbLinetypeTableRecord
  2
PHANTOM2
 70
     0
  3
Phantom (.5x) ___ _ _ ___ _ _ ___ _ _ ___ _ _
 72
    65
 73
     6
 40
1.25
 49
0.625
 74
     0
 49
-0.125
 74
     0
 49
0.125
 74
     0
 49
-0.125
 74
     0
 49
0.125
 74
     0
 49
-0.125
 74
     0
  0
LTYPE
  5
1450
330
5
100
AcDbSymbolTableRecord
100
AcDbLinetypeTableRecord
  2
CENTER
 70
     0
  3
Center ____ _ ____ _ ____ _ ____ _ ____ _ ____
 72
    65
 73
     4
 40
2.0
 49
1.25
 74
     0
 49
-0.25
 74
     0
 49
0.25
 74
     0
 49
-0.25
 74
     0
  0
LTYPE
  5
14B2
330
5
100
AcDbSymbolTableRecord
100
AcDbLinetypeTableRecord
  2
ASULTYPE
 70
     0
  3
実線
 72
    65
 73
     2
 40
3.0
 49
2.5
 74
     0
 49
0.5
 74
     0
  0
LTYPE
  5
14B3
330
5
100
AcDbSymbolTableRecord
100
AcDbLinetypeTableRecord
  2
ASVLTYPE
 70
     0
  3
__ __ __ __ __ __ __ __ __ __ __ __ __ __ __ __ __ __ __ __ __
 72
    65
 73
     2
 40
0.75
 49
0.5
 74
     0
 49
-0.25
 74
     0
  0
LTYPE
  5
14F7
330
5
100
AcDbSymbolTableRecord
100
AcDbLinetypeTableRecord
  2
AM_ISO02W050
 70
     0
  3
__ __ __ __ __ __ __ __ __ __ __ __ __ __ __
 72
    65
 73
     2
 40
7.5
 49
6.0
 74
     0
 49
-1.5
 74
     0
  0
LTYPE
  5
14F8
330
5
100
AcDbSymbolTableRecord
100
AcDbLinetypeTableRecord
  2
AM_ISO08W050
 70
     0
  3
____ . ____ . ____ . ____ . ____ . ____ . ____
 72
    65
 73
     4
 40
18.0
 49
12.0
 74
     0
 49
-1.5
 74
     0
 49
3.0
 74
     0
 49
-1.5
 74
     0
  0
LTYPE
  5
14F9
330
5
100
AcDbSymbolTableRecord
100
AcDbLinetypeTableRecord
  2
AM_ISO09W050
 70
     0
  3
_____ . . _____ . . _____ . . ____ .. ____
 72
    65
 73
     6
 40
22.5
 49
12.0
 74
     0
 49
-1.5
 74
     0
 49
3.0
 74
     0
 49
-1.5
 74
     0
 49
3.0
 74
     0
 49
-1.5
 74
     0
  0
LTYPE
  5
14FA
330
5
100
AcDbSymbolTableRecord
100
AcDbLinetypeTableRecord
  2
Amconstr
 70
     0
  3
_______________________
 72
    65
 73
     2
 40
9999.0
 49
9999.0
 74
     0
 49
0.0
 74
     0
  0
LTYPE
  5
14FB
330
5
100
AcDbSymbolTableRecord
100
AcDbLinetypeTableRecord
  2
AM_ISO08W050x2
 70
     0
  3
__ . __ . __ . __ . __ . __
 72
    65
 73
     4
 40
9.0
 49
6.0
 74
     0
 49
-0.75
 74
     0
 49
1.5
 74
     0
 49
-0.75
 74
     0
  0
LTYPE
  5
14FC
330
5
100
AcDbSymbolTableRecord
100
AcDbLinetypeTableRecord
  2
AM_ISO02W050x2
 70
     0
  3
 _ _ _ _ _ _ _ _ _ _ _ _
 72
    65
 73
     2
 40
3.75
 49
3.0
 74
     0
 49
-0.75
 74
     0
  0
LTYPE
  5
14FD
330
5
100
AcDbSymbolTableRecord
100
AcDbLinetypeTableRecord
  2
Amzigzag
 70
     0
  3
/\/-/\/-/\/-/\/-/\/-/\/
 72
    65
 73
     2
 40
11.00009999999999
 49
0.0001
 74
     4
 75
   135
340
ACA
 46
0.04
 50
0.0
 44
0.0
 45
0.0
 49
-11.0
 74
     0
  0
LTYPE
  5
14FE
330
5
100
AcDbSymbolTableRecord
100
AcDbLinetypeTableRecord
  2
CENTER2
 70
     0
  3
Center (.5x) ___ _ ___ _ ___ _ ___ _ ___ _ ___
 72
    65
 73
     4
 40
1.125
 49
0.75
 74
     0
 49
-0.125
 74
     0
 49
0.125
 74
     0
 49
-0.125
 74
     0
  0
LTYPE
  5
14FF
330
5
100
AcDbSymbolTableRecord
100
AcDbLinetypeTableRecord
  2
Amzigzag2
 70
     0
  3
/\/-/\/-/\/-/\/-/\/-/\/
 72
    65
 73
     2
 40
0.4401
 49
0.0001
 74
     4
 75
   135
340
ACA
 46
0.0016
 50
0.0
 44
0.0
 45
0.0
 49
-0.4400000000000001
 74
     0
  0
LTYPE
  5
150D
330
5
100
AcDbSymbolTableRecord
100
AcDbLinetypeTableRecord
  2
ACANSTGB
 70
     0
  3
__ . . __ . .
 72
    65
 73
     6
 40
0.35433070866
 49
0.15748031496
 74
     0
 49
-0.03937007874
 74
     0
 49
0.03937007874
 74
     0
 49
-0.03937007874
 74
     0
 49
0.03937007874
 74
     0
 49
-0.03937007874
 74
     0
  0
LTYPE
  5
150E
330
5
100
AcDbSymbolTableRecord
100
AcDbLinetypeTableRecord
  2
ACANSTGL
 70
     0
  3
_ _ _ _ _
 72
    65
 73
     2
 40
0.11811023622
 49
0.07874015748
 74
     0
 49
-0.03937007874
 74
     0
  0
LTYPE
  5
1879
330
5
100
AcDbSymbolTableRecord
100
AcDbLinetypeTableRecord
  2
DASHED
 70
     0
  3
Dashed __ __ __ __ __ __ __ __ __ __ __ __ __ _
 72
    65
 73
     2
 40
0.75
 49
0.5
 74
     0
 49
-0.25
 74
     0
  0
LTYPE
  5
2093
330
5
100
AcDbSymbolTableRecord
100
AcDbLinetypeTableRecord
  2
DASHDOT
 70
     0
  3
__ . __ . __ .
 72
    65
 73
     4
 40
1.944736999999999
 49
0.9723679999999999
 74
     0
 49
-0.486184
 74
     0
 49
0.0
 74
     0
 49
-0.486184
 74
     0
  0
ENDTAB
  0
TABLE
  2
LAYER
  5
2
330
0
100
AcDbSymbolTable
 70
    11
  0
LAYER
  5
E
330
2
100
AcDbSymbolTableRecord
100
AcDbLayerTableRecord
  2
0
 70
     0
 62
     7
  6
CONTINUOUS
370
    30
390
141E
  0
LAYER
  5
22
330
2
100
AcDbSymbolTableRecord
100
AcDbLayerTableRecord
  2
1
 70
     0
 62
     1
  6
ITTEN1
370
    30
390
141E
  0
LAYER
  5
23
330
2
100
AcDbSymbolTableRecord
100
AcDbLayerTableRecord
  2
2
 70
     0
 62
     7
  6
TENSEN2
370
    30
390
141E
  0
LAYER
  5
24
330
2
100
AcDbSymbolTableRecord
100
AcDbLayerTableRecord
  2
3
 70
     0
 62
     5
  6
CONTINUOUS
370
    40
390
141E
  0
LAYER
  5
FD
330
2
100
AcDbSymbolTableRecord
100
AcDbLayerTableRecord
  2
画層3
 70
     0
 62
     3
  6
CONTINUOUS
370
    70
390
141E
  0
LAYER
  5
1AD
330
2
100
AcDbSymbolTableRecord
100
AcDbLayerTableRecord
  2
DEFPOINTS
 70
     0
 62
     1
  6
CONTINUOUS
290
     0
370
    50
390
141E
  0
LAYER
  5
2094
330
2
100
AcDbSymbolTableRecord
100
AcDbLayerTableRecord
  2
HALDER_NORMTEILE
 70
     0
 62
     1
  6
CONTINUOUS
370
    60
390
141E
  0
LAYER
  5
2095
330
2
100
AcDbSymbolTableRecord
100
AcDbLayerTableRecord
  2
HALDER_NORMTEILE_MITTELLINIE
 70
     0
 62
     1
  6
CONTINUOUS
370
    60
390
141E
  0
LAYER
  5
2122
330
2
100
AcDbSymbolTableRecord
100
AcDbLayerTableRecord
  2
HALDER_NORM
 70
     0
 62
     6
  6
CONTINUOUS
370
    50
390
141E
  0
LAYER
  5
2123
330
2
100
AcDbSymbolTableRecord
100
AcDbLayerTableRecord
  2
HALDER_MLINIE
 70
     0
 62
     7
  6
CONTINUOUS
370
    50
390
141E
  0
LAYER
  5
2124
330
2
100
AcDbSymbolTableRecord
100
AcDbLayerTableRecord
  2
HALDER_INFO
 70
     0
 62
     3
  6
CONTINUOUS
370
    50
390
141E
  0
ENDTAB
  0
TABLE
  2
STYLE
  5
3
330
0
100
AcDbSymbolTable
 70
     7
  0
STYLE
  5
F
330
3
100
AcDbSymbolTableRecord
100
AcDbTextStyleTableRecord
  2
STANDARD
 70
     0
 40
0.0
 41
1.0
 50
0.0
 71
     0
 42
0.2
  3
txt
  4

  0
STYLE
  5
1C
330
3
100
AcDbSymbolTableRecord
100
AcDbTextStyleTableRecord
  2
EXTFONT
 70
     0
 40
4.0
 41
0.75
 50
0.0
 71
     0
 42
4.0
  3
txt.shx
  4
extfont.shx
  0
STYLE
  5
FE
330
3
100
AcDbSymbolTableRecord
100
AcDbTextStyleTableRecord
  2
BIGFONT
 70
     0
 40
5.0
 41
0.7
 50
0.0
 71
     0
 42
5.0
  3
txt.shx
  4
bigfont.shx
  0
STYLE
  5
FF
330
3
100
AcDbSymbolTableRecord
100
AcDbTextStyleTableRecord
  2
ROMAND
 70
     0
 40
4.0
 41
0.6
 50
0.0
 71
     0
 42
4.0
  3
romand
  4

  0
STYLE
  5
ACA
330
3
100
AcDbSymbolTableRecord
100
AcDbTextStyleTableRecord
  2

 70
     1
 40
0.0
 41
1.0
 50
0.0
 71
     0
 42
4.0
  3
ltypeshp.shx
  4

  0
STYLE
  5
1500
330
3
100
AcDbSymbolTableRecord
100
AcDbTextStyleTableRecord
  2
ACANSTS
 70
     0
 40
1.0
 41
1.0
 50
0.0
 71
     0
 42
4.0
  3
romans.shx
  4
extfont.shx
  0
STYLE
  5
150C
330
3
100
AcDbSymbolTableRecord
100
AcDbTextStyleTableRecord
  2
ACANSGDT
 70
     0
 40
0.0
 41
1.0
 50
0.0
 71
     0
 42
4.0
  3
amgdtans.shx
  4

  0
ENDTAB
  0
TABLE
  2
VIEW
  5
6
330
0
100
AcDbSymbolTable
 70
     1
  0
VIEW
  5
1F
330
6
100
AcDbSymbolTableRecord
100
AcDbViewTableRecord
  2
OLE1
 70
     0
 40
20.07912148300116
 10
17.5
 20
10.03956074150058
 41
35.0
 11
0.0
 21
0.0
 31
1.0
 12
0.0
 22
0.0
 32
0.0
 42
50.0
 43
0.0
 44
0.0
 50
0.0
 71
     0
281
     0
 72
     0
  0
ENDTAB
  0
TABLE
  2
UCS
  5
7
330
0
100
AcDbSymbolTable
 70
     0
  0
ENDTAB
  0
TABLE
  2
APPID
  5
9
330
0
100
AcDbSymbolTable
 70
    13
  0
APPID
  5
10
330
9
100
AcDbSymbolTableRecord
100
AcDbRegAppTableRecord
  2
ACAD
 70
     0
  0
APPID
  5
142D
330
9
100
AcDbSymbolTableRecord
100
AcDbRegAppTableRecord
  2
GENIUS_GENDIM_13
 70
     0
  0
APPID
  5
142E
330
9
100
AcDbSymbolTableRecord
100
AcDbRegAppTableRecord
  2
GENIUS_GENDTOL_13
 70
     0
  0
APPID
  5
142F
330
9
100
AcDbSymbolTableRecord
100
AcDbRegAppTableRecord
  2
GENIUS_GE3DTOL_13
 70
     0
  0
APPID
  5
1432
330
9
100
AcDbSymbolTableRecord
100
AcDbRegAppTableRecord
  2
MCAD_NO_VIS
 70
     0
  0
APPID
  5
1433
330
9
100
AcDbSymbolTableRecord
100
AcDbRegAppTableRecord
  2
ACAD_TEMP_GRAPHIC
 70
     0
  0
APPID
  5
1465
330
9
100
AcDbSymbolTableRecord
100
AcDbRegAppTableRecord
  2
AD_DRAW
 70
     0
  0
APPID
  5
1468
330
9
100
AcDbSymbolTableRecord
100
AcDbRegAppTableRecord
  2
ACATTRIBSERVICES
 70
     0
  0
APPID
  5
14B4
330
9
100
AcDbSymbolTableRecord
100
AcDbRegAppTableRecord
  2
ASURF_PCURVE_APPNAME
 70
     0
  0
APPID
  5
14B9
330
9
100
AcDbSymbolTableRecord
100
AcDbRegAppTableRecord
  2
AMG_3D2D_5.0
 70
     0
  0
APPID
  5
14E4
330
9
100
AcDbSymbolTableRecord
100
AcDbRegAppTableRecord
  2
DESIGNERASSEMBLIES
 70
     0
  0
APPID
  5
14EC
330
9
100
AcDbSymbolTableRecord
100
AcDbRegAppTableRecord
  2
ACADM_DIM_EDIT
 70
     0
  0
APPID
  5
14ED
330
9
100
AcDbSymbolTableRecord
100
AcDbRegAppTableRecord
  2
AMDT_DM_ADJ
 70
     0
  0
ENDTAB
  0
TABLE
  2
DIMSTYLE
  5
A
330
0
100
AcDbSymbolTable
 70
     7
100
AcDbDimStyleTable
 71
     1
340
C7
  0
DIMSTYLE
105
C7
330
A
100
AcDbSymbolTableRecord
100
AcDbDimStyleTableRecord
  2
STANDARD
 70
     0
340
F
  0
DIMSTYLE
105
1512
330
A
100
AcDbSymbolTableRecord
100
AcDbDimStyleTableRecord
  2
AM_ANSI
 70
     0
  4
mm
 41
0.1
 42
0.05
 43
0.5
 44
0.1
 47
0.1
 48
0.1
 78
     7
 79
     2
140
0.12
141
0.0
146
0.71
147
0.06
176
   256
177
   256
178
     2
274
     4
284
     7
340
F
371
    -1
372
    -1
  0
DIMSTYLE
105
1513
330
A
100
AcDbSymbolTableRecord
100
AcDbDimStyleTableRecord
  2
AM_ANSI$3
 70
     0
  4
mm
 41
0.1
 42
0.05
 43
0.5
 44
0.1
 47
0.1
 48
0.1
 78
     7
 79
     2
140
0.12
141
0.0
146
0.71
147
0.06
176
   256
177
   256
178
     2
274
     4
284
     7
288
     1
289
     0
340
F
371
    -1
372
    -1
  0
DIMSTYLE
105
1514
330
A
100
AcDbSymbolTableRecord
100
AcDbDimStyleTableRecord
  2
AM_ANSI$4
 70
     0
  4
mm
 41
0.1
 42
0.05
 43
0.5
 44
0.1
 47
0.1
 48
0.1
 78
     7
 79
     2
140
0.12
141
0.0
146
0.71
147
0.06
176
   256
177
   256
178
     2
274
     4
284
     7
288
     1
289
     0
340
F
371
    -1
372
    -1
  0
DIMSTYLE
105
1515
330
A
100
AcDbSymbolTableRecord
100
AcDbDimStyleTableRecord
  2
AM_ANSI$7
 70
     0
  4
mm
 41
0.1
 42
0.05
 43
0.5
 44
0.1
 47
0.1
 48
0.1
 78
     7
 79
     2
140
0.24
141
0.0
146
0.71
147
0.06
176
   256
177
   256
178
     2
274
     4
284
     7
340
F
371
    -1
372
    -1
  0
DIMSTYLE
105
1516
330
A
100
AcDbSymbolTableRecord
100
AcDbDimStyleTableRecord
  2
AM_ANSI$SF
 70
     0
  4
mm
 41
0.1
 42
0.05
 43
0.5
 44
0.1
 47
0.1
 48
0.1
 75
     1
 76
     1
 78
     7
 79
     2
140
0.12
141
0.0
146
0.71
147
0.06
176
   256
177
   256
178
     2
274
     4
284
     7
340
F
371
    -1
372
    -1
  0
DIMSTYLE
105
151B
330
A
100
AcDbSymbolTableRecord
100
AcDbDimStyleTableRecord
  2
AM_ANSI$SH
 70
     0
  4
mm
 41
0.1
 42
0.05
 43
0.5
 44
0.1
 47
0.1
 48
0.1
 75
     1
 76
     1
 78
     7
 79
     2
140
0.12
141
0.0
146
0.71
147
0.06
173
     1
176
   256
177
   256
178
     2
274
     4
284
     7
340
F
343
1517
371
    -1
372
    -1
  0
ENDTAB
  0
TABLE
  2
BLOCK_RECORD
  5
1
330
0
100
AcDbSymbolTable
 70
    21
  0
BLOCK_RECORD
  5
17
102
{ACAD_XDICTIONARY
360
151F
102
}
330
1
100
AcDbSymbolTableRecord
100
AcDbBlockTableRecord
  2
*MODEL_SPACE
340
1421
  0
BLOCK_RECORD
  5
14
330
1
100
AcDbSymbolTableRecord
100
AcDbBlockTableRecord
  2
*PAPER_SPACE
340
1422
  0
BLOCK_RECORD
  5
CA
330
1
100
AcDbSymbolTableRecord
100
AcDbBlockTableRecord
  2
A$C68DE3FE8
340
0
102
{BLKREFS
331
101
102
}
  0
BLOCK_RECORD
  5
100
330
1
100
AcDbSymbolTableRecord
100
AcDbBlockTableRecord
  2
A$C4024530B
340
0
  0
BLOCK_RECORD
  5
EA8
330
1
100
AcDbSymbolTableRecord
100
AcDbBlockTableRecord
  2
A$C30FF2063
340
0
  0
BLOCK_RECORD
  5
140F
330
1
100
AcDbSymbolTableRecord
100
AcDbBlockTableRecord
  2
A$C6BA53EB0
340
0
  0
BLOCK_RECORD
  5
14DB
330
1
100
AcDbSymbolTableRecord
100
AcDbBlockTableRecord
  2
*U4
340
0
  0
BLOCK_RECORD
  5
1517
330
1
100
AcDbSymbolTableRecord
100
AcDbBlockTableRecord
  2
GENAXEH
340
0
  0
BLOCK_RECORD
  5
206F
330
1
100
AcDbSymbolTableRecord
100
AcDbBlockTableRecord
  2
A$C44914E06
340
0
  0
BLOCK_RECORD
  5
2211
330
1
100
AcDbSymbolTableRecord
100
AcDbBlockTableRecord
  2
*D7
340
0
  0
BLOCK_RECORD
  5
221F
330
1
100
AcDbSymbolTableRecord
100
AcDbBlockTableRecord
  2
*D8
340
0
  0
BLOCK_RECORD
  5
222D
330
1
100
AcDbSymbolTableRecord
100
AcDbBlockTableRecord
  2
*D9
340
0
  0
BLOCK_RECORD
  5
223B
330
1
100
AcDbSymbolTableRecord
100
AcDbBlockTableRecord
  2
*D10
340
0
  0
BLOCK_RECORD
  5
2249
330
1
100
AcDbSymbolTableRecord
100
AcDbBlockTableRecord
  2
*D11
340
0
  0
BLOCK_RECORD
  5
2257
330
1
100
AcDbSymbolTableRecord
100
AcDbBlockTableRecord
  2
*D12
340
0
  0
BLOCK_RECORD
  5
2285
330
1
100
AcDbSymbolTableRecord
100
AcDbBlockTableRecord
  2
*D13
340
0
  0
BLOCK_RECORD
  5
2293
330
1
100
AcDbSymbolTableRecord
100
AcDbBlockTableRecord
  2
*D14
340
0
  0
BLOCK_RECORD
  5
2393
330
1
100
AcDbSymbolTableRecord
100
AcDbBlockTableRecord
  2
*D15
340
0
  0
BLOCK_RECORD
  5
23A5
330
1
100
AcDbSymbolTableRecord
100
AcDbBlockTableRecord
  2
*D16
340
0
  0
BLOCK_RECORD
  5
23C2
330
1
100
AcDbSymbolTableRecord
100
AcDbBlockTableRecord
  2
*D17
340
0
  0
BLOCK_RECORD
  5
23D0
330
1
100
AcDbSymbolTableRecord
100
AcDbBlockTableRecord
  2
*D18
340
0
  0
BLOCK_RECORD
  5
23DE
330
1
100
AcDbSymbolTableRecord
100
AcDbBlockTableRecord
  2
*D19
340
0
  0
BLOCK_RECORD
  5
2462
330
1
100
AcDbSymbolTableRecord
100
AcDbBlockTableRecord
  2
*D20
340
0
  0
ENDTAB
  0
ENDSEC
  0
SECTION
  2
BLOCKS
  0
BLOCK
  5
27
330
17
100
AcDbEntity
  8
0
100
AcDbBlockBegin
  2
*MODEL_SPACE
 70
     0
 10
0.0
 20
0.0
 30
0.0
  3
*MODEL_SPACE
  1

  0
ENDBLK
  5
28
330
17
100
AcDbEntity
  8
0
100
AcDbBlockEnd
  0
BLOCK
  5
25
330
14
100
AcDbEntity
 67
     1
  8
0
100
AcDbBlockBegin
  2
*PAPER_SPACE
 70
     0
 10
0.0
 20
0.0
 30
0.0
  3
*PAPER_SPACE
  1

  0
ENDBLK
  5
26
330
14
100
AcDbEntity
 67
     1
  8
0
100
AcDbBlockEnd
  0
BLOCK
  5
FB
330
CA
100
AcDbEntity
  8
0
100
AcDbBlockBegin
  2
A$C68DE3FE8
 70
     0
 10
0.0
 20
0.0
 30
0.0
  3
A$C68DE3FE8
  1

  0
LWPOLYLINE
  5
CB
330
CA
100
AcDbEntity
  8
0
100
AcDbPolyline
 90
        4
 70
     1
 43
0.0
 10
0.0000002161276598
 20
195.0000000716074
 10
285.0000002161276
 20
195.0000000716074
 10
285.0000002161276
 20
0.0000000716074169
 10
0.0000002161276598
 20
0.0000000716074169
  0
LINE
  5
CC
330
CA
100
AcDbEntity
  8
0
100
AcDbLine
 10
90.00000021612766
 20
42.71294610258263
 30
0.0
 11
285.0000002161276
 21
42.71294610258263
 31
0.0
  0
LINE
  5
CD
330
CA
100
AcDbEntity
  8
0
100
AcDbLine
 10
90.00000021612766
 20
37.28470959483883
 30
0.0
 11
285.0000002161276
 21
37.28470959483883
 31
0.0
  0
LINE
  5
CE
330
CA
100
AcDbEntity
  8
0
100
AcDbLine
 10
90.00000021612766
 20
31.85647308709502
 30
0.0
 11
285.0000002161276
 21
31.85647308709502
 31
0.0
  0
LINE
  5
CF
330
CA
100
AcDbEntity
  8
0
100
AcDbLine
 10
89.98075111156977
 20
26.42823657935122
 30
0.0
 11
285.0000002161276
 21
26.42823657935122
 31
0.0
  0
LINE
  5
D0
330
CA
100
AcDbEntity
  8
0
100
AcDbLine
 10
90.00000021612766
 20
21.00000007160741
 30
0.0
 11
285.0000002161276
 21
21.00000007160741
 31
0.0
  0
LINE
  5
D1
330
CA
100
AcDbEntity
  8
0
100
AcDbLine
 10
285.0000002161276
 20
10.50000007160741
 30
0.0
 11
90.00000021612766
 21
10.50000007160741
 31
0.0
  0
LINE
  5
D2
330
CA
100
AcDbEntity
  8
0
100
AcDbLine
 10
90.00000021612766
 20
42.71294610258263
 30
0.0
 11
90.00000021612766
 21
0.0000000716074169
 31
0.0
  0
LINE
  5
D3
330
CA
100
AcDbEntity
  8
0
100
AcDbLine
 10
140.4010072213994
 20
42.71294610258262
 30
0.0
 11
140.4010072213994
 21
21.00000007160741
 31
0.0
  0
LINE
  5
D4
330
CA
100
AcDbEntity
  8
0
100
AcDbLine
 10
101.2519307400596
 20
42.71294610258262
 30
0.0
 11
101.2519307400596
 21
21.00000007160741
 31
0.0
  0
TEXT
  5
D5
330
CA
100
AcDbEntity
  8
0
100
AcDbText
 10
91.13061082802351
 20
7.819071718340994
 30
0.0
 40
2.274999999999999
  1
CODE NO. （製番）
 41
0.55
  7
BIGFONT
100
AcDbText
  0
TEXT
  5
D6
330
CA
100
AcDbEntity
  8
0
100
AcDbText
 10
91.13157429174789
 20
17.73603830962859
 30
0.0
 40
2.274999999999999
  1
TITLE (品名）
 41
0.55
  7
BIGFONT
100
AcDbText
  0
TEXT
  5
D7
330
CA
100
AcDbEntity
  8
0
100
AcDbText
 10
94.12769205217021
 20
22.79461019572312
 30
0.0
 40
2.099999999999999
  1
No,
 41
0.4
  7
BIGFONT
100
AcDbText
  0
LINE
  5
D8
330
CA
100
AcDbEntity
  8
0
100
AcDbLine
 10
127.7351296241229
 20
10.50000007160741
 30
0.0
 11
127.7351296241229
 21
0.0000000716074169
 31
0.0
  0
TEXT
  5
D9
330
CA
100
AcDbEntity
  8
0
100
AcDbText
 10
116.447026758891
 20
22.48916561776896
 30
0.0
 40
2.099999999999999
  1
（名称）
 41
0.7
  7
BIGFONT
100
AcDbText
  0
TEXT
  5
DA
330
CA
100
AcDbEntity
  8
0
100
AcDbText
 10
112.4714234789448
 20
22.51575023899671
 30
0.0
 40
2.099999999999999
  1
NAME
 41
0.4
  7
BIGFONT
100
AcDbText
  0
TEXT
  5
DB
330
CA
100
AcDbEntity
  8
0
100
AcDbText
 10
128.7806141458643
 20
17.89121385038556
 30
0.0
 40
2.274999999999999
  1
MODEL
 41
0.55
  7
BIGFONT
100
AcDbText
  0
TEXT
  5
DC
330
CA
100
AcDbEntity
  8
0
100
AcDbText
 10
128.4725112995602
 20
7.890430701620723
 30
0.0
 40
2.274999999999999
  1
DATE （作成日）
 41
0.55
  7
BIGFONT
100
AcDbText
  0
LINE
  5
DD
330
CA
100
AcDbEntity
  8
0
100
AcDbLine
 10
127.7351296241229
 20
21.00000007160741
 30
0.0
 11
127.7351296241229
 21
10.50000007160741
 31
0.0
  0
TEXT
  5
DE
330
CA
100
AcDbEntity
  8
0
100
AcDbText
 10
136.0062282693194
 20
17.95641921384447
 30
0.0
 40
2.274999999999999
  1
（品番）
 41
0.55
  7
BIGFONT
100
AcDbText
  0
TEXT
  5
DF
330
CA
100
AcDbEntity
  8
0
100
AcDbText
 10
214.8779109852024
 20
2.38728004017732
 30
0.0
 40
5.459999999999999
  1
KONISHI MFG CO,.LTD
 41
0.6
  7
ROMAND
100
AcDbText
  0
LINE
  5
E0
330
CA
100
AcDbEntity
  8
0
100
AcDbLine
 10
181.2772492370049
 20
42.71294610258262
 30
0.0
 11
181.2772492370049
 21
21.00000007160741
 31
0.0
  0
TEXT
  5
E1
330
CA
100
AcDbEntity
  8
0
100
AcDbText
 10
172.1214333074024
 20
7.383490217008832
 30
0.0
 40
2.274999999999999
  1
APPROVAL （承認）
 41
0.55
  7
BIGFONT
100
AcDbText
  0
LINE
  5
E2
330
CA
100
AcDbEntity
  8
0
100
AcDbLine
 10
171.2000002161276
 20
10.50000007160741
 30
0.0
 11
171.2000002161276
 21
0.0000000716074169
 31
0.0
  0
LINE
  5
E3
330
CA
100
AcDbEntity
  8
0
100
AcDbLine
 10
155.8000002161276
 20
10.50000007160741
 30
0.0
 11
155.8000002161276
 21
0.0000000716074169
 31
0.0
  0
TEXT
  5
E4
330
CA
100
AcDbEntity
  8
0
100
AcDbText
 10
160.0891829470022
 20
22.79042501763866
 30
0.0
 40
2.099999999999999
  1
（寸法）
 41
0.7
  7
BIGFONT
100
AcDbText
  0
TEXT
  5
E5
330
CA
100
AcDbEntity
  8
0
100
AcDbText
 10
156.1820341746486
 20
7.818140944004433
 30
0.0
 40
2.274999999999999
  1
DNS/INS （製図）
 41
0.55
  7
BIGFONT
100
AcDbText
  0
TEXT
  5
E6
330
CA
100
AcDbEntity
  8
0
100
AcDbText
 10
156.1135796670562
 20
22.72969868571499
 30
0.0
 40
2.099999999999999
  1
SIZE
 41
0.4
  7
BIGFONT
100
AcDbText
  0
TEXT
  5
E7
330
CA
100
AcDbEntity
  8
0
100
AcDbText
 10
171.1445471539212
 20
17.55347576219018
 30
0.0
 40
2.099999999999999
  1
FINISH　(仕上)
 41
0.4
  7
BIGFONT
100
AcDbText
  0
LINE
  5
E8
330
CA
100
AcDbEntity
  8
0
100
AcDbLine
 10
169.7628153292385
 20
21.00000007160741
 30
0.0
 11
169.7628153292385
 21
10.50000007160741
 31
0.0
  0
LINE
  5
E9
330
CA
100
AcDbEntity
  8
0
100
AcDbLine
 10
213.2000002161276
 20
10.50000007160741
 30
0.0
 11
213.2000002161276
 21
0.0000000716074169
 31
0.0
  0
LINE
  5
EA
330
CA
100
AcDbEntity
  8
0
100
AcDbLine
 10
190.1000002161276
 20
10.50000007160741
 30
0.0
 11
190.1000002161276
 21
0.0000000716074169
 31
0.0
  0
TEXT
  5
EB
330
CA
100
AcDbEntity
  8
0
100
AcDbText
 10
191.2179109852024
 20
5.047280040177323
 30
0.0
 40
3.639999999999999
  1
:MILLIMETERS
 41
0.55
  7
BIGFONT
100
AcDbText
  0
TEXT
  5
EC
330
CA
100
AcDbEntity
  8
0
100
AcDbText
 10
200.3179109852024
 20
1.407280040177326
 30
0.0
 40
2.274999999999999
  1
（単位：ミリ）
 41
0.55
  7
BIGFONT
100
AcDbText
  0
TEXT
  5
ED
330
CA
100
AcDbEntity
  8
0
100
AcDbText
 10
200.0468833255818
 20
22.63875611484193
 30
0.0
 40
2.274999999999999
  1
MATERIAL （材質）
 41
0.55
  7
BIGFONT
 11
200.0468833255818
 21
22.3354227815086
 31
0.0
100
AcDbText
 73
     1
  0
LINE
  5
EE
330
CA
100
AcDbEntity
  8
0
100
AcDbLine
 10
259.5754029465187
 20
42.71294610258263
 30
0.0
 11
259.5754029465187
 21
21.00000007160741
 31
0.0
  0
LINE
  5
EF
330
CA
100
AcDbEntity
  8
0
100
AcDbLine
 10
231.9407611197792
 20
42.71294610258262
 30
0.0
 11
231.9407611197793
 21
21.00000007160741
 31
0.0
  0
TEXT
  5
F0
330
CA
100
AcDbEntity
  8
0
100
AcDbText
 10
270.2838280640299
 20
23.46902700096858
 30
0.0
 40
2.099999999999999
  1
REMARKS　（備考）
 41
0.4
  7
BIGFONT
100
AcDbText
  0
TEXT
  5
F1
330
CA
100
AcDbEntity
  8
0
100
AcDbText
 10
268.7079109852023
 20
1.295280040177318
 30
0.0
 40
3.184999999999999
  1
    JAPAN
 41
0.5
  7
EXTFONT
100
AcDbText
  0
TEXT
  5
F2
330
CA
100
AcDbEntity
  8
0
100
AcDbText
 10
271.5079109852024
 20
6.23728004017732
 30
0.0
 40
3.184999999999999
  1
IN NAGOYA
 41
0.5
  7
EXTFONT
100
AcDbText
  0
TEXT
  5
F3
330
CA
100
AcDbEntity
  8
0
100
AcDbText
 10
270.603886373741
 20
18.19481354381761
 30
0.0
 40
2.274999999999999
  1
SCALE （尺度）
 41
0.55
  7
BIGFONT
100
AcDbText
  0
TEXT
  5
F4
330
CA
100
AcDbEntity
  8
0
100
AcDbText
 10
237.3406628473051
 20
17.61036152353155
 30
0.0
 40
2.274999999999999
  1
WEIGHT （質量）
 41
0.55
  7
BIGFONT
100
AcDbText
  0
LINE
  5
F5
330
CA
100
AcDbEntity
  8
0
100
AcDbLine
 10
231.9407611197793
 20
21.00000007160741
 30
0.0
 11
231.9407611197793
 21
10.50000007160741
 31
0.0
  0
TEXT
  5
F6
330
CA
100
AcDbEntity
  8
0
100
AcDbText
 10
240.4603323731351
 20
22.83157786222305
 30
0.0
 40
2.099999999999999
  1
SEVERAL
 41
0.4
  7
BIGFONT
100
AcDbText
  0
TEXT
  5
F7
330
CA
100
AcDbEntity
  8
0
100
AcDbText
 10
246.8119640764879
 20
22.79096619111898
 30
0.0
 40
2.099999999999999
  1
（数量）
 41
0.7
  7
BIGFONT
100
AcDbText
  0
TEXT
  5
F8
330
CA
100
AcDbEntity
  8
0
100
AcDbText
 10
260.8143475880365
 20
18.12960818035869
 30
0.0
 40
2.274999999999999
  1
DRAWING
 41
0.55
  7
BIGFONT
100
AcDbText
  0
LINE
  5
F9
330
CA
100
AcDbEntity
  8
0
100
AcDbLine
 10
259.5754029465187
 20
21.00000007160741
 30
0.0
 11
259.5754029465187
 21
10.50000007160741
 31
0.0
  0
TEXT
  5
FA
330
CA
100
AcDbEntity
  8
0
100
AcDbText
 10
267.5881817230274
 20
12.14433941488985
 30
0.0
 40
3.5
  1
１／１
 41
0.7
  7
BIGFONT
100
AcDbText
  0
ENDBLK
  5
FC
330
CA
100
AcDbEntity
  8
0
100
AcDbBlockEnd
  0
BLOCK
  5
102
330
100
100
AcDbEntity
  8
0
100
AcDbBlockBegin
  2
A$C4024530B
 70
     0
 10
0.0
 20
0.0
 30
0.0
  3
A$C4024530B
  1

  0
INSERT
  5
101
330
100
100
AcDbEntity
  8
0
100
AcDbBlockReference
  2
A$C68DE3FE8
 10
-0.000000247762955
 20
0.000000146155287
 30
0.0
  0
ENDBLK
  5
103
330
100
100
AcDbEntity
  8
0
100
AcDbBlockEnd
  0
BLOCK
  5
EDC
330
EA8
100
AcDbEntity
  8
0
100
AcDbBlockBegin
  2
A$C30FF2063
 70
     0
 10
0.0
 20
0.0
 30
0.0
  3
A$C30FF2063
  1

  0
LINE
  5
EA9
330
EA8
100
AcDbEntity
  8
3
100
AcDbLine
 10
94.74999966344809
 20
34.75000017640366
 30
0.0
 11
78.24999966344808
 21
35.25000017640365
 31
0.0
  0
LINE
  5
EAA
330
EA8
100
AcDbEntity
  8
3
100
AcDbLine
 10
94.74999966344809
 20
16.75000017640366
 30
0.0
 11
78.24999966344808
 21
16.25000017640366
 31
0.0
  0
LINE
  5
EAB
330
EA8
100
AcDbEntity
  8
1
100
AcDbLine
 10
63.24999966344808
 20
25.75000017640366
 30
0.0
 11
98.74999966344809
 21
25.75000017640366
 31
0.0
  0
ARC
  5
EAC
330
EA8
100
AcDbEntity
  8
3
100
AcDbCircle
 10
25.24999966344807
 20
25.75000017640366
 30
0.0
 40
21.0
100
AcDbArc
 50
84.53497620009413
 51
95.46502379990583
  0
ARC
  5
EAD
330
EA8
100
AcDbEntity
  8
3
100
AcDbCircle
 10
25.24999966344807
 20
25.75000017640366
 30
0.0
 40
21.0
100
AcDbArc
 50
264.5349762000941
 51
275.4650237999058
  0
CIRCLE
  5
EAE
330
EA8
100
AcDbEntity
  8
3
100
AcDbCircle
 10
25.24999966344807
 20
25.75000017640366
 30
0.0
 40
9.0
  0
CIRCLE
  5
EAF
330
EA8
100
AcDbEntity
  8
0
100
AcDbCircle
 10
25.24999966344807
 20
25.75000017640366
 30
0.0
 40
7.0
  0
LINE
  5
EB0
330
EA8
100
AcDbEntity
  8
1
100
AcDbLine
 10
-0.0000003365519206
 20
25.75000017640366
 30
0.0
 11
49.74999966344808
 21
25.75000017640366
 31
0.0
  0
ARC
  5
EB1
330
EA8
100
AcDbEntity
  8
3
100
AcDbCircle
 10
11.32398626283317
 20
49.87056293315373
 30
0.0
 40
12.35202680122983
100
AcDbArc
 50
255.0916361972903
 51
344.9083638027096
  0
ARC
  5
EB2
330
EA8
100
AcDbEntity
  8
3
100
AcDbCircle
 10
11.32398626283316
 20
1.629437419653584
 30
0.0
 40
12.35202680122983
100
AcDbArc
 50
15.09163619729035
 51
104.9083638027096
  0
ARC
  5
EB3
330
EA8
100
AcDbEntity
  8
3
100
AcDbCircle
 10
25.24999966344807
 20
25.75000017640366
 30
0.0
 40
21.0
100
AcDbArc
 50
144.5349762000941
 51
155.4650237999056
  0
ARC
  5
EB4
330
EA8
100
AcDbEntity
  8
3
100
AcDbCircle
 10
-2.602027137781689
 20
25.75000017640368
 30
0.0
 40
12.35202680122983
100
AcDbArc
 50
315.0916361972903
 51
44.90836380270967
  0
ARC
  5
EB5
330
EA8
100
AcDbEntity
  8
3
100
AcDbCircle
 10
25.24999966344807
 20
25.75000017640366
 30
0.0
 40
21.0
100
AcDbArc
 50
204.5349762000942
 51
215.4650237999058
  0
LINE
  5
EB6
330
EA8
100
AcDbEntity
  8
1
100
AcDbLine
 10
25.24999966344807
 20
51.00000017640366
 30
0.0
 11
25.24999966344807
 21
0.0000001764036597
 31
0.0
  0
ARC
  5
EB7
330
EA8
100
AcDbEntity
  8
3
100
AcDbCircle
 10
39.176013064063
 20
49.87056293315373
 30
0.0
 40
12.35202680122983
100
AcDbArc
 50
195.0916361972902
 51
284.9083638027097
  0
ARC
  5
EB8
330
EA8
100
AcDbEntity
  8
3
100
AcDbCircle
 10
25.24999966344807
 20
25.75000017640366
 30
0.0
 40
21.0
100
AcDbArc
 50
24.53497620009415
 51
35.46502379990585
  0
ARC
  5
EB9
330
EA8
100
AcDbEntity
  8
3
100
AcDbCircle
 10
39.17601306406295
 20
1.629437419653555
 30
0.0
 40
12.35202680122983
100
AcDbArc
 50
75.09163619729031
 51
164.9083638027097
  0
ARC
  5
EBA
330
EA8
100
AcDbEntity
  8
3
100
AcDbCircle
 10
25.24999966344807
 20
25.75000017640366
 30
0.0
 40
21.0
100
AcDbArc
 50
324.534976200094
 51
335.4650237999058
  0
ARC
  5
EBB
330
EA8
100
AcDbEntity
  8
3
100
AcDbCircle
 10
53.10202646467789
 20
25.75000017640363
 30
0.0
 40
12.35202680122983
100
AcDbArc
 50
135.0916361972902
 51
224.9083638027097
  0
LINE
  5
EBC
330
EA8
100
AcDbEntity
  8
3
100
AcDbLine
 10
78.24999966344808
 20
25.75000017640366
 30
0.0
 11
78.24999966344808
 21
46.75000017640366
 31
0.0
  0
ARC
  5
EBD
330
EA8
100
AcDbEntity
  8
2
100
AcDbCircle
 10
78.83333299678142
 20
37.25000017640366
 30
0.0
 40
2.083333333333336
100
AcDbArc
 50
106.2602047083122
 51
253.7397952916877
  0
LINE
  5
EBE
330
EA8
100
AcDbEntity
  8
3
100
AcDbLine
 10
67.24999966344808
 20
46.75000017640366
 30
0.0
 11
67.24999966344808
 21
25.75000017640366
 31
0.0
  0
ARC
  5
EBF
330
EA8
100
AcDbEntity
  8
3
100
AcDbCircle
 10
66.78124966344808
 20
20.18750017640365
 30
0.0
 40
3.469313017371018
100
AcDbArc
 50
277.7651660184253
 51
1.032244691565732
  0
ARC
  5
EC0
330
EA8
100
AcDbEntity
  8
2
100
AcDbCircle
 10
66.78124966344808
 20
31.31250017640366
 30
0.0
 40
3.469313017371018
100
AcDbArc
 50
358.9677553084342
 51
82.23483398157464
  0
LINE
  5
EC1
330
EA8
100
AcDbEntity
  8
3
100
AcDbLine
 10
67.24999966344807
 20
34.47022184901823
 30
0.0
 11
78.24999966344808
 21
34.47022184901825
 31
0.0
  0
LINE
  5
EC2
330
EA8
100
AcDbEntity
  8
3
100
AcDbLine
 10
78.24999966344808
 20
4.750000176403659
 30
0.0
 11
67.24999966344808
 21
4.750000176403659
 31
0.0
  0
LINE
  5
EC3
330
EA8
100
AcDbEntity
  8
3
100
AcDbLine
 10
67.24999966344808
 20
4.750000176403659
 30
0.0
 11
67.24999966344808
 21
25.75000017640366
 31
0.0
  0
ARC
  5
EC4
330
EA8
100
AcDbEntity
  8
3
100
AcDbCircle
 10
78.83333299678142
 20
14.25000017640366
 30
0.0
 40
2.083333333333336
100
AcDbArc
 50
106.2602047083122
 51
253.7397952916877
  0
LINE
  5
EC5
330
EA8
100
AcDbEntity
  8
3
100
AcDbLine
 10
78.24999966344808
 20
16.25000017640366
 30
0.0
 11
78.24999966344808
 21
4.750000176403659
 31
0.0
  0
LINE
  5
EC6
330
EA8
100
AcDbEntity
  8
3
100
AcDbLine
 10
70.24999966344807
 20
20.12500017640366
 30
0.0
 11
70.24999966344807
 21
25.75000017640366
 31
0.0
  0
LINE
  5
EC7
330
EA8
100
AcDbEntity
  8
2
100
AcDbLine
 10
70.24999966344807
 20
31.25000017640366
 30
0.0
 11
70.24999966344807
 21
25.75000017640366
 31
0.0
  0
LINE
  5
EC8
330
EA8
100
AcDbEntity
  8
3
100
AcDbLine
 10
78.24999966344808
 20
46.75000017640366
 30
0.0
 11
67.24999966344808
 21
46.75000017640366
 31
0.0
  0
LINE
  5
EC9
330
EA8
100
AcDbEntity
  8
3
100
AcDbLine
 10
67.24999966344808
 20
37.93432346415596
 30
0.0
 11
78.24999966344808
 21
37.93432346415596
 31
0.0
  0
ARC
  5
ECA
330
EA8
100
AcDbEntity
  8
3
100
AcDbCircle
 10
158.1760130640629
 20
1.629437419653555
 30
0.0
 40
12.35202680122983
100
AcDbArc
 50
75.09163619729031
 51
164.9083638027097
  0
ARC
  5
ECB
330
EA8
100
AcDbEntity
  8
3
100
AcDbCircle
 10
158.1760130640629
 20
49.87056293315373
 30
0.0
 40
12.35202680122983
100
AcDbArc
 50
195.0916361972902
 51
284.9083638027097
  0
LINE
  5
ECC
330
EA8
100
AcDbEntity
  8
1
100
AcDbLine
 10
118.999999663448
 20
25.75000017640366
 30
0.0
 11
168.749999663448
 21
25.75000017640366
 31
0.0
  0
CIRCLE
  5
ECD
330
EA8
100
AcDbEntity
  8
0
100
AcDbCircle
 10
144.249999663448
 20
25.75000017640366
 30
0.0
 40
7.0
  0
CIRCLE
  5
ECE
330
EA8
100
AcDbEntity
  8
3
100
AcDbCircle
 10
144.249999663448
 20
25.75000017640366
 30
0.0
 40
9.0
  0
ARC
  5
ECF
330
EA8
100
AcDbEntity
  8
3
100
AcDbCircle
 10
144.249999663448
 20
25.75000017640366
 30
0.0
 40
21.0
100
AcDbArc
 50
264.5349762000941
 51
275.4650237999058
  0
ARC
  5
ED0
330
EA8
100
AcDbEntity
  8
3
100
AcDbCircle
 10
144.249999663448
 20
25.75000017640366
 30
0.0
 40
21.0
100
AcDbArc
 50
84.53497620009413
 51
95.46502379990583
  0
LINE
  5
ED1
330
EA8
100
AcDbEntity
  8
3
100
AcDbLine
 10
94.74999966344809
 20
25.75000017640366
 30
0.0
 11
94.74999966344809
 21
16.75000017640366
 31
0.0
  0
LINE
  5
ED2
330
EA8
100
AcDbEntity
  8
3
100
AcDbLine
 10
94.74999966344809
 20
25.75000017640366
 30
0.0
 11
94.74999966344809
 21
34.75000017640366
 31
0.0
  0
LINE
  5
ED3
330
EA8
100
AcDbEntity
  8
1
100
AcDbLine
 10
144.249999663448
 20
51.00000017640366
 30
0.0
 11
144.249999663448
 21
0.0000001764036597
 31
0.0
  0
ARC
  5
ED4
330
EA8
100
AcDbEntity
  8
3
100
AcDbCircle
 10
144.249999663448
 20
25.75000017640366
 30
0.0
 40
21.0
100
AcDbArc
 50
144.5349762000941
 51
155.4650237999056
  0
ARC
  5
ED5
330
EA8
100
AcDbEntity
  8
3
100
AcDbCircle
 10
130.3239862628331
 20
49.87056293315373
 30
0.0
 40
12.35202680122983
100
AcDbArc
 50
255.0916361972903
 51
344.9083638027096
  0
ARC
  5
ED6
330
EA8
100
AcDbEntity
  8
3
100
AcDbCircle
 10
130.3239862628331
 20
1.629437419653584
 30
0.0
 40
12.35202680122983
100
AcDbArc
 50
15.09163619729035
 51
104.9083638027096
  0
ARC
  5
ED7
330
EA8
100
AcDbEntity
  8
3
100
AcDbCircle
 10
144.249999663448
 20
25.75000017640366
 30
0.0
 40
21.0
100
AcDbArc
 50
204.5349762000942
 51
215.4650237999058
  0
ARC
  5
ED8
330
EA8
100
AcDbEntity
  8
3
100
AcDbCircle
 10
116.3979728622182
 20
25.75000017640368
 30
0.0
 40
12.35202680122983
100
AcDbArc
 50
315.0916361972903
 51
44.90836380270967
  0
ARC
  5
ED9
330
EA8
100
AcDbEntity
  8
3
100
AcDbCircle
 10
144.249999663448
 20
25.75000017640366
 30
0.0
 40
21.0
100
AcDbArc
 50
24.53497620009415
 51
35.46502379990585
  0
ARC
  5
EDA
330
EA8
100
AcDbEntity
  8
3
100
AcDbCircle
 10
172.1020264646778
 20
25.75000017640363
 30
0.0
 40
12.35202680122983
100
AcDbArc
 50
135.0916361972902
 51
224.9083638027097
  0
ARC
  5
EDB
330
EA8
100
AcDbEntity
  8
3
100
AcDbCircle
 10
144.249999663448
 20
25.75000017640366
 30
0.0
 40
21.0
100
AcDbArc
 50
324.534976200094
 51
335.4650237999058
  0
ENDBLK
  5
EDD
330
EA8
100
AcDbEntity
  8
0
100
AcDbBlockEnd
  0
BLOCK
  5
1413
330
140F
100
AcDbEntity
  8
0
100
AcDbBlockBegin
  2
A$C6BA53EB0
 70
     0
 10
0.0
 20
0.0
 30
0.0
  3
A$C6BA53EB0
  1

  0
TEXT
  5
1410
330
140F
100
AcDbEntity
  8
0
100
AcDbText
 10
1.850000263595006
 20
-0.0000000551569883
 30
0.0
 40
4.0
  1
H12.6.1
 41
0.75
  7
EXTFONT
100
AcDbText
  0
TEXT
  5
1411
330
140F
100
AcDbEntity
  8
0
100
AcDbText
 10
-0.3999997364049932
 20
6.399999944843012
 30
0.0
 40
4.0
  1
バフ研磨＋ｸﾛｰﾑﾒｯｷ
 41
0.75
  7
EXTFONT
100
AcDbText
  0
TEXT
  5
1412
330
140F
100
AcDbEntity
  8
0
100
AcDbText
 10
1.350000263595006
 20
11.84999994484301
 30
0.0
 40
4.0
  1
つり合いハンドル
 41
0.75
  7
EXTFONT
100
AcDbText
  0
ENDBLK
  5
1414
330
140F
100
AcDbEntity
  8
0
100
AcDbBlockEnd
  0
BLOCK
  5
14DC
330
14DB
100
AcDbEntity
  8
0
100
AcDbBlockBegin
  2
*U4
 70
     1
 10
0.0
 20
0.0
 30
0.0
  3
*U4
  1

  0
ENDBLK
  5
14DD
330
14DB
100
AcDbEntity
  8
0
100
AcDbBlockEnd
  0
BLOCK
  5
1519
330
1517
100
AcDbEntity
  8
0
100
AcDbBlockBegin
  2
GENAXEH
 70
     0
 10
0.0
 20
0.0
 30
0.0
  3
GENAXEH
  1

  0
LINE
  5
1518
330
1517
100
AcDbEntity
  8
0
100
AcDbLine
 10
-1.0
 20
0.0
 30
0.0
 11
1.0
 21
0.0
 31
0.0
  0
ENDBLK
  5
151A
330
1517
100
AcDbEntity
  8
0
100
AcDbBlockEnd
  0
BLOCK
  5
2091
330
206F
100
AcDbEntity
  8
0
100
AcDbBlockBegin
  2
A$C44914E06
 70
     0
 10
0.0
 20
0.0
 30
0.0
  3
A$C44914E06
  1

  0
ARC
  5
2070
330
206F
100
AcDbEntity
  8
HALDER_NORMTEILE
 62
     7
100
AcDbCircle
 10
26.679338
 20
42.09999999999999
 30
0.0
 40
9.0
100
AcDbArc
 50
197.0
 51
270.0
  0
ARC
  5
2071
330
206F
100
AcDbEntity
  8
HALDER_NORMTEILE
 62
     7
100
AcDbCircle
 10
26.679338
 20
8.099999999999999
 30
0.0
 40
9.0
100
AcDbArc
 50
90.0
 51
163.0
  0
LINE
  5
2072
330
206F
100
AcDbEntity
  8
HALDER_NORMTEILE_MITTELLINIE
  6
DASHDOT
 62
     2
100
AcDbLine
 10
0.0
 20
25.1
 30
0.0
 11
39.2
 21
25.1
 31
0.0
  0
CIRCLE
  5
2073
330
206F
100
AcDbEntity
  8
HALDER_NORMTEILE
 62
     7
100
AcDbCircle
 10
14.1
 20
25.1
 30
0.0
 40
7.9
  0
CIRCLE
  5
2074
330
206F
100
AcDbEntity
  8
HALDER_NORMTEILE
  6
DASHED
 62
     3
100
AcDbCircle
 10
14.1
 20
25.1
 30
0.0
 40
5.0
  0
ARC
  5
2075
330
206F
100
AcDbEntity
  8
HALDER_NORMTEILE
 62
     7
100
AcDbCircle
 10
14.1
 20
25.1
 30
0.0
 40
12.5
100
AcDbArc
 50
159.250758
 51
200.7492419999999
  0
LINE
  5
2076
330
206F
100
AcDbEntity
  8
HALDER_NORMTEILE_MITTELLINIE
  6
DASHDOT
 62
     2
100
AcDbLine
 10
14.1
 20
50.2
 30
0.0
 11
14.1
 21
0.0
 31
0.0
  0
ARC
  5
2077
330
206F
100
AcDbEntity
  8
HALDER_NORMTEILE
 62
     7
100
AcDbCircle
 10
14.1
 20
25.1
 30
0.0
 40
23.5
100
AcDbArc
 50
235.8152039999999
 51
270.184796
  0
ARC
  5
2078
330
206F
100
AcDbEntity
  8
HALDER_NORMTEILE
 62
     2
100
AcDbCircle
 10
14.1
 20
25.1
 30
0.0
 40
19.6
100
AcDbArc
 50
228.910494
 51
277.089506
  0
LINE
  5
2079
330
206F
100
AcDbEntity
  8
HALDER_NORMTEILE
 62
     7
100
AcDbLine
 10
2.601234999999999
 20
14.851663
 30
0.0
 11
0.304537
 21
7.339503999999998
 31
0.0
  0
ARC
  5
207A
330
206F
100
AcDbEntity
  8
HALDER_NORMTEILE
 62
     7
100
AcDbCircle
 10
1.738995
 20
6.900947
 30
0.0
 40
1.5
100
AcDbArc
 50
163.0
 51
235.8152039999999
  0
ARC
  5
207B
330
206F
100
AcDbEntity
  8
HALDER_NORMTEILE
 62
     7
100
AcDbCircle
 10
-6.005507999999999
 20
17.483009
 30
0.0
 40
9.0
100
AcDbArc
 50
343.0
 51
20.749242
  0
LINE
  5
207C
330
206F
100
AcDbEntity
  8
HALDER_NORMTEILE
 62
     7
100
AcDbLine
 10
15.605414
 20
2.661557
 30
0.0
 11
18.07259499999999
 21
10.73134499999999
 31
0.0
  0
ARC
  5
207D
330
206F
100
AcDbEntity
  8
HALDER_NORMTEILE
 62
     7
100
AcDbCircle
 10
14.170956
 20
3.100114
 30
0.0
 40
1.5
100
AcDbArc
 50
270.184796
 51
343.0
  0
ARC
  5
207E
330
206F
100
AcDbEntity
  8
HALDER_NORMTEILE
 62
     7
100
AcDbCircle
 10
14.1
 20
25.1
 30
0.0
 40
23.5
100
AcDbArc
 50
89.81520400000002
 51
124.1847959999999
  0
ARC
  5
207F
330
206F
100
AcDbEntity
  8
HALDER_NORMTEILE
 62
     2
100
AcDbCircle
 10
14.1
 20
25.1
 30
0.0
 40
19.6
100
AcDbArc
 50
82.910494
 51
131.089506
  0
LINE
  5
2080
330
206F
100
AcDbEntity
  8
HALDER_NORMTEILE
 62
     7
100
AcDbLine
 10
2.601234999999999
 20
35.348337
 30
0.0
 11
0.304537
 21
42.86049600000001
 31
0.0
  0
ARC
  5
2081
330
206F
100
AcDbEntity
  8
HALDER_NORMTEILE
 62
     7
100
AcDbCircle
 10
-6.005507999999999
 20
32.716991
 30
0.0
 40
9.0
100
AcDbArc
 50
339.250758
 51
17.0
  0
ARC
  5
2082
330
206F
100
AcDbEntity
  8
HALDER_NORMTEILE
 62
     7
100
AcDbCircle
 10
1.738995
 20
43.299053
 30
0.0
 40
1.5
100
AcDbArc
 50
124.1847959999999
 51
197.0
  0
LINE
  5
2083
330
206F
100
AcDbEntity
  8
HALDER_NORMTEILE
 62
     7
100
AcDbLine
 10
15.605414
 20
47.53844299999999
 30
0.0
 11
18.07259499999999
 21
39.46865499999999
 31
0.0
  0
ARC
  5
2084
330
206F
100
AcDbEntity
  8
HALDER_NORMTEILE
 62
     7
100
AcDbCircle
 10
14.170956
 20
47.09988599999999
 30
0.0
 40
1.5
100
AcDbArc
 50
17.0
 51
89.81520400000002
  0
CIRCLE
  5
2085
330
206F
100
AcDbEntity
  8
HALDER_NORMTEILE
 62
     7
100
AcDbCircle
 10
33.7
 20
25.1
 30
0.0
 40
1.75
  0
ARC
  5
2086
330
206F
100
AcDbEntity
  8
HALDER_NORMTEILE
 62
     7
100
AcDbCircle
 10
14.1
 20
25.1
 30
0.0
 40
23.5
100
AcDbArc
 50
342.815204
 51
17.184796
  0
ARC
  5
2087
330
206F
100
AcDbEntity
  8
HALDER_NORMTEILE_MITTELLINIE
  6
DASHDOT
 62
     2
100
AcDbCircle
 10
33.7
 20
25.1
 30
0.0
 40
1.0
100
AcDbArc
 50
90.0
 51
270.0
  0
ARC
  5
2088
330
206F
100
AcDbEntity
  8
HALDER_NORMTEILE_MITTELLINIE
  6
DASHDOT
 62
     2
100
AcDbCircle
 10
51.7
 20
25.1
 30
0.0
 40
1.0
100
AcDbArc
 50
270.0
 51
90.0
  0
LINE
  5
2089
330
206F
100
AcDbEntity
  8
HALDER_NORMTEILE_MITTELLINIE
  6
DASHDOT
 62
     2
100
AcDbLine
 10
33.7
 20
24.1
 30
0.0
 11
51.7
 21
24.1
 31
0.0
  0
LINE
  5
208A
330
206F
100
AcDbEntity
  8
HALDER_NORMTEILE
 62
     7
100
AcDbLine
 10
35.11784999999999
 20
17.1
 30
0.0
 11
26.679338
 21
17.1
 31
0.0
  0
ARC
  5
208B
330
206F
100
AcDbEntity
  8
HALDER_NORMTEILE
 62
     2
100
AcDbCircle
 10
14.1
 20
25.1
 30
0.0
 40
19.6
100
AcDbArc
 50
335.9104939999999
 51
354.897835
  0
ARC
  5
208C
330
206F
100
AcDbEntity
  8
HALDER_NORMTEILE
 62
     7
100
AcDbCircle
 10
35.11784999999999
 20
18.6
 30
0.0
 40
1.5
100
AcDbArc
 50
270.0
 51
342.815204
  0
LINE
  5
208D
330
206F
100
AcDbEntity
  8
HALDER_NORMTEILE_MITTELLINIE
  6
DASHDOT
 62
     2
100
AcDbLine
 10
33.7
 20
26.1
 30
0.0
 11
51.7
 21
26.1
 31
0.0
  0
LINE
  5
208E
330
206F
100
AcDbEntity
  8
HALDER_NORMTEILE
 62
     7
100
AcDbLine
 10
35.11784999999999
 20
33.1
 30
0.0
 11
26.679338
 21
33.1
 31
0.0
  0
ARC
  5
208F
330
206F
100
AcDbEntity
  8
HALDER_NORMTEILE
 62
     2
100
AcDbCircle
 10
14.1
 20
25.1
 30
0.0
 40
19.67797
100
AcDbArc
 50
5.102165
 51
24.089506
  0
ARC
  5
2090
330
206F
100
AcDbEntity
  8
HALDER_NORMTEILE
 62
     7
100
AcDbCircle
 10
35.11784999999999
 20
31.6
 30
0.0
 40
1.5
100
AcDbArc
 50
17.184796
 51
90.0
  0
ENDBLK
  5
2092
330
206F
100
AcDbEntity
  8
0
100
AcDbBlockEnd
  0
BLOCK
  5
221C
330
2211
100
AcDbEntity
  8
0
100
AcDbBlockBegin
  2
*D7
 70
     1
 10
0.0
 20
0.0
 30
0.0
  3
*D7
  1

  0
LINE
  5
237C
330
2211
100
AcDbEntity
  8
0
 62
     0
370
    -2
100
AcDbLine
 10
188.1275684044016
 20
141.7050077964148
 30
0.0
 11
188.1275684044016
 21
165.9379309091724
 31
0.0
  0
LINE
  5
237D
330
2211
100
AcDbEntity
  8
0
 62
     0
370
    -2
100
AcDbLine
 10
213.1275684044016
 20
133.7050077964148
 30
0.0
 11
213.1275684044016
 21
165.9379309091724
 31
0.0
  0
LINE
  5
237E
330
2211
100
AcDbEntity
  8
0
 62
     0
370
    -2
100
AcDbLine
 10
190.1275684044016
 20
165.4379309091724
 30
0.0
 11
197.7348157300959
 21
165.4379309091724
 31
0.0
  0
LINE
  5
237F
330
2211
100
AcDbEntity
  8
0
 62
     0
370
    -2
100
AcDbLine
 10
211.1275684044016
 20
165.4379309091724
 30
0.0
 11
202.9148157300959
 21
165.4379309091724
 31
0.0
  0
SOLID
  5
2380
330
2211
100
AcDbEntity
  8
0
 62
     0
100
AcDbTrace
 10
190.1275684044016
 20
165.7712642425057
 30
0.0
 11
190.1275684044016
 21
165.104597575839
 31
0.0
 12
188.1275684044016
 22
165.4379309091724
 32
0.0
 13
188.1275684044016
 23
165.4379309091724
 33
0.0
  0
SOLID
  5
2381
330
2211
100
AcDbEntity
  8
0
 62
     0
100
AcDbTrace
 10
211.1275684044016
 20
165.7712642425057
 30
0.0
 11
211.1275684044016
 21
165.104597575839
 31
0.0
 12
213.1275684044016
 22
165.4379309091724
 32
0.0
 13
213.1275684044016
 23
165.4379309091724
 33
0.0
  0
MTEXT
  5
2382
330
2211
100
AcDbEntity
  8
0
 62
     0
100
AcDbMText
 10
200.3248157300959
 20
165.4379309091724
 30
0.0
 40
4.0
 41
0.0
 71
     5
 72
     1
  1
\A1;25
  7
EXTFONT
 73
     1
 44
1.0
  0
POINT
  5
2383
330
2211
100
AcDbEntity
  8
DEFPOINTS
 62
     0
100
AcDbPoint
 10
188.1275684044016
 20
141.2050077964148
 30
0.0
  0
POINT
  5
2384
330
2211
100
AcDbEntity
  8
DEFPOINTS
 62
     0
100
AcDbPoint
 10
213.1275684044016
 20
133.2050077964147
 30
0.0
  0
POINT
  5
2385
330
2211
100
AcDbEntity
  8
DEFPOINTS
 62
     0
100
AcDbPoint
 10
213.1275684044016
 20
165.4379309091724
 30
0.0
  0
ENDBLK
  5
221D
330
2211
100
AcDbEntity
  8
0
100
AcDbBlockEnd
  0
BLOCK
  5
222A
330
221F
100
AcDbEntity
  8
0
100
AcDbBlockBegin
  2
*D8
 70
     1
 10
0.0
 20
0.0
 30
0.0
  3
*D8
  1

  0
LINE
  5
226E
330
221F
100
AcDbEntity
  8
0
 62
     0
370
    -2
100
AcDbLine
 10
91.8539584634836
 20
109.7501217031324
 30
0.0
 11
112.4943487028184
 21
109.7501217031324
 31
0.0
  0
LINE
  5
226F
330
221F
100
AcDbEntity
  8
0
 62
     0
370
    -2
100
AcDbLine
 10
81.15395846348361
 20
84.75012170313247
 30
0.0
 11
112.4943487028184
 21
84.75012170313245
 31
0.0
  0
LINE
  5
2270
330
221F
100
AcDbEntity
  8
0
 62
     0
370
    -2
100
AcDbLine
 10
111.9943487028184
 20
107.7501217031324
 30
0.0
 11
111.9943487028184
 21
99.89373661536404
 31
0.0
  0
LINE
  5
2271
330
221F
100
AcDbEntity
  8
0
 62
     0
370
    -2
100
AcDbLine
 10
111.9943487028184
 20
86.75012170313245
 30
0.0
 11
111.9943487028184
 21
94.71373661536404
 31
0.0
  0
SOLID
  5
2272
330
221F
100
AcDbEntity
  8
0
 62
     0
100
AcDbTrace
 10
111.6610153694851
 20
107.7501217031324
 30
0.0
 11
112.3276820361517
 21
107.7501217031324
 31
0.0
 12
111.9943487028184
 22
109.7501217031324
 32
0.0
 13
111.9943487028184
 23
109.7501217031324
 33
0.0
  0
SOLID
  5
2273
330
221F
100
AcDbEntity
  8
0
 62
     0
100
AcDbTrace
 10
111.6610153694851
 20
86.75012170313245
 30
0.0
 11
112.3276820361517
 21
86.75012170313245
 31
0.0
 12
111.9943487028184
 22
84.75012170313245
 32
0.0
 13
111.9943487028184
 23
84.75012170313245
 33
0.0
  0
MTEXT
  5
2274
330
221F
100
AcDbEntity
  8
0
 62
     0
100
AcDbMText
 10
111.9943487028184
 20
97.30373661536408
 30
0.0
 40
4.0
 41
0.0
 71
     5
 72
     1
  1
\A1;25
  7
EXTFONT
 11
0.0000000000000001
 21
1.0
 31
0.0
 73
     1
 44
1.0
  0
POINT
  5
2275
330
221F
100
AcDbEntity
  8
DEFPOINTS
 62
     0
100
AcDbPoint
 10
91.35395846348359
 20
109.7501217031324
 30
0.0
  0
POINT
  5
2276
330
221F
100
AcDbEntity
  8
DEFPOINTS
 62
     0
100
AcDbPoint
 10
80.6539584634836
 20
84.75012170313247
 30
0.0
  0
POINT
  5
2277
330
221F
100
AcDbEntity
  8
DEFPOINTS
 62
     0
100
AcDbPoint
 10
111.9943487028184
 20
84.75012170313245
 30
0.0
  0
ENDBLK
  5
222B
330
221F
100
AcDbEntity
  8
0
100
AcDbBlockEnd
  0
BLOCK
  5
2238
330
222D
100
AcDbEntity
  8
0
100
AcDbBlockBegin
  2
*D9
 70
     1
 10
0.0
 20
0.0
 30
0.0
  3
*D9
  1

  0
LINE
  5
23F1
330
222D
100
AcDbEntity
  8
0
 62
     0
370
    -2
100
AcDbLine
 10
157.3977014478826
 20
146.6325486599375
 30
0.0
 11
157.3977014478826
 21
127.7414355395972
 31
0.0
  0
LINE
  5
23F2
330
222D
100
AcDbEntity
  8
0
 62
     0
370
    -2
100
AcDbLine
 10
185.9977014478826
 20
148.7325261068362
 30
0.0
 11
185.9977014478826
 21
127.7414355395972
 31
0.0
  0
LINE
  5
23F3
330
222D
100
AcDbEntity
  8
0
 62
     0
370
    -2
100
AcDbLine
 10
159.3977014478826
 20
128.2414355395972
 30
0.0
 11
165.627940351764
 21
128.2414355395972
 31
0.0
  0
LINE
  5
23F4
330
222D
100
AcDbEntity
  8
0
 62
     0
370
    -2
100
AcDbLine
 10
183.9977014478826
 20
128.2414355395972
 30
0.0
 11
174.807940351764
 21
128.2414355395972
 31
0.0
  0
SOLID
  5
23F5
330
222D
100
AcDbEntity
  8
0
 62
     0
100
AcDbTrace
 10
159.3977014478826
 20
128.5747688729306
 30
0.0
 11
159.3977014478826
 21
127.9081022062639
 31
0.0
 12
157.3977014478826
 22
128.2414355395972
 32
0.0
 13
157.3977014478826
 23
128.2414355395972
 33
0.0
  0
SOLID
  5
23F6
330
222D
100
AcDbEntity
  8
0
 62
     0
100
AcDbTrace
 10
183.9977014478826
 20
128.5747688729306
 30
0.0
 11
183.9977014478826
 21
127.9081022062639
 31
0.0
 12
185.9977014478826
 22
128.2414355395972
 32
0.0
 13
185.9977014478826
 23
128.2414355395972
 33
0.0
  0
MTEXT
  5
23F7
330
222D
100
AcDbEntity
  8
0
 62
     0
100
AcDbMText
 10
170.217940351764
 20
128.2414355395972
 30
0.0
 40
4.0
 41
0.0
 71
     5
 72
     1
  1
\A1;28.5
  7
EXTFONT
 73
     1
 44
1.0
  0
POINT
  5
23F8
330
222D
100
AcDbEntity
  8
DEFPOINTS
 62
     0
100
AcDbPoint
 10
157.3977014478826
 20
147.1325486599375
 30
0.0
  0
POINT
  5
23F9
330
222D
100
AcDbEntity
  8
DEFPOINTS
 62
     0
100
AcDbPoint
 10
185.9977014478826
 20
149.2325261068362
 30
0.0
  0
POINT
  5
23FA
330
222D
100
AcDbEntity
  8
DEFPOINTS
 62
     0
100
AcDbPoint
 10
185.9977014478826
 20
128.2414355395972
 30
0.0
  0
ENDBLK
  5
2239
330
222D
100
AcDbEntity
  8
0
100
AcDbBlockEnd
  0
BLOCK
  5
2246
330
223B
100
AcDbEntity
  8
0
100
AcDbBlockBegin
  2
*D10
 70
     1
 10
0.0
 20
0.0
 30
0.0
  3
*D10
  1

  0
LINE
  5
2278
330
223B
100
AcDbEntity
  8
0
 62
     0
370
    -2
100
AcDbLine
 10
67.80503246348359
 20
145.6501217031324
 30
0.0
 11
42.57360243161997
 21
145.6501217031324
 31
0.0
  0
LINE
  5
2279
330
223B
100
AcDbEntity
  8
0
 62
     0
370
    -2
100
AcDbLine
 10
68.6541922157237
 20
110.5307839435924
 30
0.0
 11
42.57360243161996
 21
110.5307839435924
 31
0.0
  0
LINE
  5
227A
330
223B
100
AcDbEntity
  8
0
 62
     0
370
    -2
100
AcDbLine
 10
43.07360243161997
 20
143.6501217031324
 30
0.0
 11
43.07360243161997
 21
131.7175834981151
 31
0.0
  0
LINE
  5
227B
330
223B
100
AcDbEntity
  8
0
 62
     0
370
    -2
100
AcDbLine
 10
43.07360243161997
 20
112.5307839435924
 30
0.0
 11
43.07360243161997
 21
126.5375834981151
 31
0.0
  0
SOLID
  5
227C
330
223B
100
AcDbEntity
  8
0
 62
     0
100
AcDbTrace
 10
42.74026909828663
 20
143.6501217031324
 30
0.0
 11
43.4069357649533
 21
143.6501217031324
 31
0.0
 12
43.07360243161997
 22
145.6501217031324
 32
0.0
 13
43.07360243161997
 23
145.6501217031324
 33
0.0
  0
SOLID
  5
227D
330
223B
100
AcDbEntity
  8
0
 62
     0
100
AcDbTrace
 10
42.74026909828663
 20
112.5307839435924
 30
0.0
 11
43.4069357649533
 21
112.5307839435924
 31
0.0
 12
43.07360243161996
 22
110.5307839435924
 32
0.0
 13
43.07360243161996
 23
110.5307839435924
 33
0.0
  0
MTEXT
  5
227E
330
223B
100
AcDbEntity
  8
0
 62
     0
100
AcDbMText
 10
43.07360243161994
 20
129.1275834981151
 30
0.0
 40
4.0
 41
0.0
 71
     5
 72
     1
  1
\A1;35
  7
EXTFONT
 11
0.0000000000000001
 21
1.0
 31
0.0
 73
     1
 44
1.0
  0
POINT
  5
227F
330
223B
100
AcDbEntity
  8
DEFPOINTS
 62
     0
100
AcDbPoint
 10
68.3050324634836
 20
145.6501217031324
 30
0.0
  0
POINT
  5
2280
330
223B
100
AcDbEntity
  8
DEFPOINTS
 62
     0
100
AcDbPoint
 10
69.1541922157237
 20
110.5307839435924
 30
0.0
  0
POINT
  5
2281
330
223B
100
AcDbEntity
  8
DEFPOINTS
 62
     0
100
AcDbPoint
 10
43.07360243161996
 20
110.5307839435924
 30
0.0
  0
ENDBLK
  5
2247
330
223B
100
AcDbEntity
  8
0
100
AcDbBlockEnd
  0
BLOCK
  5
2254
330
2249
100
AcDbEntity
  8
0
100
AcDbBlockBegin
  2
*D11
 70
     1
 10
0.0
 20
0.0
 30
0.0
  3
*D11
  1

  0
LINE
  5
23FB
330
2249
100
AcDbEntity
  8
0
 62
     0
370
    -2
100
AcDbLine
 10
77.52616544788267
 20
158.6327703299968
 30
0.0
 11
77.52616544788267
 21
205.7087664333472
 31
0.0
  0
LINE
  5
23FC
330
2249
100
AcDbEntity
  8
0
 62
     0
370
    -2
100
AcDbLine
 10
115.5261654478826
 20
158.6327703299968
 30
0.0
 11
115.5261654478826
 21
205.7087664333472
 31
0.0
  0
LINE
  5
23FD
330
2249
100
AcDbEntity
  8
0
 62
     0
370
    -2
100
AcDbLine
 10
79.52616544788267
 20
205.2087664333472
 30
0.0
 11
91.39059248592531
 21
205.2087664333472
 31
0.0
  0
LINE
  5
23FE
330
2249
100
AcDbEntity
  8
0
 62
     0
370
    -2
100
AcDbLine
 10
113.5261654478826
 20
205.2087664333472
 30
0.0
 11
96.57059248592531
 21
205.2087664333472
 31
0.0
  0
SOLID
  5
23FF
330
2249
100
AcDbEntity
  8
0
 62
     0
100
AcDbTrace
 10
79.52616544788267
 20
205.5420997666805
 30
0.0
 11
79.52616544788267
 21
204.8754331000139
 31
0.0
 12
77.52616544788267
 22
205.2087664333472
 32
0.0
 13
77.52616544788267
 23
205.2087664333472
 33
0.0
  0
SOLID
  5
2400
330
2249
100
AcDbEntity
  8
0
 62
     0
100
AcDbTrace
 10
113.5261654478826
 20
205.5420997666805
 30
0.0
 11
113.5261654478826
 21
204.8754331000139
 31
0.0
 12
115.5261654478826
 22
205.2087664333472
 32
0.0
 13
115.5261654478826
 23
205.2087664333472
 33
0.0
  0
MTEXT
  5
2401
330
2249
100
AcDbEntity
  8
0
 62
     0
100
AcDbMText
 10
93.98059248592531
 20
205.2087664333472
 30
0.0
 40
4.0
 41
0.0
 71
     5
 72
     1
  1
\A1;38
  7
EXTFONT
 73
     1
 44
1.0
  0
POINT
  5
2402
330
2249
100
AcDbEntity
  8
DEFPOINTS
 62
     0
100
AcDbPoint
 10
77.52616544788267
 20
158.1327703299968
 30
0.0
  0
POINT
  5
2403
330
2249
100
AcDbEntity
  8
DEFPOINTS
 62
     0
100
AcDbPoint
 10
115.5261654478826
 20
158.1327703299968
 30
0.0
  0
POINT
  5
2404
330
2249
100
AcDbEntity
  8
DEFPOINTS
 62
     0
100
AcDbPoint
 10
115.5261654478826
 20
205.2087664333472
 30
0.0
  0
ENDBLK
  5
2255
330
2249
100
AcDbEntity
  8
0
100
AcDbBlockEnd
  0
BLOCK
  5
2262
330
2257
100
AcDbEntity
  8
0
100
AcDbBlockBegin
  2
*D12
 70
     1
 10
0.0
 20
0.0
 30
0.0
  3
*D12
  1

  0
LINE
  5
2264
330
2257
100
AcDbEntity
  8
0
 62
     0
370
    -2
100
AcDbLine
 10
81.65808985022023
 20
223.52153547326
 30
0.0
 11
134.5349939407546
 21
223.52153547326
 31
0.0
  0
LINE
  5
2265
330
2257
100
AcDbEntity
  8
0
 62
     0
370
    -2
100
AcDbLine
 10
81.65808985022023
 20
176.5217799330048
 30
0.0
 11
134.5349939407545
 21
176.5217799330048
 31
0.0
  0
LINE
  5
2266
330
2257
100
AcDbEntity
  8
0
 62
     0
370
    -2
100
AcDbLine
 10
134.0349939407546
 20
221.52153547326
 30
0.0
 11
134.0349939407546
 21
199.9115418547195
 31
0.0
  0
LINE
  5
2267
330
2257
100
AcDbEntity
  8
0
 62
     0
370
    -2
100
AcDbLine
 10
134.0349939407545
 20
178.5217799330048
 30
0.0
 11
134.0349939407546
 21
194.7315418547195
 31
0.0
  0
SOLID
  5
2268
330
2257
100
AcDbEntity
  8
0
 62
     0
100
AcDbTrace
 10
133.7016606074212
 20
221.52153547326
 30
0.0
 11
134.3683272740879
 21
221.52153547326
 31
0.0
 12
134.0349939407546
 22
223.52153547326
 32
0.0
 13
134.0349939407546
 23
223.52153547326
 33
0.0
  0
SOLID
  5
2269
330
2257
100
AcDbEntity
  8
0
 62
     0
100
AcDbTrace
 10
133.7016606074212
 20
178.5217799330048
 30
0.0
 11
134.3683272740879
 21
178.5217799330048
 31
0.0
 12
134.0349939407545
 22
176.5217799330048
 32
0.0
 13
134.0349939407545
 23
176.5217799330048
 33
0.0
  0
MTEXT
  5
226A
330
2257
100
AcDbEntity
  8
0
 62
     0
100
AcDbMText
 10
134.0349939407545
 20
197.3215418547196
 30
0.0
 40
4.0
 41
0.0
 71
     5
 72
     1
  1
\A1;47
  7
EXTFONT
 11
0.0000000000000001
 21
1.0
 31
0.0
 73
     1
 44
1.0
  0
POINT
  5
226B
330
2257
100
AcDbEntity
  8
DEFPOINTS
 62
     0
100
AcDbPoint
 10
81.15808985022024
 20
223.52153547326
 30
0.0
  0
POINT
  5
226C
330
2257
100
AcDbEntity
  8
DEFPOINTS
 62
     0
100
AcDbPoint
 10
81.15808985022022
 20
176.5217799330048
 30
0.0
  0
POINT
  5
226D
330
2257
100
AcDbEntity
  8
DEFPOINTS
 62
     0
100
AcDbPoint
 10
134.0349939407545
 20
176.5217799330048
 30
0.0
  0
ENDBLK
  5
2263
330
2257
100
AcDbEntity
  8
0
100
AcDbBlockEnd
  0
BLOCK
  5
2290
330
2285
100
AcDbEntity
  8
0
100
AcDbBlockBegin
  2
*D13
 70
     1
 10
0.0
 20
0.0
 30
0.0
  3
*D13
  1

  0
LINE
  5
2286
330
2285
100
AcDbEntity
  8
0
 62
     0
370
    -2
100
AcDbLine
 10
75.6539584634836
 20
78.05012170313244
 30
0.0
 11
75.6539584634836
 21
60.78333820659287
 31
0.0
  0
LINE
  5
2287
330
2285
100
AcDbEntity
  8
0
 62
     0
370
    -2
100
AcDbLine
 10
85.6539584634836
 20
78.05012170313244
 30
0.0
 11
85.6539584634836
 21
60.78333820659287
 31
0.0
  0
LINE
  5
2288
330
2285
100
AcDbEntity
  8
0
 62
     0
370
    -2
100
AcDbLine
 10
77.6539584634836
 20
61.28333820659287
 30
0.0
 11
83.65395846348361
 21
61.28333820659287
 31
0.0
  0
LINE
  5
2289
330
2285
100
AcDbEntity
  8
0
 62
     0
370
    -2
100
AcDbLine
 10
85.6539584634836
 20
61.28333820659287
 30
0.0
 11
92.21132884971757
 21
61.28333820659287
 31
0.0
  0
SOLID
  5
228A
330
2285
100
AcDbEntity
  8
0
 62
     0
100
AcDbTrace
 10
77.6539584634836
 20
61.6166715399262
 30
0.0
 11
77.6539584634836
 21
60.95000487325954
 31
0.0
 12
75.6539584634836
 22
61.28333820659287
 32
0.0
 13
75.6539584634836
 23
61.28333820659287
 33
0.0
  0
SOLID
  5
228B
330
2285
100
AcDbEntity
  8
0
 62
     0
100
AcDbTrace
 10
83.65395846348361
 20
61.6166715399262
 30
0.0
 11
83.65395846348361
 21
60.95000487325954
 31
0.0
 12
85.6539584634836
 22
61.28333820659287
 32
0.0
 13
85.6539584634836
 23
61.28333820659287
 33
0.0
  0
MTEXT
  5
228C
330
2285
100
AcDbEntity
  8
0
 62
     0
100
AcDbMText
 10
95.55132884971758
 20
61.28333820659287
 30
0.0
 40
4.0
 41
0.0
 71
     5
 72
     1
  1
\A1;%%C10
  7
EXTFONT
 73
     1
 44
1.0
  0
POINT
  5
228D
330
2285
100
AcDbEntity
  8
DEFPOINTS
 62
     0
100
AcDbPoint
 10
75.6539584634836
 20
78.55012170313244
 30
0.0
  0
POINT
  5
228E
330
2285
100
AcDbEntity
  8
DEFPOINTS
 62
     0
100
AcDbPoint
 10
85.6539584634836
 20
78.55012170313244
 30
0.0
  0
POINT
  5
228F
330
2285
100
AcDbEntity
  8
DEFPOINTS
 62
     0
100
AcDbPoint
 10
85.6539584634836
 20
61.28333820659287
 30
0.0
  0
ENDBLK
  5
2291
330
2285
100
AcDbEntity
  8
0
100
AcDbBlockEnd
  0
BLOCK
  5
229E
330
2293
100
AcDbEntity
  8
0
100
AcDbBlockBegin
  2
*D14
 70
     1
 10
0.0
 20
0.0
 30
0.0
  3
*D14
  1

  0
LINE
  5
2386
330
2293
100
AcDbEntity
  8
0
 62
     0
370
    -2
100
AcDbLine
 10
219.8275684044016
 20
128.2050077964148
 30
0.0
 11
232.2046393135832
 21
128.2050077964148
 31
0.0
  0
LINE
  5
2387
330
2293
100
AcDbEntity
  8
0
 62
     0
370
    -2
100
AcDbLine
 10
219.8275684044016
 20
138.2050077964148
 30
0.0
 11
232.2046393135832
 21
138.2050077964148
 31
0.0
  0
LINE
  5
2388
330
2293
100
AcDbEntity
  8
0
 62
     0
370
    -2
100
AcDbLine
 10
231.7046393135832
 20
130.2050077964148
 30
0.0
 11
231.7046393135832
 21
136.2050077964148
 31
0.0
  0
LINE
  5
2389
330
2293
100
AcDbEntity
  8
0
 62
     0
370
    -2
100
AcDbLine
 10
231.7046393135832
 20
138.2050077964148
 30
0.0
 11
231.7046393135832
 21
146.196097651978
 31
0.0
  0
LINE
  5
238A
330
2293
100
AcDbEntity
  8
0
 62
     0
370
    -2
100
AcDbLine
 10
231.7046393135832
 20
146.196097651978
 30
0.0
 11
233.7046393135832
 21
146.196097651978
 31
0.0
  0
SOLID
  5
238B
330
2293
100
AcDbEntity
  8
0
 62
     0
100
AcDbTrace
 10
231.3713059802498
 20
130.2050077964148
 30
0.0
 11
232.0379726469166
 21
130.2050077964148
 31
0.0
 12
231.7046393135832
 22
128.2050077964148
 32
0.0
 13
231.7046393135832
 23
128.2050077964148
 33
0.0
  0
SOLID
  5
238C
330
2293
100
AcDbEntity
  8
0
 62
     0
100
AcDbTrace
 10
231.3713059802498
 20
136.2050077964148
 30
0.0
 11
232.0379726469166
 21
136.2050077964148
 31
0.0
 12
231.7046393135832
 22
138.2050077964148
 32
0.0
 13
231.7046393135832
 23
138.2050077964148
 33
0.0
  0
MTEXT
  5
238D
330
2293
100
AcDbEntity
  8
0
 62
     0
100
AcDbMText
 10
237.0446393135832
 20
146.196097651978
 30
0.0
 40
4.0
 41
0.0
 71
     5
 72
     1
  1
\A1;%%C10
  7
EXTFONT
 73
     1
 44
1.0
  0
POINT
  5
238E
330
2293
100
AcDbEntity
  8
DEFPOINTS
 62
     0
100
AcDbPoint
 10
219.3275684044016
 20
128.2050077964148
 30
0.0
  0
POINT
  5
238F
330
2293
100
AcDbEntity
  8
DEFPOINTS
 62
     0
100
AcDbPoint
 10
219.3275684044016
 20
138.2050077964148
 30
0.0
  0
POINT
  5
2390
330
2293
100
AcDbEntity
  8
DEFPOINTS
 62
     0
100
AcDbPoint
 10
231.7046393135832
 20
138.2050077964148
 30
0.0
  0
ENDBLK
  5
229F
330
2293
100
AcDbEntity
  8
0
100
AcDbBlockEnd
  0
BLOCK
  5
239F
330
2393
100
AcDbEntity
  8
0
100
AcDbBlockBegin
  2
*D15
 70
     1
 10
0.0
 20
0.0
 30
0.0
  3
*D15
  1

  0
LINE
  5
2394
330
2393
100
AcDbEntity
  8
1
 62
     0
370
    -2
100
AcDbLine
 10
221.8275684044016
 20
137.7950822107493
 30
0.0
 11
221.8275684044016
 21
157.9625406784692
 31
0.0
  0
LINE
  5
2395
330
2393
100
AcDbEntity
  8
1
 62
     0
370
    -2
100
AcDbLine
 10
219.3275684044016
 20
138.7050077964148
 30
0.0
 11
219.3275684044016
 21
157.9625406784692
 31
0.0
  0
LINE
  5
2396
330
2393
100
AcDbEntity
  8
1
 62
     0
370
    -2
100
AcDbLine
 10
217.3275684044016
 20
157.4625406784692
 30
0.0
 11
215.3275684044016
 21
157.4625406784692
 31
0.0
  0
LINE
  5
2397
330
2393
100
AcDbEntity
  8
1
 62
     0
370
    -2
100
AcDbLine
 10
223.8275684044016
 20
157.4625406784692
 30
0.0
 11
225.8641864625823
 21
157.4625406784692
 31
0.0
  0
LINE
  5
2398
330
2393
100
AcDbEntity
  8
1
 62
     0
370
    -2
100
AcDbLine
 10
219.3275684044016
 20
157.4625406784692
 30
0.0
 11
221.8275684044016
 21
157.4625406784692
 31
0.0
  0
SOLID
  5
2399
330
2393
100
AcDbEntity
  8
1
 62
     0
100
AcDbTrace
 10
217.3275684044016
 20
157.7958740118026
 30
0.0
 11
217.3275684044016
 21
157.1292073451359
 31
0.0
 12
219.3275684044016
 22
157.4625406784692
 32
0.0
 13
219.3275684044016
 23
157.4625406784692
 33
0.0
  0
SOLID
  5
239A
330
2393
100
AcDbEntity
  8
1
 62
     0
100
AcDbTrace
 10
223.8275684044016
 20
157.7958740118026
 30
0.0
 11
223.8275684044016
 21
157.1292073451359
 31
0.0
 12
221.8275684044016
 22
157.4625406784692
 32
0.0
 13
221.8275684044016
 23
157.4625406784692
 33
0.0
  0
MTEXT
  5
239B
330
2393
100
AcDbEntity
  8
1
 62
     0
100
AcDbMText
 10
228.9541864625823
 20
157.4625406784692
 30
0.0
 40
4.0
 41
0.0
 71
     5
 72
     1
  1
\A1;2.5
  7
EXTFONT
 73
     1
 44
1.0
  0
POINT
  5
239C
330
2393
100
AcDbEntity
  8
DEFPOINTS
 62
     0
100
AcDbPoint
 10
221.8275684044016
 20
137.2950822107493
 30
0.0
  0
POINT
  5
239D
330
2393
100
AcDbEntity
  8
DEFPOINTS
 62
     0
100
AcDbPoint
 10
219.3275684044016
 20
138.2050077964148
 30
0.0
  0
POINT
  5
239E
330
2393
100
AcDbEntity
  8
DEFPOINTS
 62
     0
100
AcDbPoint
 10
219.3275684044016
 20
157.4625406784692
 30
0.0
  0
ENDBLK
  5
23A0
330
2393
100
AcDbEntity
  8
0
100
AcDbBlockEnd
  0
BLOCK
  5
23AF
330
23A5
100
AcDbEntity
  8
0
100
AcDbBlockBegin
  2
*D16
 70
     1
 10
0.0
 20
0.0
 30
0.0
  3
*D16
  1

  0
LINE
  5
23A6
330
23A5
100
AcDbEntity
  8
0
 62
     0
370
    -2
100
AcDbLine
 10
227.9200279848486
 20
120.2912160042726
 30
0.0
 11
225.9200279848486
 21
120.2912160042726
 31
0.0
  0
LINE
  5
23A7
330
23A5
100
AcDbEntity
  8
0
 62
     0
370
    -2
100
AcDbLine
 10
225.9200279848486
 20
120.2912160042726
 30
0.0
 11
217.2873229426101
 21
130.370495876081
 31
0.0
  0
LINE
  5
23A8
330
23A5
100
AcDbEntity
  8
0
 62
     0
370
    -2
100
AcDbLine
 10
212.4319154813309
 20
136.0395197167485
 30
0.0
 11
211.130912973157
 21
137.5585300767281
 31
0.0
  0
MTEXT
  5
23A9
330
23A5
100
AcDbEntity
  8
0
 62
     0
100
AcDbMText
 10
234.0100279848487
 20
120.2912160042726
 30
0.0
 40
4.0
 41
0.0
 71
     5
 72
     1
  1
\A1;\U+22053.46
  7
EXTFONT
 73
     1
 44
1.0
  0
LINE
  5
23AA
330
23A5
100
AcDbEntity
  8
0
 62
     0
370
    -2
100
AcDbLine
 10
213.7329179895047
 20
134.5205093567688
 30
0.0
 11
215.9863204344363
 21
131.8895062360607
 31
0.0
  0
SOLID
  5
23AB
330
23A5
100
AcDbEntity
  8
0
 62
     0
100
AcDbTrace
 10
212.6850838746608
 20
136.2563534681108
 30
0.0
 11
212.1787470880009
 21
135.8226859653862
 31
0.0
 12
213.7329179895047
 22
134.5205093567688
 32
0.0
 13
213.7329179895047
 23
134.5205093567688
 33
0.0
  0
SOLID
  5
23AC
330
23A5
100
AcDbEntity
  8
0
 62
     0
100
AcDbTrace
 10
217.54049133594
 20
130.5873296274433
 30
0.0
 11
217.0341545492802
 21
130.1536621247187
 31
0.0
 12
215.9863204344363
 22
131.8895062360607
 32
0.0
 13
215.9863204344363
 23
131.8895062360607
 33
0.0
  0
POINT
  5
23AD
330
23A5
100
AcDbEntity
  8
DEFPOINTS
 62
     0
100
AcDbPoint
 10
215.9863204344363
 20
131.8895062360607
 30
0.0
  0
POINT
  5
23AE
330
23A5
100
AcDbEntity
  8
DEFPOINTS
 62
     0
100
AcDbPoint
 10
213.7329179895047
 20
134.5205093567688
 30
0.0
  0
ENDBLK
  5
23B0
330
23A5
100
AcDbEntity
  8
0
100
AcDbBlockEnd
  0
BLOCK
  5
23CD
330
23C2
100
AcDbEntity
  8
0
100
AcDbBlockBegin
  2
*D17
 70
     1
 10
0.0
 20
0.0
 30
0.0
  3
*D17
  1

  0
LINE
  5
240F
330
23C2
100
AcDbEntity
  8
0
 62
     0
370
    -2
100
AcDbLine
 10
235.9977014478826
 20
157.7325261068362
 30
0.0
 11
235.9977014478826
 21
204.4265630317622
 31
0.0
  0
LINE
  5
2410
330
23C2
100
AcDbEntity
  8
0
 62
     0
370
    -2
100
AcDbLine
 10
185.9977014478826
 20
165.7325261068362
 30
0.0
 11
185.9977014478826
 21
204.4265630317622
 31
0.0
  0
LINE
  5
2411
330
23C2
100
AcDbEntity
  8
0
 62
     0
370
    -2
100
AcDbLine
 10
233.9977014478826
 20
203.9265630317622
 30
0.0
 11
213.068068828471
 21
203.9265630317622
 31
0.0
  0
LINE
  5
2412
330
23C2
100
AcDbEntity
  8
0
 62
     0
370
    -2
100
AcDbLine
 10
187.9977014478826
 20
203.9265630317622
 30
0.0
 11
208.388068828471
 21
203.9265630317622
 31
0.0
  0
SOLID
  5
2413
330
23C2
100
AcDbEntity
  8
0
 62
     0
100
AcDbTrace
 10
233.9977014478826
 20
204.2598963650956
 30
0.0
 11
233.9977014478826
 21
203.5932296984289
 31
0.0
 12
235.9977014478826
 22
203.9265630317622
 32
0.0
 13
235.9977014478826
 23
203.9265630317622
 33
0.0
  0
SOLID
  5
2414
330
23C2
100
AcDbEntity
  8
0
 62
     0
100
AcDbTrace
 10
187.9977014478826
 20
204.2598963650956
 30
0.0
 11
187.9977014478826
 21
203.5932296984289
 31
0.0
 12
185.9977014478826
 22
203.9265630317622
 32
0.0
 13
185.9977014478826
 23
203.9265630317622
 33
0.0
  0
MTEXT
  5
2415
330
23C2
100
AcDbEntity
  8
0
 62
     0
100
AcDbMText
 10
210.728068828471
 20
203.9265630317622
 30
0.0
 40
4.0
 41
0.0
 71
     5
 72
     1
  1
\A1;50
  7
EXTFONT
 73
     1
 44
1.0
  0
POINT
  5
2416
330
23C2
100
AcDbEntity
  8
DEFPOINTS
 62
     0
100
AcDbPoint
 10
235.9977014478826
 20
157.2325261068362
 30
0.0
  0
POINT
  5
2417
330
23C2
100
AcDbEntity
  8
DEFPOINTS
 62
     0
100
AcDbPoint
 10
185.9977014478826
 20
165.2325261068362
 30
0.0
  0
POINT
  5
2418
330
23C2
100
AcDbEntity
  8
DEFPOINTS
 62
     0
100
AcDbPoint
 10
185.9977014478826
 20
203.9265630317622
 30
0.0
  0
ENDBLK
  5
23CE
330
23C2
100
AcDbEntity
  8
0
100
AcDbBlockEnd
  0
BLOCK
  5
23DB
330
23D0
100
AcDbEntity
  8
0
100
AcDbBlockBegin
  2
*D18
 70
     1
 10
0.0
 20
0.0
 30
0.0
  3
*D18
  1

  0
LINE
  5
2405
330
23D0
100
AcDbEntity
  8
0
 62
     0
370
    -2
100
AcDbLine
 10
242.6977014478826
 20
154.7325261068362
 30
0.0
 11
242.6977014478826
 21
132.5605905209572
 31
0.0
  0
LINE
  5
2406
330
23D0
100
AcDbEntity
  8
0
 62
     0
370
    -2
100
AcDbLine
 10
185.9977014478826
 20
148.7325261068362
 30
0.0
 11
185.9977014478826
 21
132.5605905209572
 31
0.0
  0
LINE
  5
2407
330
23D0
100
AcDbEntity
  8
0
 62
     0
370
    -2
100
AcDbLine
 10
240.6977014478826
 20
133.0605905209572
 30
0.0
 11
215.9266021011402
 21
133.0605905209572
 31
0.0
  0
LINE
  5
2408
330
23D0
100
AcDbEntity
  8
0
 62
     0
370
    -2
100
AcDbLine
 10
187.9977014478826
 20
133.0605905209572
 30
0.0
 11
206.7466021011401
 21
133.0605905209572
 31
0.0
  0
SOLID
  5
2409
330
23D0
100
AcDbEntity
  8
0
 62
     0
100
AcDbTrace
 10
240.6977014478826
 20
133.3939238542905
 30
0.0
 11
240.6977014478826
 21
132.7272571876239
 31
0.0
 12
242.6977014478826
 22
133.0605905209572
 32
0.0
 13
242.6977014478826
 23
133.0605905209572
 33
0.0
  0
SOLID
  5
240A
330
23D0
100
AcDbEntity
  8
0
 62
     0
100
AcDbTrace
 10
187.9977014478826
 20
133.3939238542905
 30
0.0
 11
187.9977014478826
 21
132.7272571876239
 31
0.0
 12
185.9977014478826
 22
133.0605905209572
 32
0.0
 13
185.9977014478826
 23
133.0605905209572
 33
0.0
  0
MTEXT
  5
240B
330
23D0
100
AcDbEntity
  8
0
 62
     0
100
AcDbMText
 10
211.3366021011402
 20
133.0605905209572
 30
0.0
 40
4.0
 41
0.0
 71
     5
 72
     1
  1
\A1;56.7
  7
EXTFONT
 73
     1
 44
1.0
  0
POINT
  5
240C
330
23D0
100
AcDbEntity
  8
DEFPOINTS
 62
     0
100
AcDbPoint
 10
242.6977014478826
 20
155.2325261068362
 30
0.0
  0
POINT
  5
240D
330
23D0
100
AcDbEntity
  8
DEFPOINTS
 62
     0
100
AcDbPoint
 10
185.9977014478826
 20
149.2325261068362
 30
0.0
  0
POINT
  5
240E
330
23D0
100
AcDbEntity
  8
DEFPOINTS
 62
     0
100
AcDbPoint
 10
185.9977014478826
 20
133.0605905209572
 30
0.0
  0
ENDBLK
  5
23DC
330
23D0
100
AcDbEntity
  8
0
100
AcDbBlockEnd
  0
BLOCK
  5
23EA
330
23DE
100
AcDbEntity
  8
0
100
AcDbBlockBegin
  2
*D19
 70
     1
 10
0.0
 20
0.0
 30
0.0
  3
*D19
  1

  0
LINE
  5
2419
330
23DE
100
AcDbEntity
  8
0
 62
     0
370
    -2
100
AcDbLine
 10
241.1977014478826
 20
161.2325261068362
 30
0.0
 11
272.6639213804089
 21
161.2325261068362
 31
0.0
  0
LINE
  5
241A
330
23DE
100
AcDbEntity
  8
0
 62
     0
370
    -2
100
AcDbLine
 10
241.1977014478826
 20
153.2325261068362
 30
0.0
 11
272.6639213804089
 21
153.2325261068362
 31
0.0
  0
LINE
  5
241B
330
23DE
100
AcDbEntity
  8
0
 62
     0
370
    -2
100
AcDbLine
 10
272.1639213804089
 20
155.2325261068362
 30
0.0
 11
272.1639213804089
 21
159.2325261068362
 31
0.0
  0
LINE
  5
241C
330
23DE
100
AcDbEntity
  8
0
 62
     0
370
    -2
100
AcDbLine
 10
272.1639213804089
 20
161.2325261068362
 30
0.0
 11
272.1639213804089
 21
175.9451491580915
 31
0.0
  0
LINE
  5
241D
330
23DE
100
AcDbEntity
  8
0
 62
     0
370
    -2
100
AcDbLine
 10
272.1639213804089
 20
175.9451491580915
 30
0.0
 11
274.1639213804089
 21
175.9451491580915
 31
0.0
  0
SOLID
  5
241E
330
23DE
100
AcDbEntity
  8
0
 62
     0
100
AcDbTrace
 10
271.8305880470756
 20
155.2325261068362
 30
0.0
 11
272.4972547137422
 21
155.2325261068362
 31
0.0
 12
272.1639213804089
 22
153.2325261068362
 32
0.0
 13
272.1639213804089
 23
153.2325261068362
 33
0.0
  0
SOLID
  5
241F
330
23DE
100
AcDbEntity
  8
0
 62
     0
100
AcDbTrace
 10
271.8305880470756
 20
159.2325261068362
 30
0.0
 11
272.4972547137422
 21
159.2325261068362
 31
0.0
 12
272.1639213804089
 22
161.2325261068362
 32
0.0
 13
272.1639213804089
 23
161.2325261068362
 33
0.0
  0
MTEXT
  5
2420
330
23DE
100
AcDbEntity
  8
0
 62
     0
100
AcDbMText
 10
276.7539213804088
 20
175.9451491580915
 30
0.0
 40
4.0
 41
0.0
 71
     5
 72
     1
  1
\A1;%%c8
  7
EXTFONT
 73
     1
 44
1.0
  0
POINT
  5
2421
330
23DE
100
AcDbEntity
  8
DEFPOINTS
 62
     0
100
AcDbPoint
 10
240.6977014478826
 20
161.2325261068362
 30
0.0
  0
POINT
  5
2422
330
23DE
100
AcDbEntity
  8
DEFPOINTS
 62
     0
100
AcDbPoint
 10
240.6977014478826
 20
153.2325261068362
 30
0.0
  0
POINT
  5
2423
330
23DE
100
AcDbEntity
  8
DEFPOINTS
 62
     0
100
AcDbPoint
 10
272.1639213804089
 20
153.2325261068362
 30
0.0
  0
ENDBLK
  5
23EB
330
23DE
100
AcDbEntity
  8
0
100
AcDbBlockEnd
  0
BLOCK
  5
246E
330
2462
100
AcDbEntity
  8
0
100
AcDbBlockBegin
  2
*D20
 70
     1
 10
0.0
 20
0.0
 30
0.0
  3
*D20
  1

  0
LINE
  5
2463
330
2462
100
AcDbEntity
  8
0
 62
     0
370
    -2
100
AcDbLine
 10
237.9977014478826
 20
105.9696983594947
 30
0.0
 11
288.5943187381196
 21
105.9696983594947
 31
0.0
  0
LINE
  5
2464
330
2462
100
AcDbEntity
  8
0
 62
     0
370
    -2
100
AcDbLine
 10
241.1977014478826
 20
97.26969835949473
 30
0.0
 11
288.5943187381196
 21
97.26969835949471
 31
0.0
  0
LINE
  5
2465
330
2462
100
AcDbEntity
  8
0
 62
     0
370
    -2
100
AcDbLine
 10
288.0943187381196
 20
99.26969835949471
 30
0.0
 11
288.0943187381196
 21
103.9696983594947
 31
0.0
  0
LINE
  5
2466
330
2462
100
AcDbEntity
  8
0
 62
     0
370
    -2
100
AcDbLine
 10
288.0943187381196
 20
105.9696983594947
 30
0.0
 11
288.0943187381196
 21
116.9408633370342
 31
0.0
  0
LINE
  5
2467
330
2462
100
AcDbEntity
  8
0
 62
     0
370
    -2
100
AcDbLine
 10
288.0943187381196
 20
116.9408633370342
 30
0.0
 11
290.0943187381196
 21
116.9408633370342
 31
0.0
  0
SOLID
  5
2468
330
2462
100
AcDbEntity
  8
0
 62
     0
100
AcDbTrace
 10
287.7609854047863
 20
99.26969835949472
 30
0.0
 11
288.4276520714529
 21
99.26969835949471
 31
0.0
 12
288.0943187381196
 22
97.26969835949471
 32
0.0
 13
288.0943187381196
 23
97.26969835949471
 33
0.0
  0
SOLID
  5
2469
330
2462
100
AcDbEntity
  8
0
 62
     0
100
AcDbTrace
 10
287.7609854047863
 20
103.9696983594947
 30
0.0
 11
288.4276520714529
 21
103.9696983594947
 31
0.0
 12
288.0943187381196
 22
105.9696983594947
 32
0.0
 13
288.0943187381196
 23
105.9696983594947
 33
0.0
  0
MTEXT
  5
246A
330
2462
100
AcDbEntity
  8
0
 62
     0
100
AcDbMText
 10
293.1843187381196
 20
116.9408633370343
 30
0.0
 40
4.0
 41
0.0
 71
     5
 72
     1
  1
\A1;8.7
  7
EXTFONT
 73
     1
 44
1.0
  0
POINT
  5
246B
330
2462
100
AcDbEntity
  8
DEFPOINTS
 62
     0
100
AcDbPoint
 10
237.4977014478826
 20
105.9696983594947
 30
0.0
  0
POINT
  5
246C
330
2462
100
AcDbEntity
  8
DEFPOINTS
 62
     0
100
AcDbPoint
 10
240.6977014478826
 20
97.26969835949473
 30
0.0
  0
POINT
  5
246D
330
2462
100
AcDbEntity
  8
DEFPOINTS
 62
     0
100
AcDbPoint
 10
288.0943187381196
 20
97.26969835949471
 30
0.0
  0
ENDBLK
  5
246F
330
2462
100
AcDbEntity
  8
0
100
AcDbBlockEnd
  0
ENDSEC
  0
SECTION
  2
ENTITIES
  0
ARC
  5
215C
330
17
100
AcDbEntity
  8
HALDER_NORM
 62
     7
100
AcDbCircle
 10
170.8977014478826
 20
174.3825261068362
 30
0.0
 40
8.500000000000001
100
AcDbArc
 50
180.0
 51
270.0
  0
LINE
  5
215D
330
17
100
AcDbEntity
  8
HALDER_NORM
 62
     7
100
AcDbLine
 10
159.4459192027713
 20
166.1511767032084
 30
0.0
 11
157.5027670862806
 21
170.1563282937264
 31
0.0
  0
LINE
  5
215E
330
17
100
AcDbEntity
  8
HALDER_NORM
 62
     7
100
AcDbLine
 10
164.6411302393122
 20
164.9880048799676
 30
0.0
 11
163.274052482156
 21
168.0442814223593
 31
0.0
  0
LINE
  5
2167
330
17
100
AcDbEntity
  8
HALDER_NORM
 62
     7
100
AcDbLine
 10
184.3977014478826
 20
149.1184244916984
 30
0.0
 11
184.3977014478826
 21
165.3466277219739
 31
0.0
  0
LINE
  5
2168
330
17
100
AcDbEntity
  8
HALDER_NORM
 62
     7
100
AcDbLine
 10
185.9977014478826
 20
149.2325261068362
 30
0.0
 11
185.9977014478826
 21
165.2325261068362
 31
0.0
  0
LINE
  5
2169
330
17
100
AcDbEntity
  8
HALDER_NORM
 62
     7
100
AcDbLine
 10
182.3977014478827
 20
148.5825261068362
 30
0.0
 11
182.3977014478827
 21
165.8825261068362
 31
0.0
  0
LINE
  5
216A
330
17
100
AcDbEntity
  8
HALDER_NORM
 62
     7
100
AcDbLine
 10
157.3977014478826
 20
147.1325486599375
 30
0.0
 11
157.3977014478826
 21
160.3274012688829
 31
0.0
  0
LINE
  5
216B
330
17
100
AcDbEntity
  8
HALDER_NORM
 62
     7
100
AcDbLine
 10
162.3977014478826
 20
146.7325261068362
 30
0.0
 11
162.3977014478826
 21
159.6325261068362
 31
0.0
  0
ARC
  5
216C
330
17
100
AcDbEntity
  8
HALDER_NORM
 62
     7
100
AcDbCircle
 10
170.8977014478826
 20
140.0825261068362
 30
0.0
 40
8.499999999999998
100
AcDbArc
 50
90.0
 51
128.5234838094164
  0
LINE
  5
216D
330
17
100
AcDbEntity
  8
HALDER_NORM
 62
     7
100
AcDbLine
 10
172.2977014478826
 20
148.5825261068362
 30
0.0
 11
182.3977014478827
 21
148.5825261068362
 31
0.0
  0
LINE
  5
216E
330
17
100
AcDbEntity
  8
HALDER_NORM
 62
     7
100
AcDbLine
 10
182.3977014478827
 20
148.5825261068362
 30
0.0
 11
184.3977014478826
 21
149.1184244916984
 31
0.0
  0
LINE
  5
216F
330
17
100
AcDbEntity
  8
HALDER_NORM
 62
     7
100
AcDbLine
 10
184.3977014478826
 20
149.2325261068362
 30
0.0
 11
185.9977014478826
 21
149.2325261068362
 31
0.0
  0
LINE
  5
2170
330
17
100
AcDbEntity
  8
HALDER_NORM
 62
     7
100
AcDbLine
 10
172.2977014478826
 20
148.5825261068362
 30
0.0
 11
170.8977014478826
 21
148.5825261068362
 31
0.0
  0
ARC
  5
2171
330
17
100
AcDbEntity
  8
HALDER_NORM
 62
     7
100
AcDbCircle
 10
157.9977014478826
 20
147.1325486599375
 30
0.0
 40
0.6000000000000015
100
AcDbArc
 50
180.0
 51
252.9999999999997
  0
ARC
  5
2172
330
17
100
AcDbEntity
  8
HALDER_NORM
 62
     7
100
AcDbCircle
 10
164.0006512027985
 20
145.9936914254456
 30
0.0
 40
1.765028215981373
100
AcDbArc
 50
24.74601204413665
 51
155.2539879558632
  0
LINE
  5
2173
330
17
100
AcDbEntity
  8
HALDER_NORM
 62
     7
100
AcDbLine
 10
165.6036009577143
 20
146.7325261068362
 30
0.0
 11
162.3977014478826
 21
146.7325261068362
 31
0.0
  0
ARC
  5
2174
330
17
100
AcDbEntity
  8
HALDER_NORM
 62
     7
100
AcDbCircle
 10
160.4218779499063
 20
147.3325261068362
 30
0.0
 40
1.499999999999998
100
AcDbArc
 50
252.9999999999997
 51
270.0
  0
ARC
  5
2175
330
17
100
AcDbEntity
  8
HALDER_NORM
 62
     7
100
AcDbCircle
 10
161.5977014478826
 20
146.6325261068362
 30
0.0
 40
0.8000000000000007
100
AcDbArc
 50
270.0
 51
0.0
  0
LINE
  5
2176
330
17
100
AcDbEntity
  8
HALDER_NORM
 62
     7
100
AcDbLine
 10
161.5977014478826
 20
145.8325261068362
 30
0.0
 11
160.4218779499063
 21
145.8325261068362
 31
0.0
  0
LINE
  5
2177
330
17
100
AcDbEntity
  8
HALDER_NORM
 62
     7
100
AcDbLine
 10
162.3977014478826
 20
146.7325261068362
 30
0.0
 11
162.3977014478826
 21
146.6325261068362
 31
0.0
  0
LINE
  5
2178
330
17
100
AcDbEntity
  8
HALDER_NORM
 62
     7
100
AcDbLine
 10
159.9833203928222
 20
145.8980689728917
 30
0.0
 11
157.822278425049
 21
146.5587658063597
 31
0.0
  0
LINE
  5
217A
330
17
100
AcDbEntity
  8
HALDER_NORM
 62
     7
100
AcDbLine
 10
182.3977014478827
 20
165.8825261068362
 30
0.0
 11
172.2977014478826
 21
165.8825261068362
 31
0.0
  0
LINE
  5
217B
330
17
100
AcDbEntity
  8
HALDER_NORM
 62
     7
100
AcDbLine
 10
184.3977014478826
 20
165.3466277219739
 30
0.0
 11
182.3977014478827
 21
165.8825261068362
 31
0.0
  0
LINE
  5
217C
330
17
100
AcDbEntity
  8
HALDER_NORM
 62
     7
100
AcDbLine
 10
185.9977014478826
 20
165.2325261068362
 30
0.0
 11
184.3977014478826
 21
165.2325261068362
 31
0.0
  0
LINE
  5
217D
330
17
100
AcDbEntity
  8
HALDER_NORM
 62
     7
100
AcDbLine
 10
170.8977014478826
 20
165.8825261068362
 30
0.0
 11
172.2977014478826
 21
165.8825261068362
 31
0.0
  0
ARC
  5
217E
330
17
100
AcDbEntity
  8
HALDER_NORM
 62
     7
100
AcDbCircle
 10
163.6977014478826
 20
159.6325261068362
 30
0.0
 40
1.299999999999996
100
AcDbArc
 50
141.3999999999993
 51
180.0
  0
LINE
  5
217F
330
17
100
AcDbEntity
  8
HALDER_NORM
 62
     7
100
AcDbLine
 10
161.9979855634229
 20
158.6983552246521
 30
0.0
 11
157.3977014478826
 21
160.3274012688829
 31
0.0
  0
ARC
  5
2180
330
17
100
AcDbEntity
  8
HALDER_NORM
 62
     7
100
AcDbCircle
 10
161.7977014478826
 20
158.1327703299968
 30
0.0
 40
0.5999999999999979
100
AcDbArc
 50
0.0
 51
70.49999999999998
  0
ARC
  5
2181
330
17
100
AcDbEntity
  8
HALDER_NORM
 62
     7
100
AcDbCircle
 10
155.5977014478826
 20
164.2325261068362
 30
0.0
 40
4.299999999999998
100
AcDbArc
 50
294.7465245869382
 51
26.50000000000046
  0
ARC
  5
2182
330
17
100
AcDbEntity
  8
HALDER_NORM
 62
     7
100
AcDbCircle
 10
161.6977014478826
 20
163.7325261068362
 30
0.0
 40
3.199999999999998
100
AcDbArc
 50
308.6000000000005
 51
23.09999999999977
  0
LINE
  5
2183
330
17
100
AcDbEntity
  8
HALDER_NORM
 62
     7
100
AcDbLine
 10
163.6941161573527
 20
161.231660595096
 30
0.0
 11
162.6817248337382
 21
160.4435695825584
 31
0.0
  0
ARC
  5
2184
330
17
100
AcDbEntity
  8
HALDER_NORM
 62
     7
100
AcDbCircle
 10
158.3977014478826
 20
172.1325261068362
 30
0.0
 40
0.9999999999999966
100
AcDbArc
 50
135.8999999999996
 51
180.0
  0
LINE
  5
2185
330
17
100
AcDbEntity
  8
HALDER_NORM
 62
     7
100
AcDbLine
 10
157.6795751501195
 20
171.2984389034285
 30
0.0
 11
160.6795751501195
 21
174.39419875127
 31
0.0
  0
LINE
  5
2186
330
17
100
AcDbEntity
  8
HALDER_NORM
 62
     7
100
AcDbLine
 10
162.3977014478826
 20
175.2282859546777
 30
0.0
 11
162.3977014478826
 21
172.3325261068362
 31
0.0
  0
ARC
  5
2187
330
17
100
AcDbEntity
  8
HALDER_NORM
 62
     7
100
AcDbCircle
 10
158.3977014478826
 20
170.6025261068362
 30
0.0
 40
0.9999999999999966
100
AcDbArc
 50
135.8999999999996
 51
206.5000000000005
  0
LINE
  5
2188
330
17
100
AcDbEntity
  8
HALDER_MLINIE
  6
DASHDOT
 62
     2
100
AcDbLine
 10
163.8977014478826
 20
172.2325261068362
 30
0.0
 11
155.8977014478826
 21
172.2325261068362
 31
0.0
  0
ARC
  5
2189
330
17
100
AcDbEntity
  8
HALDER_NORM
 62
     7
100
AcDbCircle
 10
173.3277014478826
 20
172.3325261068362
 30
0.0
 40
10.92999999999999
100
AcDbArc
 50
180.0
 51
203.0999999999997
  0
LINE
  5
218A
330
17
100
AcDbEntity
  8
HALDER_NORM
 62
     7
100
AcDbLine
 10
157.3977014478826
 20
170.6025261068362
 30
0.0
 11
157.3977014478826
 21
172.1325261068362
 31
0.0
  0
ARC
  5
218B
330
17
100
AcDbEntity
  8
HALDER_NORM
 62
     7
100
AcDbCircle
 10
161.3977014478826
 20
175.2282859546777
 30
0.0
 40
1.0
100
AcDbArc
 50
0.0
 51
135.8999999999996
  0
LINE
  5
218C
330
17
100
AcDbEntity
  8
HALDER_NORM
 62
     7
100
AcDbLine
 10
157.6795751501195
 20
172.8284389034285
 30
0.0
 11
160.6795751501195
 21
175.92419875127
 31
0.0
  0
ARC
  5
218D
330
17
100
AcDbEntity
  8
HALDER_NORM
 62
     7
100
AcDbCircle
 10
161.3977014478826
 20
173.6982859546777
 30
0.0
 40
1.0
100
AcDbArc
 50
0.0
 51
135.8999999999996
  0
ARC
  5
21B7
330
17
100
AcDbEntity
  8
HALDER_NORM
 62
     7
100
AcDbCircle
 10
82.02616544788265
 20
168.8622059179099
 30
0.0
 40
7.499999999999997
100
AcDbArc
 50
287.0000000000002
 51
0.0
  0
ARC
  5
21B8
330
17
100
AcDbEntity
  8
HALDER_NORM
 62
     7
100
AcDbCircle
 10
111.0261654478826
 20
168.8622059179099
 30
0.0
 40
7.5
100
AcDbArc
 50
180.0
 51
252.9999999999997
  0
CIRCLE
  5
21BB
330
17
100
AcDbEntity
  8
HALDER_NORM
 62
     7
100
AcDbCircle
 10
96.52616544788266
 20
158.1327703299968
 30
0.0
 40
2.5
  0
ARC
  5
21BD
330
17
100
AcDbEntity
  8
HALDER_NORM
 62
     7
100
AcDbCircle
 10
96.52616544788266
 20
158.1327703299968
 30
0.0
 40
10.5
100
AcDbArc
 50
250.6639424853865
 51
289.3360575146134
  0
ARC
  5
21BF
330
17
100
AcDbEntity
  8
HALDER_NORM
 62
     7
100
AcDbCircle
 10
96.52616544788266
 20
158.1327703299968
 30
0.0
 40
19.0
100
AcDbArc
 50
324.6823015888011
 51
1.317698411199108
  0
LINE
  5
21C1
330
17
100
AcDbEntity
  8
HALDER_NORM
 62
     7
100
AcDbLine
 10
104.6789023139353
 20
148.3203862367753
 30
0.0
 11
110.3668913270327
 21
146.5813934796717
 31
0.0
  0
ARC
  5
21C2
330
17
100
AcDbEntity
  8
HALDER_NORM
 62
     7
100
AcDbCircle
 10
110.8054488841168
 20
148.0158506136163
 30
0.0
 40
1.499999999999995
100
AcDbArc
 50
252.9999999999997
 51
324.6823015888011
  0
ARC
  5
21C3
330
17
100
AcDbEntity
  8
HALDER_NORM
 62
     7
100
AcDbCircle
 10
102.4861145285148
 20
141.1481005670526
 30
0.0
 40
7.499999999999997
100
AcDbArc
 50
72.99999999999982
 51
109.3360575146134
  0
LINE
  5
21C4
330
17
100
AcDbEntity
  8
HALDER_NORM
 62
     7
100
AcDbLine
 10
114.460095193151
 20
159.9696600631542
 30
0.0
 11
108.8333776624621
 21
161.6899202481871
 31
0.0
  0
ARC
  5
21C5
330
17
100
AcDbEntity
  8
HALDER_NORM
 62
     7
100
AcDbCircle
 10
114.0215376360669
 20
158.5352029292097
 30
0.0
 40
1.499999999999999
100
AcDbArc
 50
1.317698411199108
 51
72.99999999999982
  0
ARC
  5
21C6
330
17
100
AcDbEntity
  8
HALDER_NORM
 62
     7
100
AcDbCircle
 10
96.52616544788266
 20
158.1327703299968
 30
0.0
 40
19.0
100
AcDbArc
 50
178.6823015888009
 51
215.3176984111988
  0
LINE
  5
21C8
330
17
100
AcDbEntity
  8
HALDER_NORM
 62
     7
100
AcDbLine
 10
88.37342858183001
 20
148.3203862367753
 30
0.0
 11
82.68543956873262
 21
146.5813934796717
 31
0.0
  0
ARC
  5
21C9
330
17
100
AcDbEntity
  8
HALDER_NORM
 62
     7
100
AcDbCircle
 10
90.56621636725049
 20
141.1481005670526
 30
0.0
 40
7.499999999999997
100
AcDbArc
 50
70.66394248538656
 51
107.0000000000002
  0
ARC
  5
21CA
330
17
100
AcDbEntity
  8
HALDER_NORM
 62
     7
100
AcDbCircle
 10
82.2468820116485
 20
148.0158506136163
 30
0.0
 40
1.499999999999999
100
AcDbArc
 50
215.3176984111988
 51
287.0000000000002
  0
LINE
  5
21CB
330
17
100
AcDbEntity
  8
HALDER_NORM
 62
     7
100
AcDbLine
 10
78.59223570261431
 20
159.9696600631542
 30
0.0
 11
84.21895323330321
 21
161.6899202481871
 31
0.0
  0
ARC
  5
21CC
330
17
100
AcDbEntity
  8
HALDER_NORM
 62
     7
100
AcDbCircle
 10
79.03079325969838
 20
158.5352029292097
 30
0.0
 40
1.499999999999999
100
AcDbArc
 50
107.0000000000002
 51
178.6823015888009
  0
CIRCLE
  5
21CD
330
17
100
AcDbEntity
  8
HALDER_NORM
 62
     7
100
AcDbCircle
 10
96.52616544788266
 20
173.1327703299968
 30
0.0
 40
1.75
  0
ARC
  5
21CE
330
17
100
AcDbEntity
  8
HALDER_NORM
 62
     7
100
AcDbCircle
 10
96.52616544788266
 20
158.1327703299968
 30
0.0
 40
19.0
100
AcDbArc
 50
71.68230158880142
 51
108.3176984111985
  0
ARC
  5
21CF
330
17
100
AcDbEntity
  8
HALDER_MLINIE
  6
DASHDOT
 62
     2
100
AcDbCircle
 10
96.52616544788266
 20
173.1327703299968
 30
0.0
 40
1.0
100
AcDbArc
 50
180.0
 51
0.0
  0
LINE
  5
21D2
330
17
100
AcDbEntity
  8
HALDER_NORM
 62
     7
100
AcDbLine
 10
103.5261654478826
 20
174.7460180558329
 30
0.0
 11
103.5261654478826
 21
168.8622059179099
 31
0.0
  0
ARC
  5
21D4
330
17
100
AcDbEntity
  8
HALDER_NORM
 62
     7
100
AcDbCircle
 10
102.0261654478826
 20
174.746018055833
 30
0.0
 40
1.5
100
AcDbArc
 50
0.0
 51
71.68230158880142
  0
LINE
  5
21D6
330
17
100
AcDbEntity
  8
HALDER_NORM
 62
     7
100
AcDbLine
 10
89.52616544788268
 20
174.7460180558329
 30
0.0
 11
89.52616544788268
 21
168.8622059179099
 31
0.0
  0
ARC
  5
21D8
330
17
100
AcDbEntity
  8
HALDER_NORM
 62
     7
100
AcDbCircle
 10
91.02616544788265
 20
174.746018055833
 30
0.0
 40
1.500000000000004
100
AcDbArc
 50
108.3176984111985
 51
180.0
  0
MTEXT
  5
22A4
102
{ACAD_REACTORS
330
22A3
102
}
330
17
100
AcDbEntity
  8
0
100
AcDbMText
 10
116.8922707366303
 20
132.1767212601893
 30
0.0
 40
4.0
 41
0.0
 71
     1
 72
     1
  1
  
  7
EXTFONT
 73
     1
 44
1.0
  0
LINE
  5
2391
330
17
100
AcDbEntity
  8
1
100
AcDbLine
 10
155.8977014478826
 20
157.2325261068362
 30
0.0
 11
228.4571277165366
 21
157.2325261068362
 31
0.0
  0
LINE
  5
23A3
330
17
100
AcDbEntity
  8
0
100
AcDbLine
 10
222.6977014478826
 20
155.2325261068362
 30
0.0
 11
222.6977014478826
 21
159.2325261068362
 31
0.0
  0
CIRCLE
  5
23B2
330
17
100
AcDbEntity
  8
0
100
AcDbCircle
 10
217.4977014478826
 20
157.2325261068362
 30
0.0
 40
1.5
  0
LINE
  5
23B4
330
17
100
AcDbEntity
  8
0
100
AcDbLine
 10
220.6977014478826
 20
161.2325261068362
 30
0.0
 11
185.9977014478826
 21
161.2325261068362
 31
0.0
  0
LINE
  5
23B6
330
17
100
AcDbEntity
  8
0
100
AcDbLine
 10
185.9977014478826
 20
153.2325261068362
 30
0.0
 11
220.6977014478826
 21
153.2325261068362
 31
0.0
  0
LINE
  5
23B7
330
17
100
AcDbEntity
  8
0
100
AcDbLine
 10
222.6977014478826
 20
159.2325261068362
 30
0.0
 11
220.6977014478826
 21
161.2325261068362
 31
0.0
  0
LINE
  5
23B8
330
17
100
AcDbEntity
  8
0
100
AcDbLine
 10
222.6977014478826
 20
155.2325261068362
 30
0.0
 11
220.6977014478826
 21
153.2325261068362
 31
0.0
  0
LINE
  5
23B9
330
17
100
AcDbEntity
  8
0
100
AcDbLine
 10
220.6977014478826
 20
161.2325261068362
 30
0.0
 11
220.6977014478826
 21
153.2325261068362
 31
0.0
  0
ARC
  5
23BF
330
17
100
AcDbEntity
  8
2
100
AcDbCircle
 10
137.2737496595719
 20
156.0679619862376
 30
0.0
 40
24.65147482938977
100
AcDbArc
 50
2.70772653632445
 51
34.85502889393865
  0
ARC
  5
23C0
330
17
100
AcDbEntity
  8
2
100
AcDbCircle
 10
137.2737496595719
 20
158.3970902274348
 30
0.0
 40
24.65147482938977
100
AcDbArc
 50
330.5531265368014
 51
357.2922734636755
  0
MTEXT
  5
2448
102
{ACAD_REACTORS
330
2447
102
}
330
17
100
AcDbEntity
  8
0
100
AcDbMText
 10
113.0584891108044
 20
128.6735294426001
 30
0.0
 40
4.0
 41
0.0
 71
     1
 72
     1
  1
　
  7
EXTFONT
 73
     1
 44
1.0
  0
MTEXT
  5
244A
102
{ACAD_REACTORS
330
2449
102
}
330
17
100
AcDbEntity
  8
0
100
AcDbMText
 10
262.1491258494138
 20
135.668882405376
 30
0.0
 40
4.0
 41
0.0
 71
     1
 72
     1
  1
　
  7
EXTFONT
 73
     1
 44
1.0
  0
MTEXT
  5
244C
102
{ACAD_REACTORS
330
244B
102
}
330
17
100
AcDbEntity
  8
0
100
AcDbMText
 10
200.6872713359627
 20
181.2907535111112
 30
0.0
 40
4.0
 41
0.0
 71
     1
 72
     1
  1
\P　
  7
EXTFONT
 73
     1
 44
1.0
  0
MTEXT
  5
244E
102
{ACAD_REACTORS
330
244D
102
}
330
17
100
AcDbEntity
  8
0
100
AcDbMText
 10
249.0656609892057
 20
193.4565858059739
 30
0.0
 40
4.0
 41
0.0
 71
     1
 72
     1
  1
　
  7
EXTFONT
 73
     1
 44
1.0
  0
ENDSEC
  0
SECTION
  2
OBJECTS
  0
DICTIONARY
  5
C
330
0
100
AcDbDictionary
281
     1
  3
ACAD_GROUP
350
D
  3
ACAD_LAYOUT
350
141F
  3
ACAD_MLINESTYLE
350
1A
  3
ACAD_PLOTSETTINGS
350
1420
  3
ACAD_PLOTSTYLENAME
350
141D
  3
AcadDim
350
1FDE
  3
ACDBVARIABLEDICTIONARY
350
29
  3
AcmDictionary
350
14E5
  3
AMG
350
142A
  3
AMGSNAPSETTINGS
350
152C
  3
DWGPROPS
350
2309
  3
MAPISURF_MODULE
350
14B7
  0
DICTIONARY
  5
151F
330
17
100
AcDbDictionary
280
     1
281
     1
  3
ACAD_INDEX
360
1520
  0
DICTIONARY
  5
D
102
{ACAD_REACTORS
330
C
102
}
330
C
100
AcDbDictionary
281
     1
  0
DICTIONARY
  5
141F
102
{ACAD_REACTORS
330
C
102
}
330
C
100
AcDbDictionary
281
     1
  3
Model
350
1421
  3
ﾚｲｱｳﾄ1
350
1422
  0
DICTIONARY
  5
1A
102
{ACAD_REACTORS
330
C
102
}
330
C
100
AcDbDictionary
281
     1
  3
STANDARD
350
1B
  0
DICTIONARY
  5
1420
102
{ACAD_REACTORS
330
C
102
}
330
C
100
AcDbDictionary
281
     1
  0
ACDBDICTIONARYWDFLT
  5
141D
102
{ACAD_REACTORS
330
C
102
}
330
C
100
AcDbDictionary
281
     1
  3
Normal
350
141E
100
AcDbDictionaryWithDefault
340
141E
  0
XRECORD
  5
1FDE
102
{ACAD_REACTORS
330
C
102
}
330
C
100
AcDbXrecord
280
     1
 90
   990106
  3

 60
     0
 61
     0
 62
     1
 63
     3
 64
     0
 65
     0
 66
     0
 67
     3
 68
     1
 69
     0
 70
     0
 71
     0
 72
     0
 40
0.0
170
     0
340
244E
  0
DICTIONARY
  5
29
102
{ACAD_REACTORS
330
C
102
}
330
C
100
AcDbDictionary
281
     1
  3
DIMADEC
350
2A
  3
DIMASSOC
350
152A
  3
INDEXCTL
350
1529
  3
SORTENTS
350
DDD
  0
DICTIONARY
  5
14E5
102
{ACAD_REACTORS
330
C
102
}
330
C
100
AcDbDictionary
281
     1
  3
AcmBOMDATA
350
14E6
  3
AcmStdDictionary
350
14F4
  0
DICTIONARY
  5
142A
102
{ACAD_REACTORS
330
C
102
}
330
C
100
AcDbDictionary
281
     1
  3
AcMgSettings
350
142B
  3
AMGLAYCFG
350
14F6
  0
DICTIONARY
  5
152C
102
{ACAD_REACTORS
330
C
102
}
330
C
100
AcDbDictionary
281
     1
  3
DIMENSION
350
1531
  3
FEA
350
1530
  3
HATCH (1)
350
152D
  3
HATCH (2)
350
152E
  3
SIMPLE WELD
350
1532
  3
SYMBOLS
350
152F
  0
XRECORD
  5
2309
102
{ACAD_REACTORS
330
C
102
}
330
C
100
AcDbXrecord
280
     1
  1
DWGPROPS COOKIE
  2

  3

  4

  6

  7

  8

  9

300
AmdtFileType=84
301
=
302
=
303
=
304
=
305
=
306
=
307
=
308
=
309
=
 40
1.844682511574074
 41
2449442.471851852
 42
2456807.721717476
  1

 90
        1
  0
DICTIONARY
  5
1520
102
{ACAD_REACTORS
330
151F
102
}
330
151F
100
AcDbDictionary
281
     1
  3
*A1
350
1521
  0
LAYOUT
  5
1421
102
{ACAD_REACTORS
330
141F
102
}
330
141F
100
AcDbPlotSettings
  1

  2
EPSON PM-3700C
  4
B4 (JIS)
  6
OLE1
 40
3.757083177566528
 41
14.7637300491333
 42
3.757080078125
 43
3.757080078125
 44
257.0338745117187
 45
363.99609375
 46
0.0
 47
0.0
 48
0.0
 49
0.0
140
0.0
141
0.0
142
1.0
143
0.8249756462968619
 70
 11952
 72
     1
 73
     1
 74
     1
  7

 75
     0
147
1.212156994559517
148
0.0043457023081146
149
0.0029733752634229
100
AcDbLayout
  1
Model
 70
     1
 71
     0
 10
0.0
 20
0.0
 11
12.0
 21
9.0
 12
0.0
 22
0.0
 32
0.0
 14
0.0
 24
0.0
 34
0.0
 15
0.0
 25
0.0
 35
0.0
146
0.0
 13
0.0
 23
0.0
 33
0.0
 16
1.0
 26
0.0
 36
0.0
 17
0.0
 27
1.0
 37
0.0
 76
     0
330
17
  0
LAYOUT
  5
1422
102
{ACAD_REACTORS
330
141F
102
}
330
141F
100
AcDbPlotSettings
  1

  2
EPSON PM-3700C
  4

  6

 40
0.0
 41
0.0
 42
0.0
 43
0.0
 44
0.0
 45
0.0
 46
0.0
 47
0.0
 48
0.0
 49
0.0
140
0.0
141
0.0
142
1.0
143
1.0
 70
   688
 72
     0
 73
     0
 74
     5
  7

 75
    16
147
1.0
148
0.0
149
0.0
100
AcDbLayout
  1
ﾚｲｱｳﾄ1
 70
     1
 71
     1
 10
0.0
 20
0.0
 11
12.0
 21
9.0
 12
0.0
 22
0.0
 32
0.0
 14
1.000000000000000E+20
 24
1.000000000000000E+20
 34
1.000000000000000E+20
 15
-1.000000000000000E+20
 25
-1.000000000000000E+20
 35
-1.000000000000000E+20
146
0.0
 13
0.0
 23
0.0
 33
0.0
 16
1.0
 26
0.0
 36
0.0
 17
0.0
 27
1.0
 37
0.0
 76
     0
330
14
  0
MLINESTYLE
  5
1B
102
{ACAD_REACTORS
330
1A
102
}
330
1A
100
AcDbMlineStyle
  2
STANDARD
 70
     0
  3

 62
   256
 51
90.0
 52
90.0
 71
     2
 49
0.5
 62
   256
  6
BYLAYER
 49
-0.5
 62
   256
  6
BYLAYER
  0
ACDBPLACEHOLDER
  5
141E
102
{ACAD_REACTORS
330
141D
102
}
330
141D
  0
DICTIONARYVAR
  5
2A
102
{ACAD_REACTORS
330
29
102
}
330
29
100
DictionaryVariables
280
     0
  1
0
  0
DICTIONARYVAR
  5
152A
102
{ACAD_REACTORS
330
29
102
}
330
29
100
DictionaryVariables
280
     0
  1
1
  0
DICTIONARYVAR
  5
1529
102
{ACAD_REACTORS
330
29
102
}
330
29
100
DictionaryVariables
280
     0
  1
1
  0
DICTIONARYVAR
  5
DDD
102
{ACAD_REACTORS
330
29
102
}
330
29
100
DictionaryVariables
280
     0
  1
96
  0
ACMDATADICTIONARY
  5
14E6
102
{ACAD_REACTORS
330
14E5
102
}
330
14E5
100
AcDbDictionary
281
     1
  3
*A1
350
14E7
100
AcmDataDictionary
  0
DICTIONARY
  5
14F4
102
{ACAD_REACTORS
330
14E5
102
}
330
14E5
100
AcDbDictionary
281
     1
  3
ANSI
350
14F5
  0
DICTIONARY
  5
142B
102
{ACAD_REACTORS
330
142A
102
}
330
142A
100
AcDbDictionary
281
     1
  3
DWGSETTINGS
350
142C
  3
TRANSSETTINGS
350
1430
  0
ACAMGFILTERDAT
  5
1531
102
{ACAD_REACTORS
330
152C
102
}
330
152C
100
AcAmgFilterDat
 70
    15
  1
DIMENSION,AMDT_*_DIM
  2
*
  3
*
  4
*
  5
*
290
     1
  0
ACAMGFILTERDAT
  5
1530
102
{ACAD_REACTORS
330
152C
102
}
330
152C
100
AcAmgFilterDat
 70
    15
  1
*
  2
AM_FEA-AM_*
  3
*
  4
*
  5
*
290
     1
  0
ACAMGFILTERDAT
  5
152D
102
{ACAD_REACTORS
330
152C
102
}
330
152C
100
AcAmgFilterDat
 70
    15
  1
HATCH
  2
*
  3
*
  4
*
  5
*
290
     1
  0
ACAMGFILTERDAT
  5
152E
102
{ACAD_REACTORS
330
152C
102
}
330
152C
100
AcAmgFilterDat
 70
    15
  1
LINE
  2
8,8N,*-8,*-8N,AM_8,AM_8N,*-AM_8,*-AM_8N
  3
*
  4
*
  5
INSERT,STDPART2D
290
     1
  0
ACAMGFILTERDAT
  5
1532
102
{ACAD_REACTORS
330
152C
102
}
330
152C
100
AcAmgFilterDat
 70
    15
  1
ARC
  2
AM_5
  3
*
  4
2
  5
INSERT
290
     0
  0
ACAMGFILTERDAT
  5
152F
102
{ACAD_REACTORS
330
152C
102
}
330
152C
100
AcAmgFilterDat
 70
    15
  1
ACMFCFRAME,ACMDATUMTARGET,ACMDATUMID,ACMWELDSYM,ACMSURFSYM,ACMFEATID,ACMPARTREF,ACMBALLOON,AMDTEDGESYM,AMGSCREWCALCTABLE
  2
*
  3
*
  4
*
  5
*
290
     1
  0
LAYER_INDEX
  5
1521
102
{ACAD_REACTORS
330
1520
102
}
330
1520
100
AcDbIndex
 40
2457676.596506435
100
AcDbLayerIndex
  8
0
360
1522
 90
       12
  8
1
360
1523
 90
        1
  8
2
360
1524
 90
        2
  8
3
360
1525
 90
        0
  8
画層3
360
1526
 90
        0
  8
DEFPOINTS
360
1527
 90
        0
  8
HALDER_NORMTEILE
360
211D
 90
        0
  8
HALDER_NORMTEILE_MITTELLINIE
360
211E
 90
        0
  8
HALDER_NORM
360
22AF
 90
       62
  8
HALDER_MLINIE
360
22B0
 90
        2
  8
HALDER_INFO
360
22B1
 90
        0
  0
ACMDATAENTRYBLOCK
  5
14E7
102
{ACAD_REACTORS
330
14E6
102
}
330
14E6
100
AcmDataEntry
100
AcmDataEntryBlock
  0
IDBUFFER
  5
1522
330
0
100
AcDbIdBuffer
330
244E
330
244C
330
244A
330
2448
330
23B9
330
23B8
330
23B7
330
23B6
330
23B4
330
23B2
330
23A3
330
22A4
  0
IDBUFFER
  5
1523
330
0
100
AcDbIdBuffer
330
2391
  0
IDBUFFER
  5
1524
330
0
100
AcDbIdBuffer
330
23BF
330
23C0
  0
IDBUFFER
  5
1525
330
0
100
AcDbIdBuffer
  0
IDBUFFER
  5
1526
330
0
100
AcDbIdBuffer
  0
IDBUFFER
  5
1527
330
0
100
AcDbIdBuffer
  0
IDBUFFER
  5
211D
330
0
100
AcDbIdBuffer
  0
IDBUFFER
  5
211E
330
0
100
AcDbIdBuffer
  0
IDBUFFER
  5
22AF
330
0
100
AcDbIdBuffer
330
215C
330
215D
330
215E
330
2167
330
2168
330
2169
330
216A
330
216B
330
216C
330
216D
330
216E
330
216F
330
2170
330
2171
330
2172
330
2173
330
2174
330
2175
330
2176
330
2177
330
2178
330
217A
330
217B
330
217C
330
217D
330
217E
330
217F
330
2180
330
2181
330
2182
330
2183
330
2184
330
2185
330
2186
330
2187
330
2189
330
218A
330
218B
330
218C
330
218D
330
21B7
330
21B8
330
21BB
330
21BD
330
21BF
330
21C1
330
21C2
330
21C3
330
21C4
330
21C5
330
21C6
330
21C8
330
21C9
330
21CA
330
21CB
330
21CC
330
21CD
330
21CE
330
21D2
330
21D4
330
21D6
330
21D8
  0
IDBUFFER
  5
22B0
330
0
100
AcDbIdBuffer
330
2188
330
21CF
  0
IDBUFFER
  5
22B1
330
0
100
AcDbIdBuffer
  0
ENDSEC
  0
EOF
