  0
SECTION
  2
HEADER
  9
$ACADVER
  1
AC1009
  9
$INSBASE
 10
0.0
 20
0.0
 30
0.0
  9
$EXTMIN
 10
78.4863646989638823
 20
140.0149259540388869
 30
0.0
  9
$EXTMAX
 10
251.7361281299990878
 20
179.7845105100498131
 30
0.0
  9
$LIMMIN
 10
0.0
 20
0.0
  9
$LIMMAX
 10
360.0
 20
250.0
  9
$ORTHOMODE
 70
     1
  9
$REGENMODE
 70
     1
  9
$FILLMODE
 70
     1
  9
$QTEXTMODE
 70
     0
  9
$MIRRTEXT
 70
     1
  9
$DRAGMODE
 70
     2
  9
$LTSCALE
 40
1.0
  9
$OSMODE
 70
    37
  9
$ATTMODE
 70
     1
  9
$TEXTSIZE
 40
4.0
  9
$TRACEWID
 40
0.05
  9
$TEXTSTYLE
  7
EXTFONT
  9
$CLAYER
  8
1
  9
$CELTYPE
  6
BYLAYER
  9
$CECOLOR
 62
   256
  9
$DIMSCALE
 40
0.0
  9
$DIMASZ
 40
2.0
  9
$DIMEXO
 40
0.5
  9
$DIMDLI
 40
0.38
  9
$DIMRND
 40
0.0
  9
$DIMDLE
 40
0.0
  9
$DIMEXE
 40
0.5
  9
$DIMTP
 40
0.0
  9
$DIMTM
 40
0.0
  9
$DIMTXT
 40
4.0
  9
$DIMCEN
 40
0.09
  9
$DIMTSZ
 40
0.0
  9
$DIMTOL
 70
     0
  9
$DIMLIM
 70
     0
  9
$DIMTIH
 70
     0
  9
$DIMTOH
 70
     1
  9
$DIMSE1
 70
     0
  9
$DIMSE2
 70
     0
  9
$DIMTAD
 70
     0
  9
$DIMZIN
 70
     8
  9
$DIMBLK
  1

  9
$DIMASO
 70
     1
  9
$DIMSHO
 70
     1
  9
$DIMPOST
  1

  9
$DIMAPOST
  1

  9
$DIMALT
 70
     0
  9
$DIMALTD
 70
     2
  9
$DIMALTF
 40
25.3999999999999986
  9
$DIMLFAC
 40
1.0
  9
$DIMTOFL
 70
     1
  9
$DIMTVP
 40
0.0
  9
$DIMTIX
 70
     0
  9
$DIMSOXD
 70
     0
  9
$DIMSAH
 70
     0
  9
$DIMBLK1
  1

  9
$DIMBLK2
  1

  9
$DIMSTYLE
  2
STANDARD
  9
$DIMCLRD
 70
     0
  9
$DIMCLRE
 70
     0
  9
$DIMCLRT
 70
     0
  9
$DIMTFAC
 40
1.0
  9
$DIMGAP
 40
0.09
  9
$LUNITS
 70
     2
  9
$LUPREC
 70
     4
  9
$SKETCHINC
 40
0.1
  9
$FILLETRAD
 40
1.0
  9
$AUNITS
 70
     0
  9
$AUPREC
 70
     0
  9
$MENU
  1
acad
  9
$ELEVATION
 40
0.0
  9
$PELEVATION
 40
0.0
  9
$THICKNESS
 40
0.0
  9
$LIMCHECK
 70
     0
  9
$BLIPMODE
 70
     0
  9
$CHAMFERA
 40
2.0
  9
$CHAMFERB
 40
2.0
  9
$SKPOLY
 70
     0
  9
$TDCREATE
 40
2449442.4718518517911434
  9
$TDUPDATE
 40
2459620.6401504632085562
  9
$TDINDWG
 40
2.0926149073999998
  9
$TDUSRTIMER
 40
2.0926149073999998
  9
$USRTIMER
 70
     1
  9
$ANGBASE
 50
0.0
  9
$ANGDIR
 70
     0
  9
$PDMODE
 70
     0
  9
$PDSIZE
 40
0.0
  9
$PLINEWID
 40
0.0
  9
$COORDS
 70
     1
  9
$SPLFRAME
 70
     0
  9
$SPLINETYPE
 70
     6
  9
$SPLINESEGS
 70
     8
  9
$ATTDIA
 70
     1
  9
$ATTREQ
 70
     1
  9
$HANDLING
 70
     1
  9
$HANDSEED
  5
276D
  9
$SURFTAB1
 70
     6
  9
$SURFTAB2
 70
     6
  9
$SURFTYPE
 70
     6
  9
$SURFU
 70
     6
  9
$SURFV
 70
     6
  9
$UCSNAME
  2

  9
$UCSORG
 10
0.0
 20
0.0
 30
0.0
  9
$UCSXDIR
 10
1.0
 20
0.0
 30
0.0
  9
$UCSYDIR
 10
0.0
 20
1.0
 30
0.0
  9
$PUCSNAME
  2

  9
$PUCSORG
 10
0.0
 20
0.0
 30
0.0
  9
$PUCSXDIR
 10
1.0
 20
0.0
 30
0.0
  9
$PUCSYDIR
 10
0.0
 20
1.0
 30
0.0
  9
$USERI1
 70
     0
  9
$USERI2
 70
     0
  9
$USERI3
 70
     0
  9
$USERI4
 70
     0
  9
$USERI5
 70
     0
  9
$USERR1
 40
0.0
  9
$USERR2
 40
0.0
  9
$USERR3
 40
0.0
  9
$USERR4
 40
0.0
  9
$USERR5
 40
0.0
  9
$WORLDVIEW
 70
     1
  9
$SHADEDGE
 70
     3
  9
$SHADEDIF
 70
    70
  9
$TILEMODE
 70
     1
  9
$MAXACTVP
 70
    16
  9
$PLIMCHECK
 70
     0
  9
$PEXTMIN
 10
1.0000000000000000E+20
 20
1.0000000000000000E+20
 30
1.0000000000000000E+20
  9
$PEXTMAX
 10
-1.0000000000000000E+20
 20
-1.0000000000000000E+20
 30
-1.0000000000000000E+20
  9
$PLIMMIN
 10
0.0
 20
0.0
  9
$PLIMMAX
 10
12.0
 20
9.0
  9
$UNITMODE
 70
     0
  9
$VISRETAIN
 70
     0
  9
$PLINEGEN
 70
     0
  9
$PSLTSCALE
 70
     1
  0
ENDSEC
  0
SECTION
  2
TABLES
  0
TABLE
  2
VPORT
 70
     1
  0
VPORT
  2
*ACTIVE
 70
     0
 10
0.0
 20
0.0
 11
1.0
 21
1.0
 12
18.1164062720892503
 22
55.4358421068249925
 13
0.0
 23
0.0
 14
5.0
 24
5.0
 15
5.0
 25
5.0
 16
0.0
 26
0.0
 36
1.0
 17
167.0600509472066051
 27
97.5000004540197551
 37
0.0
 40
154.9893624435233903
 41
1.603973509933774
 42
50.0
 43
0.0
 44
0.0
 50
0.0
 51
0.0
 71
     0
 72
 20000
 73
     1
 74
     1
 75
     0
 76
     0
 77
     0
 78
     0
  0
ENDTAB
  0
TABLE
  2
LTYPE
 70
    24
  0
LTYPE
  2
CONTINUOUS
 70
     0
  3
Solid line
 72
    65
 73
     0
 40
0.0
  0
LTYPE
  2
ITTEN1
 70
     0
  3

 72
    65
 73
     4
 40
8.1999999999999993
 49
5.0
 49
-1.0
 49
1.1999999999999991
 49
-1.0
  0
LTYPE
  2
TENSEN2
 70
     0
  3

 72
    65
 73
     2
 40
2.1000000000000001
 49
1.5
 49
-0.6
  0
LTYPE
  2
HIDDEN2
 70
     0
  3
Hidden (.5x) _ _ _ _ _ _ _ _ _ _ _ _ _ _ _ _ _
 72
    65
 73
     2
 40
0.1875
 49
0.125
 49
-0.0625
  0
LTYPE
  2
HIDDEN
 70
     0
  3
Hidden __ __ __ __ __ __ __ __ __ __ __ __ __ _
 72
    65
 73
     2
 40
0.375
 49
0.25
 49
-0.125
  0
LTYPE
  2
TENSEN3
 70
     0
  3

 72
    65
 73
     2
 40
4.0
 49
3.0
 49
-1.0
  0
LTYPE
  2
PHANTOM2
 70
     0
  3
Phantom (.5x) ___ _ _ ___ _ _ ___ _ _ ___ _ _
 72
    65
 73
     6
 40
1.25
 49
0.625
 49
-0.125
 49
0.125
 49
-0.125
 49
0.125
 49
-0.125
  0
LTYPE
  2
CENTER
 70
     0
  3
Center ____ _ ____ _ ____ _ ____ _ ____ _ ____
 72
    65
 73
     4
 40
2.0
 49
1.25
 49
-0.25
 49
0.25
 49
-0.25
  0
LTYPE
  2
ASULTYPE
 70
     0
  3
実線
 72
    65
 73
     2
 40
3.0
 49
2.5
 49
0.5
  0
LTYPE
  2
ASVLTYPE
 70
     0
  3
__ __ __ __ __ __ __ __ __ __ __ __ __ __ __ __ __ __ __ __ __
 72
    65
 73
     2
 40
0.75
 49
0.5
 49
-0.25
  0
LTYPE
  2
AM_ISO02W050
 70
     0
  3
__ __ __ __ __ __ __ __ __ __ __ __ __ __ __
 72
    65
 73
     2
 40
7.5
 49
6.0
 49
-1.5
  0
LTYPE
  2
AM_ISO08W050
 70
     0
  3
____ . ____ . ____ . ____ . ____ . ____ . ____
 72
    65
 73
     4
 40
18.0
 49
12.0
 49
-1.5
 49
3.0
 49
-1.5
  0
LTYPE
  2
AM_ISO09W050
 70
     0
  3
_____ . . _____ . . _____ . . ____ .. ____
 72
    65
 73
     6
 40
22.5
 49
12.0
 49
-1.5
 49
3.0
 49
-1.5
 49
3.0
 49
-1.5
  0
LTYPE
  2
AMCONSTR
 70
     0
  3
_______________________
 72
    65
 73
     2
 40
9999.0
 49
9999.0
 49
0.0
  0
LTYPE
  2
AM_ISO08W050X2
 70
     0
  3
__ . __ . __ . __ . __ . __
 72
    65
 73
     4
 40
9.0
 49
6.0
 49
-0.75
 49
1.5
 49
-0.75
  0
LTYPE
  2
AM_ISO02W050X2
 70
     0
  3
 _ _ _ _ _ _ _ _ _ _ _ _
 72
    65
 73
     2
 40
3.75
 49
3.0
 49
-0.75
  0
LTYPE
  2
AMZIGZAG
 70
     0
  3
/\/-/\/-/\/-/\/-/\/-/\/
 72
    65
 73
     2
 40
11.0000999999999909
 49
0.0001
 49
-11.0
  0
LTYPE
  2
CENTER2
 70
     0
  3
Center (.5x) ___ _ ___ _ ___ _ ___ _ ___ _ ___
 72
    65
 73
     4
 40
1.125
 49
0.75
 49
-0.125
 49
0.125
 49
-0.125
  0
LTYPE
  2
AMZIGZAG2
 70
     0
  3
/\/-/\/-/\/-/\/-/\/-/\/
 72
    65
 73
     2
 40
0.4401
 49
0.0001
 49
-0.4400000000000002
  0
LTYPE
  2
ACANSTGB
 70
     0
  3
__ . . __ . .
 72
    65
 73
     6
 40
0.35433070866
 49
0.15748031496
 49
-0.03937007874
 49
0.03937007874
 49
-0.03937007874
 49
0.03937007874
 49
-0.03937007874
  0
LTYPE
  2
ACANSTGL
 70
     0
  3
_ _ _ _ _
 72
    65
 73
     2
 40
0.11811023622
 49
0.07874015748
 49
-0.03937007874
  0
LTYPE
  2
DASHED
 70
     0
  3
Dashed __ __ __ __ __ __ __ __ __ __ __ __ __ _
 72
    65
 73
     2
 40
0.75
 49
0.5
 49
-0.25
  0
LTYPE
  2
DASHDOT
 70
     0
  3
__ . __ . __ .
 72
    65
 73
     4
 40
1.944736999999999
 49
0.9723679999999999
 49
-0.486184
 49
0.0
 49
-0.486184
  0
ENDTAB
  0
TABLE
  2
LAYER
 70
    11
  0
LAYER
  2
0
 70
     0
 62
     7
  6
CONTINUOUS
  0
LAYER
  2
1
 70
     0
 62
     1
  6
ITTEN1
  0
LAYER
  2
2
 70
     0
 62
     7
  6
TENSEN2
  0
LAYER
  2
3
 70
     0
 62
     5
  6
CONTINUOUS
  0
LAYER
  2
画層3
 70
     0
 62
     3
  6
CONTINUOUS
  0
LAYER
  2
DEFPOINTS
 70
     0
 62
     1
  6
CONTINUOUS
  0
LAYER
  2
HALDER_NORMTEILE
 70
     0
 62
     1
  6
CONTINUOUS
  0
LAYER
  2
HALDER_NORMTEILE_MITTELLIN
 70
     0
 62
     1
  6
CONTINUOUS
  0
LAYER
  2
HALDER_NORM
 70
     0
 62
     6
  6
CONTINUOUS
  0
LAYER
  2
HALDER_MLINIE
 70
     0
 62
     7
  6
CONTINUOUS
  0
LAYER
  2
HALDER_INFO
 70
     0
 62
     3
  6
CONTINUOUS
  0
ENDTAB
  0
TABLE
  2
STYLE
 70
     7
  0
STYLE
  2
STANDARD
 70
     0
 40
0.0
 41
1.0
 50
0.0
 71
     0
 42
0.2
  3
txt
  4

  0
STYLE
  2
EXTFONT
 70
     0
 40
4.0
 41
0.75
 50
0.0
 71
     0
 42
4.0
  3
txt.shx
  4
extfont.shx
  0
STYLE
  2
BIGFONT
 70
     0
 40
5.0
 41
0.7
 50
0.0
 71
     0
 42
5.0
  3
txt.shx
  4
bigfont.shx
  0
STYLE
  2
ROMAND
 70
     0
 40
4.0
 41
0.6
 50
0.0
 71
     0
 42
4.0
  3
romand
  4

  0
STYLE
  2

 70
     1
 40
0.0
 41
1.0
 50
0.0
 71
     0
 42
4.0
  3
ltypeshp.shx
  4

  0
STYLE
  2
ACANSTS
 70
     0
 40
1.0
 41
1.0
 50
0.0
 71
     0
 42
4.0
  3
romans.shx
  4
extfont.shx
  0
STYLE
  2
ACANSGDT
 70
     0
 40
0.0
 41
1.0
 50
0.0
 71
     0
 42
4.0
  3
amgdtans.shx
  4

  0
ENDTAB
  0
TABLE
  2
VIEW
 70
     2
  0
VIEW
  2
OLE1
 70
     0
 40
20.0791214830011597
 10
17.5
 20
10.0395607415005799
 41
35.0
 11
0.0
 21
0.0
 31
1.0
 12
0.0
 22
0.0
 32
0.0
 42
50.0
 43
0.0
 44
0.0
 50
0.0
 71
     0
  0
ENDTAB
  0
TABLE
  2
UCS
 70
     0
  0
ENDTAB
  0
TABLE
  2
APPID
 70
    17
  0
APPID
  2
ACAD
 70
     0
  0
APPID
  2
GENIUS_GENDIM_13
 70
     0
  0
APPID
  2
GENIUS_GENDTOL_13
 70
     0
  0
APPID
  2
GENIUS_GE3DTOL_13
 70
     0
  0
APPID
  2
MCAD_NO_VIS
 70
     0
  0
APPID
  2
ACAD_TEMP_GRAPHIC
 70
     0
  0
APPID
  2
AD_DRAW
 70
     0
  0
APPID
  2
ACATTRIBSERVICES
 70
     0
  0
APPID
  2
ASURF_PCURVE_APPNAME
 70
     0
  0
APPID
  2
AMG_3D2D_5_0
 70
     0
  0
APPID
  2
DESIGNERASSEMBLIES
 70
     0
  0
APPID
  2
ACADM_DIM_EDIT
 70
     0
  0
APPID
  2
AMDT_DM_ADJ
 70
     0
  0
APPID
  2
ACAD_DSTYLE_DIMRADIAL_EXTENSION
 70
     0
  0
APPID
  2
ACAD_EXEMPT_FROM_CAD_STANDARDS
 70
     0
  0
APPID
  2
ACAD_NAV_VCDISPLAY
 70
     0
  0
APPID
  2
ACAD_MLEADERVER
 70
     0
  0
ENDTAB
  0
TABLE
  2
DIMSTYLE
 70
     8
  0
DIMSTYLE
  2
STANDARD
 70
     0
  3

  4

  5

  6

  7

 40
1.0
 41
0.18
 42
0.0625
 43
0.38
 44
0.18
 45
0.0
 46
0.0
 47
0.0
 48
0.0
140
0.18
141
0.09
142
0.0
143
25.3999999999999986
144
1.0
145
0.0
146
1.0
147
0.09
 71
     0
 72
     0
 73
     1
 74
     1
 75
     0
 76
     0
 77
     0
 78
     0
170
     0
171
     2
172
     0
173
     0
174
     0
175
     0
176
     0
177
     0
178
     0
  0
DIMSTYLE
  2
AM_ANSI
 70
     0
  3

  4
mm
  5

  6

  7

 40
1.0
 41
0.1
 42
0.05
 43
0.5
 44
0.1
 45
0.0
 46
0.0
 47
0.1
 48
0.1
140
0.12
141
0.0
142
0.0
143
25.3999999999999986
144
1.0
145
0.0
146
0.71
147
0.06
 71
     0
 72
     0
 73
     1
 74
     1
 75
     0
 76
     0
 77
     0
 78
     7
170
     0
171
     2
172
     0
173
     0
174
     0
175
     0
176
   256
177
   256
178
     2
  0
DIMSTYLE
  2
AM_ANSI$3
 70
     0
  3

  4
mm
  5

  6

  7

 40
1.0
 41
0.1
 42
0.05
 43
0.5
 44
0.1
 45
0.0
 46
0.0
 47
0.1
 48
0.1
140
0.12
141
0.0
142
0.0
143
25.3999999999999986
144
1.0
145
0.0
146
0.71
147
0.06
 71
     0
 72
     0
 73
     1
 74
     1
 75
     0
 76
     0
 77
     0
 78
     7
170
     0
171
     2
172
     0
173
     0
174
     0
175
     0
176
   256
177
   256
178
     2
  0
DIMSTYLE
  2
AM_ANSI$4
 70
     0
  3

  4
mm
  5

  6

  7

 40
1.0
 41
0.1
 42
0.05
 43
0.5
 44
0.1
 45
0.0
 46
0.0
 47
0.1
 48
0.1
140
0.12
141
0.0
142
0.0
143
25.3999999999999986
144
1.0
145
0.0
146
0.71
147
0.06
 71
     0
 72
     0
 73
     1
 74
     1
 75
     0
 76
     0
 77
     0
 78
     7
170
     0
171
     2
172
     0
173
     0
174
     0
175
     0
176
   256
177
   256
178
     2
  0
DIMSTYLE
  2
AM_ANSI$7
 70
     0
  3

  4
mm
  5

  6

  7

 40
1.0
 41
0.1
 42
0.05
 43
0.5
 44
0.1
 45
0.0
 46
0.0
 47
0.1
 48
0.1
140
0.24
141
0.0
142
0.0
143
25.3999999999999986
144
1.0
145
0.0
146
0.71
147
0.06
 71
     0
 72
     0
 73
     1
 74
     1
 75
     0
 76
     0
 77
     0
 78
     7
170
     0
171
     2
172
     0
173
     0
174
     0
175
     0
176
   256
177
   256
178
     2
  0
DIMSTYLE
  2
AM_ANSI$SF
 70
     0
  3

  4
mm
  5

  6

  7

 40
1.0
 41
0.1
 42
0.05
 43
0.5
 44
0.1
 45
0.0
 46
0.0
 47
0.1
 48
0.1
140
0.12
141
0.0
142
0.0
143
25.3999999999999986
144
1.0
145
0.0
146
0.71
147
0.06
 71
     0
 72
     0
 73
     1
 74
     1
 75
     1
 76
     1
 77
     0
 78
     7
170
     0
171
     2
172
     0
173
     0
174
     0
175
     0
176
   256
177
   256
178
     2
  0
DIMSTYLE
  2
AM_ANSI$SH
 70
     0
  3

  4
mm
  5

  6
GENAXEH
  7

 40
1.0
 41
0.1
 42
0.05
 43
0.5
 44
0.1
 45
0.0
 46
0.0
 47
0.1
 48
0.1
140
0.12
141
0.0
142
0.0
143
25.3999999999999986
144
1.0
145
0.0
146
0.71
147
0.06
 71
     0
 72
     0
 73
     1
 74
     1
 75
     1
 76
     1
 77
     0
 78
     7
170
     0
171
     2
172
     0
173
     1
174
     0
175
     0
176
   256
177
   256
178
     2
  0
ENDTAB
  0
ENDSEC
  0
SECTION
  2
BLOCKS
  0
BLOCK
  8
0
  2
$MODEL_SPACE
 70
     0
 10
0.0
 20
0.0
 30
0.0
  3
$MODEL_SPACE
  1

  0
ENDBLK
  5
28
  8
0
  0
BLOCK
 67
     1
  8
0
  2
$PAPER_SPACE
 70
     0
 10
0.0
 20
0.0
 30
0.0
  3
$PAPER_SPACE
  1

  0
ENDBLK
  5
26
 67
     1
  8
0
  0
BLOCK
  8
0
  2
A$C68DE3FE8
 70
     0
 10
0.0
 20
0.0
 30
0.0
  3
A$C68DE3FE8
  1

  0
POLYLINE
  5
CB
  8
0
 66
     1
 10
0.0
 20
0.0
 30
0.0
 70
     1
  0
VERTEX
  5
2717
  8
0
 10
0.0000002161276598
 20
195.0000000716073032
 30
0.0
  0
VERTEX
  5
2718
  8
0
 10
285.0000002161276029
 20
195.0000000716073032
 30
0.0
  0
VERTEX
  5
2719
  8
0
 10
285.0000002161276029
 20
0.0000000716074169
 30
0.0
  0
VERTEX
  5
271A
  8
0
 10
0.0000002161276598
 20
0.0000000716074169
 30
0.0
  0
SEQEND
  5
271B
  8
0
  0
LINE
  5
CC
  8
0
 10
90.0000002161276598
 20
42.7129461025826274
 30
0.0
 11
285.0000002161276029
 21
42.7129461025826274
 31
0.0
  0
LINE
  5
CD
  8
0
 10
90.0000002161276598
 20
37.2847095948388301
 30
0.0
 11
285.0000002161276029
 21
37.2847095948388301
 31
0.0
  0
LINE
  5
CE
  8
0
 10
90.0000002161276598
 20
31.8564730870950186
 30
0.0
 11
285.0000002161276029
 21
31.8564730870950186
 31
0.0
  0
LINE
  5
CF
  8
0
 10
89.9807511115697736
 20
26.4282365793512213
 30
0.0
 11
285.0000002161276029
 21
26.4282365793512213
 31
0.0
  0
LINE
  5
D0
  8
0
 10
90.0000002161276598
 20
21.0000000716074098
 30
0.0
 11
285.0000002161276029
 21
21.0000000716074098
 31
0.0
  0
LINE
  5
D1
  8
0
 10
285.0000002161276029
 20
10.5000000716074098
 30
0.0
 11
90.0000002161276598
 21
10.5000000716074098
 31
0.0
  0
LINE
  5
D2
  8
0
 10
90.0000002161276598
 20
42.7129461025826274
 30
0.0
 11
90.0000002161276598
 21
0.0000000716074169
 31
0.0
  0
LINE
  5
D3
  8
0
 10
140.4010072213993965
 20
42.7129461025826132
 30
0.0
 11
140.4010072213993965
 21
21.0000000716074098
 31
0.0
  0
LINE
  5
D4
  8
0
 10
101.2519307400596063
 20
42.7129461025826132
 30
0.0
 11
101.2519307400596063
 21
21.0000000716074098
 31
0.0
  0
TEXT
  5
D5
  8
0
 10
91.1306108280235065
 20
7.819071718340993
 30
0.0
 40
2.274999999999999
  1
CODE NO. （製番）
 41
0.55
  7
BIGFONT
  0
TEXT
  5
D6
  8
0
 10
91.1315742917478957
 20
17.7360383096285901
 30
0.0
 40
2.274999999999999
  1
TITLE (品名）
 41
0.55
  7
BIGFONT
  0
TEXT
  5
D7
  8
0
 10
94.1276920521702039
 20
22.79461019572312
 30
0.0
 40
2.0999999999999992
  1
No,
 41
0.4
  7
BIGFONT
  0
LINE
  5
D8
  8
0
 10
127.7351296241229051
 20
10.5000000716074098
 30
0.0
 11
127.7351296241229051
 21
0.0000000716074169
 31
0.0
  0
TEXT
  5
D9
  8
0
 10
116.4470267588909991
 20
22.4891656177689612
 30
0.0
 40
2.0999999999999992
  1
（名称）
 41
0.7
  7
BIGFONT
  0
TEXT
  5
DA
  8
0
 10
112.4714234789448
 20
22.5157502389967092
 30
0.0
 40
2.0999999999999992
  1
NAME
 41
0.4
  7
BIGFONT
  0
TEXT
  5
DB
  8
0
 10
128.7806141458642912
 20
17.8912138503855616
 30
0.0
 40
2.274999999999999
  1
MODEL
 41
0.55
  7
BIGFONT
  0
TEXT
  5
DC
  8
0
 10
128.4725112995602103
 20
7.8904307016207218
 30
0.0
 40
2.274999999999999
  1
DATE （作成日）
 41
0.55
  7
BIGFONT
  0
LINE
  5
DD
  8
0
 10
127.7351296241229051
 20
21.0000000716074098
 30
0.0
 11
127.7351296241229051
 21
10.5000000716074098
 31
0.0
  0
TEXT
  5
DE
  8
0
 10
136.0062282693193936
 20
17.9564192138444696
 30
0.0
 40
2.274999999999999
  1
（品番）
 41
0.55
  7
BIGFONT
  0
TEXT
  5
DF
  8
0
 10
214.8779109852023907
 20
2.3872800401773189
 30
0.0
 40
5.4599999999999991
  1
KONISHI MFG CO,.LTD
 41
0.6
  7
ROMAND
  0
LINE
  5
E0
  8
0
 10
181.2772492370048951
 20
42.7129461025826132
 30
0.0
 11
181.2772492370048951
 21
21.0000000716074098
 31
0.0
  0
TEXT
  5
E1
  8
0
 10
172.1214333074024125
 20
7.3834902170088306
 30
0.0
 40
2.274999999999999
  1
APPROVAL （承認）
 41
0.55
  7
BIGFONT
  0
LINE
  5
E2
  8
0
 10
171.2000002161275916
 20
10.5000000716074098
 30
0.0
 11
171.2000002161275916
 21
0.0000000716074169
 31
0.0
  0
LINE
  5
E3
  8
0
 10
155.8000002161275859
 20
10.5000000716074098
 30
0.0
 11
155.8000002161275859
 21
0.0000000716074169
 31
0.0
  0
TEXT
  5
E4
  8
0
 10
160.0891829470022003
 20
22.7904250176386611
 30
0.0
 40
2.0999999999999992
  1
（寸法）
 41
0.7
  7
BIGFONT
  0
TEXT
  5
E5
  8
0
 10
156.1820341746486065
 20
7.8181409440044334
 30
0.0
 40
2.274999999999999
  1
DNS/INS （製図）
 41
0.55
  7
BIGFONT
  0
TEXT
  5
E6
  8
0
 10
156.1135796670560865
 20
22.7296986857149896
 30
0.0
 40
2.0999999999999992
  1
SIZE
 41
0.4
  7
BIGFONT
  0
TEXT
  5
E7
  8
0
 10
171.1445471539211951
 20
17.5534757621901782
 30
0.0
 40
2.0999999999999992
  1
FINISH　(仕上)
 41
0.4
  7
BIGFONT
  0
LINE
  5
E8
  8
0
 10
169.7628153292384923
 20
21.0000000716074098
 30
0.0
 11
169.7628153292384923
 21
10.5000000716074098
 31
0.0
  0
LINE
  5
E9
  8
0
 10
213.2000002161275916
 20
10.5000000716074098
 30
0.0
 11
213.2000002161275916
 21
0.0000000716074169
 31
0.0
  0
LINE
  5
EA
  8
0
 10
190.1000002161275972
 20
10.5000000716074098
 30
0.0
 11
190.1000002161275972
 21
0.0000000716074169
 31
0.0
  0
TEXT
  5
EB
  8
0
 10
191.2179109852023942
 20
5.0472800401773226
 30
0.0
 40
3.6399999999999979
  1
:MILLIMETERS
 41
0.55
  7
BIGFONT
  0
TEXT
  5
EC
  8
0
 10
200.3179109852023885
 20
1.4072800401773251
 30
0.0
 40
2.274999999999999
  1
（単位：ミリ）
 41
0.55
  7
BIGFONT
  0
TEXT
  5
ED
  8
0
 10
200.0468833255818026
 20
22.6387561148419394
 30
0.0
 40
2.274999999999999
  1
MATERIAL （材質）
 41
0.55
  7
BIGFONT
 11
200.0468833255818026
 21
22.3354227815086013
 31
0.0
 73
     1
  0
LINE
  5
EE
  8
0
 10
259.5754029465186932
 20
42.7129461025826274
 30
0.0
 11
259.5754029465186932
 21
21.0000000716074098
 31
0.0
  0
LINE
  5
EF
  8
0
 10
231.9407611197792107
 20
42.7129461025826132
 30
0.0
 11
231.940761119779296
 21
21.0000000716074098
 31
0.0
  0
TEXT
  5
F0
  8
0
 10
270.2838280640298763
 20
23.4690270009685804
 30
0.0
 40
2.0999999999999992
  1
REMARKS　（備考）
 41
0.4
  7
BIGFONT
  0
TEXT
  5
F1
  8
0
 10
268.707910985202318
 20
1.295280040177317
 30
0.0
 40
3.1849999999999978
  1
    JAPAN
 41
0.5
  7
EXTFONT
  0
TEXT
  5
F2
  8
0
 10
271.5079109852023862
 20
6.2372800401773203
 30
0.0
 40
3.1849999999999978
  1
IN NAGOYA
 41
0.5
  7
EXTFONT
  0
TEXT
  5
F3
  8
0
 10
270.603886373740977
 20
18.1948135438176095
 30
0.0
 40
2.274999999999999
  1
SCALE （尺度）
 41
0.55
  7
BIGFONT
  0
TEXT
  5
F4
  8
0
 10
237.3406628473051114
 20
17.6103615235315516
 30
0.0
 40
2.274999999999999
  1
WEIGHT （質量）
 41
0.55
  7
BIGFONT
  0
LINE
  5
F5
  8
0
 10
231.940761119779296
 20
21.0000000716074098
 30
0.0
 11
231.940761119779296
 21
10.5000000716074098
 31
0.0
  0
TEXT
  5
F6
  8
0
 10
240.4603323731350883
 20
22.8315778622230603
 30
0.0
 40
2.0999999999999992
  1
SEVERAL
 41
0.4
  7
BIGFONT
  0
TEXT
  5
F7
  8
0
 10
246.8119640764878966
 20
22.7909661911189794
 30
0.0
 40
2.0999999999999992
  1
（数量）
 41
0.7
  7
BIGFONT
  0
TEXT
  5
F8
  8
0
 10
260.8143475880365258
 20
18.1296081803586908
 30
0.0
 40
2.274999999999999
  1
DRAWING
 41
0.55
  7
BIGFONT
  0
LINE
  5
F9
  8
0
 10
259.5754029465186932
 20
21.0000000716074098
 30
0.0
 11
259.5754029465186932
 21
10.5000000716074098
 31
0.0
  0
TEXT
  5
FA
  8
0
 10
267.5881817230273896
 20
12.1443394148898491
 30
0.0
 40
3.5
  1
１／１
 41
0.7
  7
BIGFONT
  0
ENDBLK
  5
FC
  8
0
  0
BLOCK
  8
0
  2
A$C4024530B
 70
     0
 10
0.0
 20
0.0
 30
0.0
  3
A$C4024530B
  1

  0
INSERT
  5
101
  8
0
  2
A$C68DE3FE8
 10
-0.000000247762955
 20
0.000000146155287
 30
0.0
  0
ENDBLK
  5
103
  8
0
  0
BLOCK
  8
0
  2
A$C30FF2063
 70
     0
 10
0.0
 20
0.0
 30
0.0
  3
A$C30FF2063
  1

  0
LINE
  5
EA9
  8
3
 10
94.7499996634480937
 20
34.7500001764036597
 30
0.0
 11
78.2499996634480794
 21
35.2500001764036526
 31
0.0
  0
LINE
  5
EAA
  8
3
 10
94.7499996634480937
 20
16.7500001764036597
 30
0.0
 11
78.2499996634480794
 21
16.2500001764036597
 31
0.0
  0
LINE
  5
EAB
  8
1
 10
63.2499996634480794
 20
25.7500001764036597
 30
0.0
 11
98.7499996634480937
 21
25.7500001764036597
 31
0.0
  0
ARC
  5
EAC
  8
3
 10
25.2499996634480688
 20
25.7500001764036597
 30
0.0
 40
21.0
 50
84.5349762000941354
 51
95.4650237999058504
  0
ARC
  5
EAD
  8
3
 10
25.2499996634480688
 20
25.7500001764036597
 30
0.0
 40
21.0
 50
264.5349762000940927
 51
275.4650237999057936
  0
CIRCLE
  5
EAE
  8
3
 10
25.2499996634480688
 20
25.7500001764036597
 30
0.0
 40
9.0
  0
CIRCLE
  5
EAF
  8
0
 10
25.2499996634480688
 20
25.7500001764036597
 30
0.0
 40
7.0
  0
LINE
  5
EB0
  8
1
 10
-0.0000003365519206
 20
25.7500001764036597
 30
0.0
 11
49.7499996634480794
 21
25.7500001764036597
 31
0.0
  0
ARC
  5
EB1
  8
3
 10
11.32398626283317
 20
49.870562933153721
 30
0.0
 40
12.3520268012298295
 50
255.0916361972903985
 51
344.9083638027095731
  0
ARC
  5
EB2
  8
3
 10
11.3239862628331593
 20
1.6294374196535839
 30
0.0
 40
12.3520268012298295
 50
15.0916361972903506
 51
104.9083638027096015
  0
ARC
  5
EB3
  8
3
 10
25.2499996634480688
 20
25.7500001764036597
 30
0.0
 40
21.0
 50
144.5349762000940927
 51
155.4650237999055946
  0
ARC
  5
EB4
  8
3
 10
-2.6020271377816879
 20
25.750000176403681
 30
0.0
 40
12.3520268012298295
 50
315.0916361972903132
 51
44.9083638027096725
  0
ARC
  5
EB5
  8
3
 10
25.2499996634480688
 20
25.7500001764036597
 30
0.0
 40
21.0
 50
204.5349762000942064
 51
215.4650237999057936
  0
LINE
  5
EB6
  8
1
 10
25.2499996634480688
 20
51.0000001764036526
 30
0.0
 11
25.2499996634480688
 21
0.0000001764036597
 31
0.0
  0
ARC
  5
EB7
  8
3
 10
39.1760130640629995
 20
49.870562933153721
 30
0.0
 40
12.3520268012298295
 50
195.0916361972901996
 51
284.9083638027096868
  0
ARC
  5
EB8
  8
3
 10
25.2499996634480688
 20
25.7500001764036597
 30
0.0
 40
21.0
 50
24.5349762000941496
 51
35.4650237999058504
  0
ARC
  5
EB9
  8
3
 10
39.1760130640629498
 20
1.6294374196535539
 30
0.0
 40
12.3520268012298295
 50
75.0916361972903132
 51
164.9083638027096868
  0
ARC
  5
EBA
  8
3
 10
25.2499996634480688
 20
25.7500001764036597
 30
0.0
 40
21.0
 50
324.5349762000939791
 51
335.4650237999057936
  0
ARC
  5
EBB
  8
3
 10
53.102026464677877
 20
25.7500001764036313
 30
0.0
 40
12.3520268012298295
 50
135.0916361972901996
 51
224.9083638027096868
  0
LINE
  5
EBC
  8
3
 10
78.2499996634480794
 20
25.7500001764036597
 30
0.0
 11
78.2499996634480794
 21
46.7500001764036526
 31
0.0
  0
ARC
  5
EBD
  8
2
 10
78.8333329967814223
 20
37.2500001764036526
 30
0.0
 40
2.0833333333333348
 50
106.2602047083122017
 51
253.7397952916876989
  0
LINE
  5
EBE
  8
3
 10
67.2499996634480794
 20
46.7500001764036526
 30
0.0
 11
67.2499996634480794
 21
25.7500001764036597
 31
0.0
  0
ARC
  5
EBF
  8
3
 10
66.7812496634480794
 20
20.187500176403649
 30
0.0
 40
3.469313017371018
 50
277.7651660184253046
 51
1.0322446915657311
  0
ARC
  5
EC0
  8
2
 10
66.7812496634480794
 20
31.3125001764036597
 30
0.0
 40
3.469313017371018
 50
358.9677553084342208
 51
82.2348339815746385
  0
LINE
  5
EC1
  8
3
 10
67.2499996634480652
 20
34.4702218490182304
 30
0.0
 11
78.2499996634480794
 21
34.4702218490182517
 31
0.0
  0
LINE
  5
EC2
  8
3
 10
78.2499996634480794
 20
4.7500001764036579
 30
0.0
 11
67.2499996634480794
 21
4.7500001764036579
 31
0.0
  0
LINE
  5
EC3
  8
3
 10
67.2499996634480794
 20
4.7500001764036579
 30
0.0
 11
67.2499996634480794
 21
25.7500001764036597
 31
0.0
  0
ARC
  5
EC4
  8
3
 10
78.8333329967814223
 20
14.2500001764036597
 30
0.0
 40
2.0833333333333348
 50
106.2602047083122017
 51
253.7397952916876989
  0
LINE
  5
EC5
  8
3
 10
78.2499996634480794
 20
16.2500001764036597
 30
0.0
 11
78.2499996634480794
 21
4.7500001764036579
 31
0.0
  0
LINE
  5
EC6
  8
3
 10
70.2499996634480652
 20
20.1250001764036597
 30
0.0
 11
70.2499996634480652
 21
25.7500001764036597
 31
0.0
  0
LINE
  5
EC7
  8
2
 10
70.2499996634480652
 20
31.2500001764036597
 30
0.0
 11
70.2499996634480652
 21
25.7500001764036597
 31
0.0
  0
LINE
  5
EC8
  8
3
 10
78.2499996634480794
 20
46.7500001764036526
 30
0.0
 11
67.2499996634480794
 21
46.7500001764036526
 31
0.0
  0
LINE
  5
EC9
  8
3
 10
67.2499996634480794
 20
37.934323464155959
 30
0.0
 11
78.2499996634480794
 21
37.934323464155959
 31
0.0
  0
ARC
  5
ECA
  8
3
 10
158.1760130640628859
 20
1.6294374196535539
 30
0.0
 40
12.3520268012298295
 50
75.0916361972903132
 51
164.9083638027096868
  0
ARC
  5
ECB
  8
3
 10
158.1760130640628859
 20
49.870562933153721
 30
0.0
 40
12.3520268012298295
 50
195.0916361972901996
 51
284.9083638027096868
  0
LINE
  5
ECC
  8
1
 10
118.9999996634479942
 20
25.7500001764036597
 30
0.0
 11
168.7499996634479942
 21
25.7500001764036597
 31
0.0
  0
CIRCLE
  5
ECD
  8
0
 10
144.2499996634479942
 20
25.7500001764036597
 30
0.0
 40
7.0
  0
CIRCLE
  5
ECE
  8
3
 10
144.2499996634479942
 20
25.7500001764036597
 30
0.0
 40
9.0
  0
ARC
  5
ECF
  8
3
 10
144.2499996634479942
 20
25.7500001764036597
 30
0.0
 40
21.0
 50
264.5349762000940927
 51
275.4650237999057936
  0
ARC
  5
ED0
  8
3
 10
144.2499996634479942
 20
25.7500001764036597
 30
0.0
 40
21.0
 50
84.5349762000941354
 51
95.4650237999058504
  0
LINE
  5
ED1
  8
3
 10
94.7499996634480937
 20
25.7500001764036597
 30
0.0
 11
94.7499996634480937
 21
16.7500001764036597
 31
0.0
  0
LINE
  5
ED2
  8
3
 10
94.7499996634480937
 20
25.7500001764036597
 30
0.0
 11
94.7499996634480937
 21
34.7500001764036597
 31
0.0
  0
LINE
  5
ED3
  8
1
 10
144.2499996634479942
 20
51.0000001764036526
 30
0.0
 11
144.2499996634479942
 21
0.0000001764036597
 31
0.0
  0
ARC
  5
ED4
  8
3
 10
144.2499996634479942
 20
25.7500001764036597
 30
0.0
 40
21.0
 50
144.5349762000940927
 51
155.4650237999055946
  0
ARC
  5
ED5
  8
3
 10
130.3239862628331025
 20
49.870562933153721
 30
0.0
 40
12.3520268012298295
 50
255.0916361972903985
 51
344.9083638027095731
  0
ARC
  5
ED6
  8
3
 10
130.3239862628331025
 20
1.6294374196535839
 30
0.0
 40
12.3520268012298295
 50
15.0916361972903506
 51
104.9083638027096015
  0
ARC
  5
ED7
  8
3
 10
144.2499996634479942
 20
25.7500001764036597
 30
0.0
 40
21.0
 50
204.5349762000942064
 51
215.4650237999057936
  0
ARC
  5
ED8
  8
3
 10
116.3979728622181966
 20
25.750000176403681
 30
0.0
 40
12.3520268012298295
 50
315.0916361972903132
 51
44.9083638027096725
  0
ARC
  5
ED9
  8
3
 10
144.2499996634479942
 20
25.7500001764036597
 30
0.0
 40
21.0
 50
24.5349762000941496
 51
35.4650237999058504
  0
ARC
  5
EDA
  8
3
 10
172.102026464677806
 20
25.7500001764036313
 30
0.0
 40
12.3520268012298295
 50
135.0916361972901996
 51
224.9083638027096868
  0
ARC
  5
EDB
  8
3
 10
144.2499996634479942
 20
25.7500001764036597
 30
0.0
 40
21.0
 50
324.5349762000939791
 51
335.4650237999057936
  0
ENDBLK
  5
EDD
  8
0
  0
BLOCK
  8
0
  2
A$C6BA53EB0
 70
     0
 10
0.0
 20
0.0
 30
0.0
  3
A$C6BA53EB0
  1

  0
TEXT
  5
1410
  8
0
 10
1.850000263595005
 20
-0.0000000551569883
 30
0.0
 40
4.0
  1
H12.6.1
 41
0.75
  7
EXTFONT
  0
TEXT
  5
1411
  8
0
 10
-0.3999997364049932
 20
6.399999944843012
 30
0.0
 40
4.0
  1
バフ研磨＋\U+FF78\U+FF9B\U+FF70\U+FF91\U+FF92\U+FF6F\U+FF77
 41
0.75
  7
EXTFONT
  0
TEXT
  5
1412
  8
0
 10
1.350000263595005
 20
11.8499999448430096
 30
0.0
 40
4.0
  1
つり合いハンドル
 41
0.75
  7
EXTFONT
  0
ENDBLK
  5
1414
  8
0
  0
BLOCK
  8
0
  2
GENAXEH
 70
     0
 10
0.0
 20
0.0
 30
0.0
  3
GENAXEH
  1

  0
LINE
  5
1518
  8
0
 10
-1.0
 20
0.0
 30
0.0
 11
1.0
 21
0.0
 31
0.0
  0
ENDBLK
  5
151A
  8
0
  0
BLOCK
  8
0
  2
A$C44914E06
 70
     0
 10
0.0
 20
0.0
 30
0.0
  3
A$C44914E06
  1

  0
ARC
  5
2070
  8
HALDER_NORMTEILE
 62
     7
 10
26.6793380000000013
 20
42.0999999999999872
 30
0.0
 40
9.0
 50
197.0
 51
270.0
  0
ARC
  5
2071
  8
HALDER_NORMTEILE
 62
     7
 10
26.6793380000000013
 20
8.0999999999999996
 30
0.0
 40
9.0
 50
90.0
 51
163.0
  0
LINE
  5
2072
  8
HALDER_NORMTEILE_MITTELLIN
  6
DASHDOT
 62
     2
 10
0.0
 20
25.1000000000000014
 30
0.0
 11
39.2000000000000028
 21
25.1000000000000014
 31
0.0
  0
CIRCLE
  5
2073
  8
HALDER_NORMTEILE
 62
     7
 10
14.0999999999999996
 20
25.1000000000000014
 30
0.0
 40
7.9000000000000004
  0
CIRCLE
  5
2074
  8
HALDER_NORMTEILE
  6
DASHED
 62
     3
 10
14.0999999999999996
 20
25.1000000000000014
 30
0.0
 40
5.0
  0
ARC
  5
2075
  8
HALDER_NORMTEILE
 62
     7
 10
14.0999999999999996
 20
25.1000000000000014
 30
0.0
 40
12.5
 50
159.2507579999999905
 51
200.7492419999998958
  0
LINE
  5
2076
  8
HALDER_NORMTEILE_MITTELLIN
  6
DASHDOT
 62
     2
 10
14.0999999999999996
 20
50.2000000000000028
 30
0.0
 11
14.0999999999999996
 21
0.0
 31
0.0
  0
ARC
  5
2077
  8
HALDER_NORMTEILE
 62
     7
 10
14.0999999999999996
 20
25.1000000000000014
 30
0.0
 40
23.5
 50
235.8152039999999943
 51
270.1847960000000057
  0
ARC
  5
2078
  8
HALDER_NORMTEILE
 62
     2
 10
14.0999999999999996
 20
25.1000000000000014
 30
0.0
 40
19.6000000000000014
 50
228.9104939999999999
 51
277.0895059999999717
  0
LINE
  5
2079
  8
HALDER_NORMTEILE
 62
     7
 10
2.6012349999999991
 20
14.8516630000000003
 30
0.0
 11
0.304537
 21
7.339503999999998
 31
0.0
  0
ARC
  5
207A
  8
HALDER_NORMTEILE
 62
     7
 10
1.7389950000000001
 20
6.9009470000000004
 30
0.0
 40
1.5
 50
163.0
 51
235.8152039999999943
  0
ARC
  5
207B
  8
HALDER_NORMTEILE
 62
     7
 10
-6.0055079999999981
 20
17.4830089999999991
 30
0.0
 40
9.0
 50
343.0
 51
20.7492419999999989
  0
LINE
  5
207C
  8
HALDER_NORMTEILE
 62
     7
 10
15.6054139999999997
 20
2.6615570000000002
 30
0.0
 11
18.0725949999999891
 21
10.7313449999999904
 31
0.0
  0
ARC
  5
207D
  8
HALDER_NORMTEILE
 62
     7
 10
14.1709560000000003
 20
3.100114
 30
0.0
 40
1.5
 50
270.1847960000000057
 51
343.0
  0
ARC
  5
207E
  8
HALDER_NORMTEILE
 62
     7
 10
14.0999999999999996
 20
25.1000000000000014
 30
0.0
 40
23.5
 50
89.8152040000000227
 51
124.1847959999999063
  0
ARC
  5
207F
  8
HALDER_NORMTEILE
 62
     2
 10
14.0999999999999996
 20
25.1000000000000014
 30
0.0
 40
19.6000000000000014
 50
82.9104939999999999
 51
131.0895060000000001
  0
LINE
  5
2080
  8
HALDER_NORMTEILE
 62
     7
 10
2.6012349999999991
 20
35.3483370000000008
 30
0.0
 11
0.304537
 21
42.8604960000000119
 31
0.0
  0
ARC
  5
2081
  8
HALDER_NORMTEILE
 62
     7
 10
-6.0055079999999981
 20
32.7169910000000002
 30
0.0
 40
9.0
 50
339.2507580000000189
 51
17.0
  0
ARC
  5
2082
  8
HALDER_NORMTEILE
 62
     7
 10
1.7389950000000001
 20
43.2990530000000007
 30
0.0
 40
1.5
 50
124.1847959999999063
 51
197.0
  0
LINE
  5
2083
  8
HALDER_NORMTEILE
 62
     7
 10
15.6054139999999997
 20
47.5384429999999867
 30
0.0
 11
18.0725949999999891
 21
39.4686549999999912
 31
0.0
  0
ARC
  5
2084
  8
HALDER_NORMTEILE
 62
     7
 10
14.1709560000000003
 20
47.0998859999999908
 30
0.0
 40
1.5
 50
17.0
 51
89.8152040000000227
  0
CIRCLE
  5
2085
  8
HALDER_NORMTEILE
 62
     7
 10
33.7000000000000028
 20
25.1000000000000014
 30
0.0
 40
1.75
  0
ARC
  5
2086
  8
HALDER_NORMTEILE
 62
     7
 10
14.0999999999999996
 20
25.1000000000000014
 30
0.0
 40
23.5
 50
342.8152039999999943
 51
17.1847959999999986
  0
ARC
  5
2087
  8
HALDER_NORMTEILE_MITTELLIN
  6
DASHDOT
 62
     2
 10
33.7000000000000028
 20
25.1000000000000014
 30
0.0
 40
1.0
 50
90.0
 51
270.0
  0
ARC
  5
2088
  8
HALDER_NORMTEILE_MITTELLIN
  6
DASHDOT
 62
     2
 10
51.7000000000000028
 20
25.1000000000000014
 30
0.0
 40
1.0
 50
270.0
 51
90.0
  0
LINE
  5
2089
  8
HALDER_NORMTEILE_MITTELLIN
  6
DASHDOT
 62
     2
 10
33.7000000000000028
 20
24.1000000000000014
 30
0.0
 11
51.7000000000000028
 21
24.1000000000000014
 31
0.0
  0
LINE
  5
208A
  8
HALDER_NORMTEILE
 62
     7
 10
35.11784999999999
 20
17.1000000000000014
 30
0.0
 11
26.6793380000000013
 21
17.1000000000000014
 31
0.0
  0
ARC
  5
208B
  8
HALDER_NORMTEILE
 62
     2
 10
14.0999999999999996
 20
25.1000000000000014
 30
0.0
 40
19.6000000000000014
 50
335.9104939999999146
 51
354.8978349999999864
  0
ARC
  5
208C
  8
HALDER_NORMTEILE
 62
     7
 10
35.11784999999999
 20
18.6000000000000014
 30
0.0
 40
1.5
 50
270.0
 51
342.8152039999999943
  0
LINE
  5
208D
  8
HALDER_NORMTEILE_MITTELLIN
  6
DASHDOT
 62
     2
 10
33.7000000000000028
 20
26.1000000000000014
 30
0.0
 11
51.7000000000000028
 21
26.1000000000000014
 31
0.0
  0
LINE
  5
208E
  8
HALDER_NORMTEILE
 62
     7
 10
35.11784999999999
 20
33.1000000000000014
 30
0.0
 11
26.6793380000000013
 21
33.1000000000000014
 31
0.0
  0
ARC
  5
208F
  8
HALDER_NORMTEILE
 62
     2
 10
14.0999999999999996
 20
25.1000000000000014
 30
0.0
 40
19.6779699999999984
 50
5.1021650000000003
 51
24.0895060000000001
  0
ARC
  5
2090
  8
HALDER_NORMTEILE
 62
     7
 10
35.11784999999999
 20
31.6000000000000014
 30
0.0
 40
1.5
 50
17.1847959999999986
 51
90.0
  0
ENDBLK
  5
2092
  8
0
  0
BLOCK
  8
0
  2
*U7
 70
     1
 10
0.0
 20
0.0
 30
0.0
  3
*U7
  1

  0
TEXT
  5
2721
  8
0
 10
113.0584891108044019
 20
124.6735294426000991
 30
0.0
 40
4.0
  1
　
 41
0.75
  7
EXTFONT
  0
ENDBLK
  5
2723
  8
0
  0
BLOCK
  8
0
  2
*U8
 70
     1
 10
0.0
 20
0.0
 30
0.0
  3
*U8
  1

  0
TEXT
  5
2725
  8
0
 10
262.1491258494137924
 20
131.6688824053759959
 30
0.0
 40
4.0
  1
　
 41
0.75
  7
EXTFONT
  0
ENDBLK
  5
2727
  8
0
  0
BLOCK
  8
0
  2
*U9
 70
     1
 10
0.0
 20
0.0
 30
0.0
  3
*U9
  1

  0
TEXT
  5
2729
  8
0
 10
200.6872713359626061
 20
170.6240868444444914
 30
0.0
 40
4.0
  1
　
 41
0.75
  7
EXTFONT
  0
ENDBLK
  5
272B
  8
0
  0
BLOCK
  8
0
  2
*U10
 70
     1
 10
0.0
 20
0.0
 30
0.0
  3
*U10
  1

  0
TEXT
  5
272D
  8
0
 10
249.0656609892056963
 20
189.4565858059739014
 30
0.0
 40
4.0
  1
　
 41
0.75
  7
EXTFONT
  0
ENDBLK
  5
272F
  8
0
  0
ENDSEC
  0
SECTION
  2
ENTITIES
  0
ARC
  5
21CF
  8
HALDER_MLINIE
  6
DASHDOT
 62
     2
 10
101.3805281645318956
 20
172.2325261068361044
 30
0.0
 40
1.0
 50
180.0
 51
0.0
  0
TEXT
  8
0
  40
4
  5
276C
  72
0
  71
0
 10
116.892
 20
126.977
 30
0.00000
  1
  
  7
EXTFONT
  0
INSERT
  5
2448
  8
1
  2
*U7
 10
0.0
 20
0.0
 30
0.0
  0
INSERT
  5
244A
  8
1
  2
*U8
 10
0.0
 20
0.0
 30
0.0
  0
INSERT
  5
244C
  8
1
  2
*U9
 10
0.0
 20
0.0
 30
0.0
  0
INSERT
  5
244E
  8
1
  2
*U10
 10
0.0
 20
0.0
 30
0.0
  0
LINE
  5
2538
  8
1
 10
101.3805281645318956
 20
157.2325261068361897
 30
0.0
 11
124.3829782027491007
 21
157.2325261068361897
 31
0.0
  0
LINE
  5
2539
  8
1
 10
101.3805281645318956
 20
157.2325261068361897
 30
0.0
 11
78.4863646989638823
 21
157.2325261068361897
 31
0.0
  0
LINE
  5
253A
  8
1
 10
101.3805281645318956
 20
157.2325261068361897
 30
0.0
 11
101.3805281645318956
 21
179.7845105100498131
 31
0.0
  0
LINE
  5
253B
  8
1
 10
101.3805281645318956
 20
157.2325261068361897
 30
0.0
 11
101.3805281645318956
 21
140.0149259540388869
 31
0.0
  0
ARC
  5
25D0
  8
3
 10
101.3805281645318956
 20
157.2325261068361044
 30
0.0
 40
19.0000000000001208
 50
71.6823015888020336
 51
108.3176984111986059
  0
ARC
  5
25D1
  8
3
 10
106.8805281645317962
 20
173.8457738326723074
 30
0.0
 40
1.500000000000026
 50
359.9999999999968168
 51
71.6823015888005841
  0
ARC
  5
25D2
  8
3
 10
115.8805281645318956
 20
167.9619616947493057
 30
0.0
 40
7.5000000000000711
 50
180.000000000000199
 51
252.999999999999801
  0
LINE
  5
25D3
  8
3
 10
108.3805281645317962
 20
173.8457738326721937
 30
0.0
 11
108.3805281645317962
 21
167.9619616947493057
 31
0.0
  0
ARC
  5
25D4
  8
3
 10
118.8759003527160019
 20
157.634958706048991
 30
0.0
 40
1.500000000000085
 50
1.31769841120174
 51
72.9999999999979536
  0
ARC
  5
25D5
  8
3
 10
101.3805281645320946
 20
157.2325261068361897
 30
0.0
 40
18.999999999999801
 50
324.6823015888007831
 51
1.31769841119868
  0
LINE
  5
25D7
  8
3
 10
113.6877403791113039
 20
160.7896760250264094
 30
0.0
 11
119.3144579098001969
 21
159.0694158399934963
 31
0.0
  0
ARC
  5
25D8
  8
3
 10
115.6598116007660053
 20
147.1156063904558096
 30
0.0
 40
1.5000000000000799
 50
253.0000000000003126
 51
324.6823015887982251
  0
ARC
  5
25D9
  8
3
 10
107.3404772451639957
 20
140.2478563438920958
 30
0.0
 40
7.4999999999998552
 50
72.9999999999996021
 51
109.3360575146134011
  0
ARC
  5
25DA
  8
3
 10
101.3805281645317962
 20
157.2325261068361897
 30
0.0
 40
10.5000000000000409
 50
250.6639424853858031
 51
289.3360575146144242
  0
LINE
  5
25DB
  8
3
 10
109.5332650305845021
 20
147.4201420136147078
 30
0.0
 11
115.2212540436818955
 21
145.6811492565109916
 31
0.0
  0
ARC
  5
25DD
  8
3
 10
101.3805281645318956
 20
157.2325261068361044
 30
0.0
 40
14.9999999999999503
 50
315.1818607153459766
 51
10.8181392846540607
  0
ARC
  5
25DF
  8
3
 10
101.3805281645317962
 20
157.2325261068361044
 30
0.0
 40
15.0000000000000995
 50
62.1818607153461684
 51
83.3116955910883945
  0
CIRCLE
  5
25E0
  8
3
 10
101.3805281645318956
 20
172.2325261068361044
 30
0.0
 40
1.7499999999999969
  0
CIRCLE
  5
25E1
  8
3
 10
101.3805281645318956
 20
157.2325261068361897
 30
0.0
 40
2.75
  0
ARC
  5
25E2
  8
3
 10
95.8805281645319667
 20
173.8457738326723074
 30
0.0
 40
1.500000000000026
 50
108.3176984111987053
 51
180.0000000000032117
  0
ARC
  5
25E3
  8
3
 10
86.880528164531853
 20
167.9619616947493057
 30
0.0
 40
7.5000000000000711
 50
287.0000000000002274
 51
359.9999999999997726
  0
LINE
  5
25E4
  8
3
 10
94.3805281645319241
 20
173.8457738326721937
 30
0.0
 11
94.3805281645319241
 21
167.9619616947493057
 31
0.0
  0
ARC
  5
25E5
  8
3
 10
83.8851559763477042
 20
157.634958706048991
 30
0.0
 40
1.500000000000085
 50
107.0000000000019043
 51
178.6823015887981967
  0
ARC
  5
25E6
  8
3
 10
101.3805281645315972
 20
157.2325261068361897
 30
0.0
 40
18.999999999999801
 50
178.6823015888012947
 51
215.3176984111991885
  0
LINE
  5
25E7
  8
3
 10
89.0733159499524305
 20
160.7896760250264094
 30
0.0
 11
83.4465984192635375
 21
159.0694158399934963
 31
0.0
  0
ARC
  5
25E8
  8
3
 10
87.1012447282977149
 20
147.1156063904558096
 30
0.0
 40
1.5000000000000799
 50
215.3176984112018886
 51
287.0000000000002274
  0
ARC
  5
25E9
  8
3
 10
95.420579083899753
 20
140.2478563438920958
 30
0.0
 40
7.4999999999998552
 50
70.6639424853866132
 51
107.000000000000199
  0
ARC
  5
25EA
  8
3
 10
101.3805281645318956
 20
157.2325261068361897
 30
0.0
 40
10.5000000000000409
 50
250.6639424853850073
 51
289.3360575146134011
  0
LINE
  5
25EB
  8
3
 10
93.2277912984792323
 20
147.4201420136147078
 30
0.0
 11
87.5398022853818247
 21
145.6811492565109916
 31
0.0
  0
ARC
  5
25EC
  8
3
 10
101.3805281645317962
 20
157.2325261068361044
 30
0.0
 40
14.9999999999999503
 50
169.181860715346005
 51
224.8181392846543076
  0
ARC
  5
25ED
  8
3
 10
101.3805281645318956
 20
157.2325261068361044
 30
0.0
 40
15.0000000000000995
 50
96.6883044089109944
 51
117.818139284653995
  0
LINE
  5
25EF
  8
3
 10
172.2977014478825879
 20
165.8825261068361954
 30
0.0
 11
182.3977014478826959
 21
165.8825261068361954
 31
0.0
  0
LINE
  5
25F0
  8
3
 10
182.3977014478826959
 20
165.8825261068361954
 30
0.0
 11
184.3977014478826106
 21
165.3466277219739027
 31
0.0
  0
LINE
  5
25F1
  8
3
 10
184.3977014478826106
 20
165.3466277219739027
 30
0.0
 11
184.3977014478826106
 21
157.2325261068361897
 31
0.0
  0
LINE
  5
25F2
  8
3
 10
182.3977014478826959
 20
165.8825261068361954
 30
0.0
 11
182.3977014478826959
 21
157.2325261068361897
 31
0.0
  0
LINE
  5
25F3
  8
3
 10
184.3977014478826106
 20
165.2325261068361897
 30
0.0
 11
185.997701447882605
 21
165.2325261068361897
 31
0.0
  0
LINE
  5
25F4
  8
3
 10
185.997701447882605
 20
165.2325261068361897
 30
0.0
 11
185.997701447882605
 21
157.2325261068361897
 31
0.0
  0
LINE
  5
25F6
  8
3
 10
243.497701447882605
 20
163.2325261068361897
 30
0.0
 11
243.497701447882605
 21
157.2325261068361897
 31
0.0
  0
LINE
  5
25F7
  8
3
 10
243.497701447882605
 20
163.2325261068361897
 30
0.0
 11
245.497701447882605
 21
161.2325261068361897
 31
0.0
  0
LINE
  5
25F8
  8
3
 10
245.497701447882605
 20
161.2325261068361897
 30
0.0
 11
245.497701447882605
 21
157.2325261068361897
 31
0.0
  0
LINE
  5
2600
  8
3
 10
157.67957515011949
 20
172.8284389034284914
 30
0.0
 11
160.67957515011949
 21
175.9241987512700121
 31
0.0
  0
LINE
  5
2601
  8
3
 10
157.6795751501194047
 20
171.2984389034284902
 30
0.0
 11
160.67957515011949
 21
174.3941987512700109
 31
0.0
  0
LINE
  5
2602
  8
3
 10
159.4459192027713073
 20
166.1511767032083924
 30
0.0
 11
157.5027670862826028
 21
170.1563282937223107
 31
0.0
  0
LINE
  5
2603
  8
3
 10
157.3977014478826106
 20
157.2325261068361897
 30
0.0
 11
157.3977014478826106
 21
160.3274012688827952
 31
0.0
  0
LINE
  5
2604
  8
3
 10
157.3977014478826106
 20
160.3274012688827952
 30
0.0
 11
161.9979855634227874
 21
158.6983552246520901
 31
0.0
  0
LINE
  5
2605
  8
3
 10
164.6411302393121048
 20
164.9880048799676047
 30
0.0
 11
163.2740524821560086
 21
168.0442814223592904
 31
0.0
  0
LINE
  5
2606
  8
3
 10
162.3977014478826106
 20
157.2325261068361897
 30
0.0
 11
162.3977014478826106
 21
159.6325261068361954
 31
0.0
  0
ARC
  5
2607
  8
3
 10
161.3977014478826106
 20
175.2282859546776876
 30
0.0
 40
0.9999999999999989
 50
0.0
 51
135.8999999999990962
  0
ARC
  5
2608
  8
3
 10
161.3977014478826959
 20
173.6982859546776865
 30
0.0
 40
0.9999999999999394
 50
359.9999999999968168
 51
135.9000000000025921
  0
ARC
  5
260A
  8
3
 10
158.3977014478819001
 20
172.1325261068363091
 30
0.0
 40
0.9999999999993699
 50
135.8999999999778083
 51
180.0000000000081002
  0
ARC
  5
260B
  8
3
 10
158.397701447882099
 20
170.6025261068361942
 30
0.0
 40
0.9999999999995516
 50
135.8999999999811052
 51
206.5000000002866898
  0
LINE
  5
260C
  8
3
 10
157.3977014478826106
 20
170.6025261068361942
 30
0.0
 11
157.3977014478826106
 21
172.1325261068361954
 31
0.0
  0
ARC
  5
260D
  8
3
 10
155.597701447882514
 20
164.2325261068361897
 30
0.0
 40
4.3000000000000123
 50
294.74652458693879
 51
26.5000000000004583
  0
ARC
  5
260E
  8
3
 10
161.7977014478825879
 20
158.132770329996788
 30
0.0
 40
0.5999999999999375
 50
359.9999999999973284
 51
70.5000000000046043
  0
ARC
  5
260F
  8
3
 10
163.6977014478827925
 20
159.6325261068361101
 30
0.0
 40
1.3000000000002381
 50
141.4000000000023931
 51
179.9999999999961915
  0
ARC
  5
2610
  8
3
 10
161.6977014478825936
 20
163.7325261068361897
 30
0.0
 40
3.2000000000000108
 50
308.6000000000004206
 51
23.0999999999993086
  0
LINE
  5
2611
  8
3
 10
162.6817248337382011
 20
160.4435695825584105
 30
0.0
 11
163.7881797491114071
 21
161.3048839323006121
 31
0.0
  0
ARC
  5
2612
  8
3
 10
173.3277014478815943
 20
172.3325261068358998
 30
0.0
 40
10.9299999999990405
 50
179.9999999999988063
 51
203.1000000000005059
  0
LINE
  5
2613
  8
3
 10
162.3977014478826106
 20
172.3325261068362124
 30
0.0
 11
162.3977014478826106
 21
174.3825261068361954
 31
0.0
  0
LINE
  5
2614
  8
3
 10
163.2740524821560086
 20
168.0442814223592904
 30
0.0
 11
164.64113023931219
 21
164.9880048799676047
 31
0.0
  0
ARC
  5
2615
  8
3
 10
170.897701447882497
 20
174.3825261068361101
 30
0.0
 40
8.4999999999999432
 50
179.9999999999994031
 51
270.0000000000003979
  0
LINE
  5
2616
  8
3
 10
162.3977014478826106
 20
175.2282859546776876
 30
0.0
 11
162.3977014478826106
 21
173.6982859546776865
 31
0.0
  0
ARC
  5
261B
  8
3
 10
170.897701447882497
 20
140.0825261068364114
 30
0.0
 40
8.4999999999997442
 50
89.9999999999996163
 51
128.5234838094172005
  0
ARC
  5
261C
  8
3
 10
161.597701447882713
 20
146.6325261068361101
 30
0.0
 40
0.7999999999998693
 50
269.9999999999919282
 51
0.0000000000061067
  0
ARC
  5
261D
  8
3
 10
157.9977014478824913
 20
147.1325486599374983
 30
0.0
 40
0.599999999999974
 50
180.0000000000027001
 51
253.0000000000092939
  0
LINE
  5
261E
  8
3
 10
165.603600957714292
 20
146.7325261068361897
 30
0.0
 11
162.3977014478826106
 21
146.7325261068361897
 31
0.0
  0
LINE
  5
261F
  8
3
 10
161.5977014478825993
 20
145.8325261068362124
 30
0.0
 11
160.4218779499063032
 21
145.8325261068362124
 31
0.0
  0
ARC
  5
2621
  8
3
 10
160.4218779499061043
 20
147.3325261068333134
 30
0.0
 40
1.4999999999971569
 50
252.9999999999729994
 51
270.0000000000064801
  0
LINE
  5
2622
  8
3
 10
159.9833203928222076
 20
145.8980689728915934
 30
0.0
 11
157.8222784250490065
 21
146.5587658063597019
 31
0.0
  0
LINE
  5
2623
  8
3
 10
157.3977014478826106
 20
147.1325486599374983
 30
0.0
 11
157.3977014478826106
 21
157.2325261068361897
 31
0.0
  0
LINE
  5
2624
  8
3
 10
162.3977014478826106
 20
146.7325261068361897
 30
0.0
 11
162.3977014478826106
 21
158.132770329996788
 31
0.0
  0
CIRCLE
  5
2625
  8
3
 10
238.2977014478827016
 20
157.2325261068361897
 30
0.0
 40
2.3000000000000109
  0
LINE
  5
2626
  8
3
 10
172.2977014478825879
 20
165.8825261068361954
 30
0.0
 11
170.8977014478826106
 21
165.8825261068361101
 31
0.0
  0
LINE
  5
2627
  8
3
 10
172.2977014478825879
 20
148.5825261068360987
 30
0.0
 11
182.3977014478826959
 21
148.5825261068360987
 31
0.0
  0
LINE
  5
2628
  8
3
 10
182.3977014478826959
 20
148.5825261068360987
 30
0.0
 11
184.3977014478826106
 21
149.1184244916983914
 31
0.0
  0
LINE
  5
2629
  8
3
 10
184.3977014478826106
 20
149.1184244916983914
 30
0.0
 11
184.3977014478826106
 21
157.2325261068361897
 31
0.0
  0
LINE
  5
262A
  8
3
 10
182.3977014478826959
 20
148.5825261068360987
 30
0.0
 11
182.3977014478826959
 21
157.2325261068361897
 31
0.0
  0
LINE
  5
262B
  8
3
 10
184.3977014478826106
 20
149.2325261068361897
 30
0.0
 11
185.997701447882605
 21
149.2325261068361897
 31
0.0
  0
LINE
  5
262C
  8
3
 10
185.997701447882605
 20
149.2325261068361897
 30
0.0
 11
185.997701447882605
 21
157.2325261068361897
 31
0.0
  0
LINE
  5
262E
  8
3
 10
243.497701447882605
 20
151.2325261068361897
 30
0.0
 11
243.497701447882605
 21
157.2325261068361897
 31
0.0
  0
LINE
  5
262F
  8
3
 10
243.497701447882605
 20
151.2325261068361897
 30
0.0
 11
245.497701447882605
 21
153.2325261068361897
 31
0.0
  0
LINE
  5
2630
  8
3
 10
245.497701447882605
 20
153.2325261068361897
 30
0.0
 11
245.497701447882605
 21
157.2325261068361897
 31
0.0
  0
LINE
  5
2631
  8
3
 10
172.2977014478825879
 20
148.5825261068360987
 30
0.0
 11
170.8977014478826106
 21
148.5825261068362124
 31
0.0
  0
ARC
  5
2633
  8
2
 10
136.5270213959661021
 20
156.451036985037689
 30
0.0
 40
25.2160649228590898
 50
335.6316706161431966
 51
34.1394674081237213
  0
LINE
  5
2635
  8
2
 10
161.6661322616321002
 20
154.4825261068361897
 30
0.0
 11
164.1661322616321002
 21
154.4825261068361044
 31
0.0
  0
LINE
  5
2637
  8
2
 10
164.1661322616321002
 20
159.9825261068361897
 30
0.0
 11
161.4945706304517898
 21
159.9825261068361044
 31
0.0
  0
LINE
  5
263A
  8
2
 10
164.1661322616322138
 20
154.4825261068361897
 30
0.0
 11
164.1661322616321002
 21
159.9825261068361044
 31
0.0
  0
LINE
  5
269E
  8
2
 10
158.7979634555422024
 20
173.9825261068361044
 30
0.0
 11
162.4071184290316125
 21
173.9825261068361044
 31
0.0
  0
LINE
  5
26A0
  8
2
 10
157.4049275562032904
 20
170.4825261068361044
 30
0.0
 11
163.3452184124828932
 21
170.4825261068361044
 31
0.0
  0
LINE
  5
26A1
  8
1
 10
151.5471033237118945
 20
172.2325261068361897
 30
0.0
 11
167.3565581505685032
 21
172.2325261068361897
 31
0.0
  0
LINE
  5
26FD
  8
3
 10
243.497701447882605
 20
163.2325261068361897
 30
0.0
 11
185.997701447882605
 21
163.2325261068361897
 31
0.0
  0
LINE
  5
26FE
  8
3
 10
243.497701447882605
 20
151.2325261068361897
 30
0.0
 11
185.997701447882605
 21
151.2325261068361897
 31
0.0
  0
LINE
  5
26FF
  8
1
 10
152.4606870071002902
 20
157.2325261068361897
 30
0.0
 11
251.7361281299990878
 21
157.2325261068361897
 31
0.0
  0
ENDSEC
  0
EOF
