  0
SECTION
  2
HEADER
  9
$ACADVER
  1
AC1014
  9
$ACADMAINTVER
 70
     0
  9
$DWGCODEPAGE
  3
ANSI_932
  9
$INSBASE
 10
0.0
 20
0.0
 30
0.0
  9
$EXTMIN
 10
47.75
 20
68.0
 30
0.0
  9
$EXTMAX
 10
576.0
 20
355.5
 30
0.0
  9
$LIMMIN
 10
0.0
 20
0.0
  9
$LIMMAX
 10
680.0
 20
470.0
  9
$ORTHOMODE
 70
     1
  9
$REGENMODE
 70
     1
  9
$FILLMODE
 70
     1
  9
$QTEXTMODE
 70
     0
  9
$MIRRTEXT
 70
     1
  9
$DRAGMODE
 70
     2
  9
$LTSCALE
 40
1.0
  9
$OSMODE
 70
    32
  9
$ATTMODE
 70
     1
  9
$TEXTSIZE
 40
17.0
  9
$TRACEWID
 40
0.05
  9
$TEXTSTYLE
  7
BIGFONT
  9
$CLAYER
  8
2
  9
$CELTYPE
  6
BYLAYER
  9
$CECOLOR
 62
   256
  9
$CELTSCALE
 40
1.0
  9
$DELOBJ
 70
     1
  9
$DISPSILH
 70
     0
  9
$DIMSCALE
 40
1.0
  9
$DIMASZ
 40
0.18
  9
$DIMEXO
 40
0.0625
  9
$DIMDLI
 40
0.38
  9
$DIMRND
 40
0.0
  9
$DIMDLE
 40
0.0
  9
$DIMEXE
 40
0.18
  9
$DIMTP
 40
0.0
  9
$DIMTM
 40
0.0
  9
$DIMTXT
 40
0.18
  9
$DIMCEN
 40
0.09
  9
$DIMTSZ
 40
0.0
  9
$DIMTOL
 70
     0
  9
$DIMLIM
 70
     0
  9
$DIMTIH
 70
     1
  9
$DIMTOH
 70
     1
  9
$DIMSE1
 70
     0
  9
$DIMSE2
 70
     0
  9
$DIMTAD
 70
     0
  9
$DIMZIN
 70
     0
  9
$DIMBLK
  1

  9
$DIMASO
 70
     1
  9
$DIMSHO
 70
     1
  9
$DIMPOST
  1

  9
$DIMAPOST
  1

  9
$DIMALT
 70
     0
  9
$DIMALTD
 70
     2
  9
$DIMALTF
 40
25.4
  9
$DIMLFAC
 40
1.0
  9
$DIMTOFL
 70
     0
  9
$DIMTVP
 40
0.0
  9
$DIMTIX
 70
     0
  9
$DIMSOXD
 70
     0
  9
$DIMSAH
 70
     0
  9
$DIMBLK1
  1

  9
$DIMBLK2
  1

  9
$DIMSTYLE
  2
STANDARD
  9
$DIMCLRD
 70
     0
  9
$DIMCLRE
 70
     0
  9
$DIMCLRT
 70
     0
  9
$DIMTFAC
 40
1.0
  9
$DIMGAP
 40
0.09
  9
$DIMJUST
 70
     0
  9
$DIMSD1
 70
     0
  9
$DIMSD2
 70
     0
  9
$DIMTOLJ
 70
     1
  9
$DIMTZIN
 70
     0
  9
$DIMALTZ
 70
     0
  9
$DIMALTTZ
 70
     0
  9
$DIMFIT
 70
     5
  9
$DIMUPT
 70
     0
  9
$DIMUNIT
 70
     2
  9
$DIMDEC
 70
     4
  9
$DIMTDEC
 70
     4
  9
$DIMALTU
 70
     2
  9
$DIMALTTD
 70
     2
  9
$DIMTXSTY
  7
BIGFONT
  9
$DIMAUNIT
 70
     0
  9
$LUNITS
 70
     2
  9
$LUPREC
 70
     4
  9
$SKETCHINC
 40
0.1
  9
$FILLETRAD
 40
0.0
  9
$AUNITS
 70
     0
  9
$AUPREC
 70
     0
  9
$MENU
  1
acad
  9
$ELEVATION
 40
0.0
  9
$PELEVATION
 40
0.0
  9
$THICKNESS
 40
0.0
  9
$LIMCHECK
 70
     0
  9
$BLIPMODE
 70
     0
  9
$CHAMFERA
 40
0.0
  9
$CHAMFERB
 40
0.0
  9
$CHAMFERC
 40
0.0
  9
$CHAMFERD
 40
0.0
  9
$SKPOLY
 70
     0
  9
$TDCREATE
 40
2450865.808701157
  9
$TDUPDATE
 40
2453594.736942454
  9
$TDINDWG
 40
0.0011774884
  9
$TDUSRTIMER
 40
0.0011774884
  9
$USRTIMER
 70
     1
  9
$ANGBASE
 50
0.0
  9
$ANGDIR
 70
     0
  9
$PDMODE
 70
     0
  9
$PDSIZE
 40
0.0
  9
$PLINEWID
 40
0.0
  9
$COORDS
 70
     2
  9
$SPLFRAME
 70
     0
  9
$SPLINETYPE
 70
     6
  9
$SPLINESEGS
 70
     8
  9
$ATTDIA
 70
     0
  9
$ATTREQ
 70
     1
  9
$HANDLING
 70
     1
  9
$HANDSEED
  5
1B2
  9
$SURFTAB1
 70
     6
  9
$SURFTAB2
 70
     6
  9
$SURFTYPE
 70
     6
  9
$SURFU
 70
     6
  9
$SURFV
 70
     6
  9
$UCSNAME
  2

  9
$UCSORG
 10
0.0
 20
0.0
 30
0.0
  9
$UCSXDIR
 10
1.0
 20
0.0
 30
0.0
  9
$UCSYDIR
 10
0.0
 20
1.0
 30
0.0
  9
$PUCSNAME
  2

  9
$PUCSORG
 10
0.0
 20
0.0
 30
0.0
  9
$PUCSXDIR
 10
1.0
 20
0.0
 30
0.0
  9
$PUCSYDIR
 10
0.0
 20
1.0
 30
0.0
  9
$USERI1
 70
     0
  9
$USERI2
 70
     0
  9
$USERI3
 70
     0
  9
$USERI4
 70
     0
  9
$USERI5
 70
     0
  9
$USERR1
 40
0.0
  9
$USERR2
 40
0.0
  9
$USERR3
 40
0.0
  9
$USERR4
 40
0.0
  9
$USERR5
 40
0.0
  9
$WORLDVIEW
 70
     1
  9
$SHADEDGE
 70
     3
  9
$SHADEDIF
 70
    70
  9
$TILEMODE
 70
     1
  9
$MAXACTVP
 70
    16
  9
$PINSBASE
 10
0.0
 20
0.0
 30
0.0
  9
$PLIMCHECK
 70
     0
  9
$PEXTMIN
 10
1.000000E+20
 20
1.000000E+20
 30
1.000000E+20
  9
$PEXTMAX
 10
-1.000000E+20
 20
-1.000000E+20
 30
-1.000000E+20
  9
$PLIMMIN
 10
0.0
 20
0.0
  9
$PLIMMAX
 10
12.0
 20
9.0
  9
$UNITMODE
 70
     0
  9
$VISRETAIN
 70
     0
  9
$PLINEGEN
 70
     0
  9
$PSLTSCALE
 70
     1
  9
$TREEDEPTH
 70
  3020
  9
$PICKSTYLE
 70
     1
  9
$CMLSTYLE
  2
STANDARD
  9
$CMLJUST
 70
     0
  9
$CMLSCALE
 40
1.0
  9
$PROXYGRAPHICS
 70
     1
  9
$MEASUREMENT
 70
     0
  0
ENDSEC
  0
SECTION
  2
CLASSES
  0
CLASS
  1
DICTIONARYVAR
  2
AcDbDictionaryVar
  3
"AutoCAD"
 90
        0
280
     0
281
     0
  0
ENDSEC
  0
SECTION
  2
TABLES
  0
TABLE
  2
VPORT
  5
17F
100
AcDbSymbolTable
 70
     6
  0
VPORT
  5
1B1
100
AcDbSymbolTableRecord
100
AcDbViewportTableRecord
  2
*ACTIVE
 70
     0
 10
0.0
 20
0.0
 11
1.0
 21
1.0
 12
416.801181
 22
290.465072
 13
0.0
 23
0.0
 14
15.0
 24
15.0
 15
30.0
 25
30.0
 16
0.0
 26
0.0
 36
1.0
 17
0.0
 27
0.0
 37
0.0
 40
580.930144
 41
1.434944
 42
50.0
 43
0.0
 44
0.0
 50
0.0
 51
0.0
 71
     0
 72
   100
 73
     1
 74
     1
 75
     0
 76
     0
 77
     0
 78
     0
  0
ENDTAB
  0
TABLE
  2
LTYPE
  5
17C
100
AcDbSymbolTable
 70
     4
  0
LTYPE
  5
188
100
AcDbSymbolTableRecord
100
AcDbLinetypeTableRecord
  2
BYBLOCK
 70
     0
  3

 72
    65
 73
     0
 40
0.0
  0
LTYPE
  5
189
100
AcDbSymbolTableRecord
100
AcDbLinetypeTableRecord
  2
BYLAYER
 70
     0
  3

 72
    65
 73
     0
 40
0.0
  0
LTYPE
  5
18A
100
AcDbSymbolTableRecord
100
AcDbLinetypeTableRecord
  2
CONTINUOUS
 70
     0
  3
Solid line
 72
    65
 73
     0
 40
0.0
  0
LTYPE
  5
194
100
AcDbSymbolTableRecord
100
AcDbLinetypeTableRecord
  2
TENSEN1
 70
     0
  3

 72
    65
 73
     2
 40
0.4
 49
0.3
 74
     0
 49
-0.1
 74
     0
  0
LTYPE
  5
195
100
AcDbSymbolTableRecord
100
AcDbLinetypeTableRecord
  2
ITTEN1
 70
     0
  3

 72
    65
 73
     4
 40
8.2
 49
5.0
 74
     0
 49
-1.0
 74
     0
 49
1.2
 74
     0
 49
-1.0
 74
     0
  0
LTYPE
  5
196
100
AcDbSymbolTableRecord
100
AcDbLinetypeTableRecord
  2
TENSEN2
 70
     0
  3

 72
    65
 73
     2
 40
2.1
 49
1.5
 74
     0
 49
-0.6
 74
     0
  0
ENDTAB
  0
TABLE
  2
LAYER
  5
179
100
AcDbSymbolTable
 70
     4
  0
LAYER
  5
185
100
AcDbSymbolTableRecord
100
AcDbLayerTableRecord
  2
0
 70
     0
 62
     7
  6
CONTINUOUS
  0
LAYER
  5
19A
100
AcDbSymbolTableRecord
100
AcDbLayerTableRecord
  2
1
 70
     0
 62
     1
  6
ITTEN1
  0
LAYER
  5
19B
100
AcDbSymbolTableRecord
100
AcDbLayerTableRecord
  2
2
 70
     0
 62
     2
  6
TENSEN2
  0
LAYER
  5
19C
100
AcDbSymbolTableRecord
100
AcDbLayerTableRecord
  2
3
 70
     0
 62
     3
  6
CONTINUOUS
  0
ENDTAB
  0
TABLE
  2
STYLE
  5
17A
100
AcDbSymbolTable
 70
     2
  0
STYLE
  5
186
100
AcDbSymbolTableRecord
100
AcDbTextStyleTableRecord
  2
STANDARD
 70
     0
 40
0.0
 41
1.0
 50
0.0
 71
     0
 42
0.2
  3
txt
  4

  0
STYLE
  5
193
100
AcDbSymbolTableRecord
100
AcDbTextStyleTableRecord
  2
BIGFONT
 70
     0
 40
17.0
 41
1.0
 50
0.0
 71
     0
 42
17.0
  3

  4
bigfont
  0
ENDTAB
  0
TABLE
  2
VIEW
  5
17D
100
AcDbSymbolTable
 70
     0
  0
ENDTAB
  0
TABLE
  2
UCS
  5
17E
100
AcDbSymbolTable
 70
     0
  0
ENDTAB
  0
TABLE
  2
APPID
  5
180
100
AcDbSymbolTable
 70
     1
  0
APPID
  5
187
100
AcDbSymbolTableRecord
100
AcDbRegAppTableRecord
  2
ACAD
 70
     0
  0
ENDTAB
  0
TABLE
  2
DIMSTYLE
  5
181
100
AcDbSymbolTable
 70
     1
  0
DIMSTYLE
105
199
100
AcDbSymbolTableRecord
100
AcDbDimStyleTableRecord
  2
STANDARD
 70
     0
  3

  4

  5

  6

  7

 40
1.0
 41
0.18
 42
0.0625
 43
0.38
 44
0.18
 45
0.0
 46
0.0
 47
0.0
 48
0.0
140
0.18
141
0.09
142
0.0
143
25.4
144
1.0
145
0.0
146
1.0
147
0.09
 71
     0
 72
     0
 73
     1
 74
     1
 75
     0
 76
     0
 77
     0
 78
     0
170
     0
171
     2
172
     0
173
     0
174
     0
175
     0
176
     0
177
     0
178
     0
270
     2
271
     4
272
     4
273
     2
274
     2
340
193
275
     0
280
     0
281
     0
282
     0
283
     1
284
     0
285
     0
286
     0
287
     5
288
     0
  0
ENDTAB
  0
TABLE
  2
BLOCK_RECORD
  5
178
100
AcDbSymbolTable
 70
     0
  0
BLOCK_RECORD
  5
18E
100
AcDbSymbolTableRecord
100
AcDbBlockTableRecord
  2
*MODEL_SPACE
  0
BLOCK_RECORD
  5
18B
100
AcDbSymbolTableRecord
100
AcDbBlockTableRecord
  2
*PAPER_SPACE
  0
ENDTAB
  0
ENDSEC
  0
SECTION
  2
BLOCKS
  0
BLOCK
  5
19F
100
AcDbEntity
  8
0
100
AcDbBlockBegin
  2
*MODEL_SPACE
 70
     0
 10
0.0
 20
0.0
 30
0.0
  3
*MODEL_SPACE
  1

  0
ENDBLK
  5
1A0
100
AcDbEntity
  8
0
100
AcDbBlockEnd
  0
BLOCK
  5
19D
100
AcDbEntity
 67
     1
  8
0
100
AcDbBlockBegin
  2
*PAPER_SPACE
 70
     0
 10
0.0
 20
0.0
 30
0.0
  3
*PAPER_SPACE
  1

  0
ENDBLK
  5
19E
100
AcDbEntity
 67
     1
  8
0
100
AcDbBlockEnd
  0
ENDSEC
  0
SECTION
  2
ENTITIES
  0
LINE
  5
3D
100
AcDbEntity
  8
1
100
AcDbLine
 10
47.75
 20
210.0
 30
0.0
 11
318.75
 21
210.0
 31
0.0
  0
LINE
  5
3E
100
AcDbEntity
  8
1
100
AcDbLine
 10
180.0
 20
355.5
 30
0.0
 11
180.0
 21
79.0
 31
0.0
  0
CIRCLE
  5
3F
100
AcDbEntity
  8
0
100
AcDbCircle
 10
180.0
 20
210.0
 30
0.0
 40
125.0
  0
CIRCLE
  5
40
100
AcDbEntity
  8
0
100
AcDbCircle
 10
180.0
 20
210.0
 30
0.0
 40
24.0
  0
CIRCLE
  5
41
100
AcDbEntity
  8
0
100
AcDbCircle
 10
180.0
 20
210.0
 30
0.0
 40
28.0
  0
LINE
  5
42
100
AcDbEntity
  8
0
100
AcDbLine
 10
192.5
 20
306.0
 30
0.0
 11
186.324908
 21
306.0
 31
0.0
  0
LINE
  5
43
100
AcDbEntity
  8
0
100
AcDbLine
 10
167.5
 20
306.0
 30
0.0
 11
164.535681
 21
308.964319
 31
0.0
  0
LINE
  5
44
100
AcDbEntity
  8
0
100
AcDbLine
 10
192.5
 20
306.0
 30
0.0
 11
195.42521
 21
308.92521
 31
0.0
  0
LINE
  5
45
100
AcDbEntity
  8
0
100
AcDbLine
 10
196.5
 20
236.5
 30
0.0
 11
192.5
 21
306.0
 31
0.0
  0
LINE
  5
46
100
AcDbEntity
  8
0
100
AcDbLine
 10
163.5
 20
236.75
 30
0.0
 11
167.5
 21
306.0
 31
0.0
  0
ARC
  5
47
100
AcDbEntity
  8
0
100
AcDbCircle
 10
147.40625
 20
237.5625
 30
0.0
 40
16.114247
100
AcDbArc
 50
330.999357
 51
357.109851
  0
ARC
  5
48
100
AcDbEntity
  8
0
100
AcDbCircle
 10
364.5625
 20
282.625
 30
0.0
 40
174.277134
100
AcDbArc
 50
195.347028
 51
197.661694
  0
ARC
  5
49
100
AcDbEntity
  8
0
100
AcDbCircle
 10
201.017857
 20
300.232143
 30
0.0
 40
8.510535
100
AcDbArc
 50
103.715507
 51
166.284493
  0
ARC
  5
4A
100
AcDbEntity
  8
0
100
AcDbCircle
 10
158.982143
 20
300.232143
 30
0.0
 40
8.510535
100
AcDbArc
 50
13.715507
 51
76.284493
  0
ARC
  5
4B
100
AcDbEntity
  8
0
100
AcDbCircle
 10
180.0
 20
210.0
 30
0.0
 40
101.0
100
AcDbArc
 50
99.200337
 51
80.814126
  0
LINE
  5
4C
100
AcDbEntity
  8
0
100
AcDbLine
 10
164.542795
 20
308.963044
 30
0.0
 11
163.851938
 21
309.704564
 31
0.0
  0
ARC
  5
4D
100
AcDbEntity
  8
0
100
AcDbCircle
 10
158.872393
 20
300.253346
 30
0.0
 40
8.514077
100
AcDbArc
 50
75.447296
 51
80.399579
  0
LINE
  5
4E
100
AcDbEntity
  8
0
100
AcDbLine
 10
195.413654
 20
308.924535
 30
0.0
 11
196.117307
 21
309.689383
 31
0.0
  0
LINE
  5
4F
100
AcDbEntity
  8
0
100
AcDbLine
 10
220.0
 20
122.0
 30
0.0
 11
208.0
 21
210.0
 31
0.0
  0
LINE
  5
50
100
AcDbEntity
  8
0
100
AcDbLine
 10
140.0
 20
122.0
 30
0.0
 11
152.0
 21
210.0
 31
0.0
  0
ARC
  5
51
100
AcDbEntity
  8
0
100
AcDbCircle
 10
136.700789
 20
123.310038
 30
0.0
 40
3.549787
100
AcDbArc
 50
258.638432
 51
338.343156
  0
ARC
  5
52
100
AcDbEntity
  8
0
100
AcDbCircle
 10
223.327101
 20
123.333944
 30
0.0
 40
3.584551
100
AcDbArc
 50
201.847467
 51
280.767089
  0
LINE
  5
53
100
AcDbEntity
  8
1
100
AcDbLine
 10
147.75
 20
315.0
 30
0.0
 11
214.25
 21
315.0
 31
0.0
  0
ARC
  5
66
100
AcDbEntity
  8
0
100
AcDbCircle
 10
201.831434
 20
290.162744
 30
0.0
 40
18.548387
100
AcDbArc
 50
95.532071
 51
98.80046
  0
LINE
  5
67
100
AcDbEntity
  8
0
100
AcDbLine
 10
173.755375
 20
306.0
 30
0.0
 11
167.5
 21
306.0
 31
0.0
  0
LINE
  5
BA
100
AcDbEntity
  8
1
100
AcDbLine
 10
510.0
 20
210.0
 30
0.0
 11
510.0
 21
352.0
 31
0.0
  0
LINE
  5
BB
100
AcDbEntity
  8
1
100
AcDbLine
 10
576.0
 20
210.0
 30
0.0
 11
484.5
 21
210.0
 31
0.0
  0
LINE
  5
BC
100
AcDbEntity
  8
0
100
AcDbLine
 10
496.5
 20
210.0
 30
0.0
 11
496.5
 21
334.0
 31
0.0
  0
LINE
  5
BD
100
AcDbEntity
  8
0
100
AcDbLine
 10
523.5
 20
210.0
 30
0.0
 11
523.5
 21
334.0
 31
0.0
  0
LINE
  5
BE
100
AcDbEntity
  8
0
100
AcDbLine
 10
497.5
 20
335.0
 30
0.0
 11
522.5
 21
335.0
 31
0.0
  0
LINE
  5
BF
100
AcDbEntity
  8
0
100
AcDbLine
 10
556.5
 20
210.0
 30
0.0
 11
556.5
 21
233.0
 31
0.0
  0
LINE
  5
C0
100
AcDbEntity
  8
0
100
AcDbLine
 10
554.5
 20
235.0
 30
0.0
 11
536.5
 21
235.0
 31
0.0
  0
LINE
  5
C1
100
AcDbEntity
  8
0
100
AcDbLine
 10
536.5
 20
210.0
 30
0.0
 11
536.5
 21
236.0
 31
0.0
  0
LINE
  5
C2
100
AcDbEntity
  8
2
100
AcDbLine
 10
516.5
 20
210.0
 30
0.0
 11
516.5
 21
235.0
 31
0.0
  0
LINE
  5
C3
100
AcDbEntity
  8
0
100
AcDbLine
 10
531.5
 20
240.0
 30
0.0
 11
523.5
 21
293.0
 31
0.0
  0
ARC
  5
C4
100
AcDbEntity
  8
0
100
AcDbCircle
 10
554.508414
 20
233.008414
 30
0.0
 40
1.991604
100
AcDbArc
 50
359.75795
 51
90.24205
  0
ARC
  5
C5
100
AcDbEntity
  8
0
100
AcDbCircle
 10
522.535892
 20
334.035892
 30
0.0
 40
0.964776
100
AcDbArc
 50
357.867976
 51
92.132024
  0
ARC
  5
C6
100
AcDbEntity
  8
0
100
AcDbCircle
 10
497.52689
 20
333.97311
 30
0.0
 40
1.027242
100
AcDbArc
 50
91.499976
 51
178.500024
  0
LINE
  5
C7
100
AcDbEntity
  8
0
100
AcDbLine
 10
531.5
 20
239.5
 30
0.0
 11
531.5
 21
229.5
 31
0.0
  0
LINE
  5
C8
100
AcDbEntity
  8
0
100
AcDbLine
 10
531.5
 20
229.5
 30
0.0
 11
523.5
 21
229.5
 31
0.0
  0
LINE
  5
C9
100
AcDbEntity
  8
2
100
AcDbLine
 10
516.5
 20
210.0
 30
0.0
 11
516.5
 21
185.0
 31
0.0
  0
LINE
  5
CA
100
AcDbEntity
  8
0
100
AcDbLine
 10
536.5
 20
210.0
 30
0.0
 11
536.5
 21
184.0
 31
0.0
  0
LINE
  5
CB
100
AcDbEntity
  8
0
100
AcDbLine
 10
556.5
 20
210.0
 30
0.0
 11
556.5
 21
187.0
 31
0.0
  0
LINE
  5
CC
100
AcDbEntity
  8
0
100
AcDbLine
 10
523.5
 20
210.0
 30
0.0
 11
523.5
 21
86.0
 31
0.0
  0
LINE
  5
CD
100
AcDbEntity
  8
0
100
AcDbLine
 10
496.5
 20
210.0
 30
0.0
 11
496.5
 21
86.0
 31
0.0
  0
LINE
  5
CE
100
AcDbEntity
  8
1
100
AcDbLine
 10
510.0
 20
210.0
 30
0.0
 11
510.0
 21
68.0
 31
0.0
  0
LINE
  5
CF
100
AcDbEntity
  8
0
100
AcDbLine
 10
554.5
 20
185.0
 30
0.0
 11
536.5
 21
185.0
 31
0.0
  0
LINE
  5
D0
100
AcDbEntity
  8
0
100
AcDbLine
 10
531.5
 20
180.0
 30
0.0
 11
523.5
 21
127.0
 31
0.0
  0
LINE
  5
D1
100
AcDbEntity
  8
0
100
AcDbLine
 10
497.5
 20
85.0
 30
0.0
 11
522.5
 21
85.0
 31
0.0
  0
ARC
  5
D2
100
AcDbEntity
  8
0
100
AcDbCircle
 10
497.52689
 20
86.02689
 30
0.0
 40
1.027242
100
AcDbArc
 50
181.499976
 51
268.500024
  0
ARC
  5
D3
100
AcDbEntity
  8
0
100
AcDbCircle
 10
522.535892
 20
85.964108
 30
0.0
 40
0.964776
100
AcDbArc
 50
267.867976
 51
2.132024
  0
ARC
  5
D4
100
AcDbEntity
  8
0
100
AcDbCircle
 10
554.508414
 20
186.991586
 30
0.0
 40
1.991604
100
AcDbArc
 50
269.75795
 51
0.24205
  0
LINE
  5
D5
100
AcDbEntity
  8
0
100
AcDbLine
 10
536.5
 20
236.0
 30
0.0
 11
536.5
 21
236.5
 31
0.0
  0
LINE
  5
D6
100
AcDbEntity
  8
0
100
AcDbLine
 10
536.5
 20
236.5
 30
0.0
 11
531.5
 21
240.0
 31
0.0
  0
LINE
  5
D7
100
AcDbEntity
  8
0
100
AcDbLine
 10
531.5
 20
240.0
 30
0.0
 11
531.5
 21
239.5
 31
0.0
  0
LINE
  5
D8
100
AcDbEntity
  8
0
100
AcDbLine
 10
531.5
 20
180.0
 30
0.0
 11
531.5
 21
210.0
 31
0.0
  0
LINE
  5
D9
100
AcDbEntity
  8
0
100
AcDbLine
 10
531.5
 20
210.0
 30
0.0
 11
523.5
 21
210.0
 31
0.0
  0
LINE
  5
DA
100
AcDbEntity
  8
0
100
AcDbLine
 10
536.5
 20
184.0
 30
0.0
 11
536.5
 21
183.5
 31
0.0
  0
LINE
  5
DB
100
AcDbEntity
  8
0
100
AcDbLine
 10
536.5
 20
183.5
 30
0.0
 11
531.5
 21
180.0
 31
0.0
  0
LINE
  5
124
100
AcDbEntity
  8
1
100
AcDbLine
 10
533.0
 20
315.0
 30
0.0
 11
483.587123
 21
315.0
 31
0.0
  0
CIRCLE
  5
1A7
100
AcDbEntity
  8
0
100
AcDbCircle
 10
180.0
 20
315.0
 30
0.0
 40
5.0
  0
CIRCLE
  5
1A8
100
AcDbEntity
  8
0
100
AcDbCircle
 10
180.0
 20
315.0
 30
0.0
 40
4.0
  0
LINE
  5
1AA
100
AcDbEntity
  8
2
100
AcDbLine
 10
496.5
 20
320.0
 30
0.0
 11
523.5
 21
320.0
 31
0.0
  0
LINE
  5
1AC
100
AcDbEntity
  8
2
100
AcDbLine
 10
523.5
 20
319.0
 30
0.0
 11
496.5
 21
319.0
 31
0.0
  0
LINE
  5
1AD
100
AcDbEntity
  8
2
100
AcDbLine
 10
496.5
 20
310.0
 30
0.0
 11
523.5
 21
310.0
 31
0.0
  0
LINE
  5
1AE
100
AcDbEntity
  8
2
100
AcDbLine
 10
523.5
 20
311.0
 30
0.0
 11
496.5
 21
311.0
 31
0.0
  0
ENDSEC
  0
SECTION
  2
OBJECTS
  0
DICTIONARY
  5
183
100
AcDbDictionary
  3
ACAD_GROUP
350
184
  3
ACAD_MLINESTYLE
350
191
  3
ACDBVARIABLEDICTIONARY
350
1A1
  0
DICTIONARY
  5
184
102
{ACAD_REACTORS
330
183
102
}
100
AcDbDictionary
  0
DICTIONARY
  5
191
102
{ACAD_REACTORS
330
183
102
}
100
AcDbDictionary
  3
STANDARD
350
192
  0
DICTIONARY
  5
1A1
102
{ACAD_REACTORS
330
183
102
}
100
AcDbDictionary
  3
DIMADEC
350
1A2
  0
MLINESTYLE
  5
192
102
{ACAD_REACTORS
330
191
102
}
100
AcDbMlineStyle
  2
STANDARD
 70
     0
  3

 62
   256
 51
90.0
 52
90.0
 71
     2
 49
0.5
 62
   256
  6
BYLAYER
 49
-0.5
 62
   256
  6
BYLAYER
  0
DICTIONARYVAR
  5
1A2
102
{ACAD_REACTORS
330
1A1
102
}
100
DictionaryVariables
280
     0
  1
0
  0
ENDSEC
  0
EOF
