  0
SECTION
  2
HEADER
  9
$ACADVER
  1
AC1014
  9
$ACADMAINTVER
 70
     0
  9
$DWGCODEPAGE
  3
ANSI_932
  9
$INSBASE
 10
0.0
 20
0.0
 30
0.0
  9
$EXTMIN
 10
92.0
 20
151.5
 30
0.0
  9
$EXTMAX
 10
522.0
 20
329.5
 30
0.0
  9
$LIMMIN
 10
0.0
 20
0.0
  9
$LIMMAX
 10
680.0
 20
470.0
  9
$ORTHOMODE
 70
     1
  9
$REGENMODE
 70
     1
  9
$FILLMODE
 70
     1
  9
$QTEXTMODE
 70
     0
  9
$MIRRTEXT
 70
     1
  9
$DRAGMODE
 70
     2
  9
$LTSCALE
 40
1.0
  9
$OSMODE
 70
    32
  9
$ATTMODE
 70
     1
  9
$TEXTSIZE
 40
17.0
  9
$TRACEWID
 40
0.05
  9
$TEXTSTYLE
  7
BIGFONT
  9
$CLAYER
  8
2
  9
$CELTYPE
  6
BYLAYER
  9
$CECOLOR
 62
   256
  9
$CELTSCALE
 40
1.0
  9
$DELOBJ
 70
     1
  9
$DISPSILH
 70
     0
  9
$DIMSCALE
 40
1.0
  9
$DIMASZ
 40
0.18
  9
$DIMEXO
 40
0.0625
  9
$DIMDLI
 40
0.38
  9
$DIMRND
 40
0.0
  9
$DIMDLE
 40
0.0
  9
$DIMEXE
 40
0.18
  9
$DIMTP
 40
0.0
  9
$DIMTM
 40
0.0
  9
$DIMTXT
 40
0.18
  9
$DIMCEN
 40
0.09
  9
$DIMTSZ
 40
0.0
  9
$DIMTOL
 70
     0
  9
$DIMLIM
 70
     0
  9
$DIMTIH
 70
     1
  9
$DIMTOH
 70
     1
  9
$DIMSE1
 70
     0
  9
$DIMSE2
 70
     0
  9
$DIMTAD
 70
     0
  9
$DIMZIN
 70
     0
  9
$DIMBLK
  1

  9
$DIMASO
 70
     1
  9
$DIMSHO
 70
     1
  9
$DIMPOST
  1

  9
$DIMAPOST
  1

  9
$DIMALT
 70
     0
  9
$DIMALTD
 70
     2
  9
$DIMALTF
 40
25.4
  9
$DIMLFAC
 40
1.0
  9
$DIMTOFL
 70
     0
  9
$DIMTVP
 40
0.0
  9
$DIMTIX
 70
     0
  9
$DIMSOXD
 70
     0
  9
$DIMSAH
 70
     0
  9
$DIMBLK1
  1

  9
$DIMBLK2
  1

  9
$DIMSTYLE
  2
STANDARD
  9
$DIMCLRD
 70
     0
  9
$DIMCLRE
 70
     0
  9
$DIMCLRT
 70
     0
  9
$DIMTFAC
 40
1.0
  9
$DIMGAP
 40
0.09
  9
$DIMJUST
 70
     0
  9
$DIMSD1
 70
     0
  9
$DIMSD2
 70
     0
  9
$DIMTOLJ
 70
     1
  9
$DIMTZIN
 70
     0
  9
$DIMALTZ
 70
     0
  9
$DIMALTTZ
 70
     0
  9
$DIMFIT
 70
     5
  9
$DIMUPT
 70
     0
  9
$DIMUNIT
 70
     2
  9
$DIMDEC
 70
     4
  9
$DIMTDEC
 70
     4
  9
$DIMALTU
 70
     2
  9
$DIMALTTD
 70
     2
  9
$DIMTXSTY
  7
BIGFONT
  9
$DIMAUNIT
 70
     0
  9
$LUNITS
 70
     2
  9
$LUPREC
 70
     4
  9
$SKETCHINC
 40
0.1
  9
$FILLETRAD
 40
0.0
  9
$AUNITS
 70
     0
  9
$AUPREC
 70
     0
  9
$MENU
  1
acad
  9
$ELEVATION
 40
0.0
  9
$PELEVATION
 40
0.0
  9
$THICKNESS
 40
0.0
  9
$LIMCHECK
 70
     0
  9
$BLIPMODE
 70
     0
  9
$CHAMFERA
 40
0.0
  9
$CHAMFERB
 40
0.0
  9
$CHAMFERC
 40
0.0
  9
$CHAMFERD
 40
0.0
  9
$SKPOLY
 70
     0
  9
$TDCREATE
 40
2450865.805747222
  9
$TDUPDATE
 40
2453594.734246597
  9
$TDINDWG
 40
0.0013755093
  9
$TDUSRTIMER
 40
0.0013755093
  9
$USRTIMER
 70
     1
  9
$ANGBASE
 50
0.0
  9
$ANGDIR
 70
     0
  9
$PDMODE
 70
     0
  9
$PDSIZE
 40
0.0
  9
$PLINEWID
 40
0.0
  9
$COORDS
 70
     2
  9
$SPLFRAME
 70
     0
  9
$SPLINETYPE
 70
     6
  9
$SPLINESEGS
 70
     8
  9
$ATTDIA
 70
     0
  9
$ATTREQ
 70
     1
  9
$HANDLING
 70
     1
  9
$HANDSEED
  5
209
  9
$SURFTAB1
 70
     6
  9
$SURFTAB2
 70
     6
  9
$SURFTYPE
 70
     6
  9
$SURFU
 70
     6
  9
$SURFV
 70
     6
  9
$UCSNAME
  2

  9
$UCSORG
 10
0.0
 20
0.0
 30
0.0
  9
$UCSXDIR
 10
1.0
 20
0.0
 30
0.0
  9
$UCSYDIR
 10
0.0
 20
1.0
 30
0.0
  9
$PUCSNAME
  2

  9
$PUCSORG
 10
0.0
 20
0.0
 30
0.0
  9
$PUCSXDIR
 10
1.0
 20
0.0
 30
0.0
  9
$PUCSYDIR
 10
0.0
 20
1.0
 30
0.0
  9
$USERI1
 70
     0
  9
$USERI2
 70
     0
  9
$USERI3
 70
     0
  9
$USERI4
 70
     0
  9
$USERI5
 70
     0
  9
$USERR1
 40
0.0
  9
$USERR2
 40
0.0
  9
$USERR3
 40
0.0
  9
$USERR4
 40
0.0
  9
$USERR5
 40
0.0
  9
$WORLDVIEW
 70
     1
  9
$SHADEDGE
 70
     3
  9
$SHADEDIF
 70
    70
  9
$TILEMODE
 70
     1
  9
$MAXACTVP
 70
    16
  9
$PINSBASE
 10
0.0
 20
0.0
 30
0.0
  9
$PLIMCHECK
 70
     0
  9
$PEXTMIN
 10
1.000000E+20
 20
1.000000E+20
 30
1.000000E+20
  9
$PEXTMAX
 10
-1.000000E+20
 20
-1.000000E+20
 30
-1.000000E+20
  9
$PLIMMIN
 10
0.0
 20
0.0
  9
$PLIMMAX
 10
12.0
 20
9.0
  9
$UNITMODE
 70
     0
  9
$VISRETAIN
 70
     0
  9
$PLINEGEN
 70
     0
  9
$PSLTSCALE
 70
     1
  9
$TREEDEPTH
 70
  3020
  9
$PICKSTYLE
 70
     1
  9
$CMLSTYLE
  2
STANDARD
  9
$CMLJUST
 70
     0
  9
$CMLSCALE
 40
1.0
  9
$PROXYGRAPHICS
 70
     1
  9
$MEASUREMENT
 70
     0
  0
ENDSEC
  0
SECTION
  2
CLASSES
  0
CLASS
  1
DICTIONARYVAR
  2
AcDbDictionaryVar
  3
"AutoCAD"
 90
        0
280
     0
281
     0
  0
ENDSEC
  0
SECTION
  2
TABLES
  0
TABLE
  2
VPORT
  5
1CF
100
AcDbSymbolTable
 70
     1
  0
VPORT
  5
204
100
AcDbSymbolTableRecord
100
AcDbViewportTableRecord
  2
*ACTIVE
 70
     0
 10
0.0
 20
0.0
 11
1.0
 21
1.0
 12
416.801181
 22
290.465072
 13
0.0
 23
0.0
 14
15.0
 24
15.0
 15
30.0
 25
30.0
 16
0.0
 26
0.0
 36
1.0
 17
0.0
 27
0.0
 37
0.0
 40
580.930144
 41
1.434944
 42
50.0
 43
0.0
 44
0.0
 50
0.0
 51
0.0
 71
     0
 72
   100
 73
     1
 74
     1
 75
     0
 76
     0
 77
     0
 78
     0
  0
ENDTAB
  0
TABLE
  2
LTYPE
  5
1CC
100
AcDbSymbolTable
 70
     4
  0
LTYPE
  5
1D8
100
AcDbSymbolTableRecord
100
AcDbLinetypeTableRecord
  2
BYBLOCK
 70
     0
  3

 72
    65
 73
     0
 40
0.0
  0
LTYPE
  5
1D9
100
AcDbSymbolTableRecord
100
AcDbLinetypeTableRecord
  2
BYLAYER
 70
     0
  3

 72
    65
 73
     0
 40
0.0
  0
LTYPE
  5
1DA
100
AcDbSymbolTableRecord
100
AcDbLinetypeTableRecord
  2
CONTINUOUS
 70
     0
  3
Solid line
 72
    65
 73
     0
 40
0.0
  0
LTYPE
  5
1E4
100
AcDbSymbolTableRecord
100
AcDbLinetypeTableRecord
  2
TENSEN1
 70
     0
  3

 72
    65
 73
     2
 40
0.4
 49
0.3
 74
     0
 49
-0.1
 74
     0
  0
LTYPE
  5
1E5
100
AcDbSymbolTableRecord
100
AcDbLinetypeTableRecord
  2
ITTEN1
 70
     0
  3

 72
    65
 73
     4
 40
8.2
 49
5.0
 74
     0
 49
-1.0
 74
     0
 49
1.2
 74
     0
 49
-1.0
 74
     0
  0
LTYPE
  5
1E6
100
AcDbSymbolTableRecord
100
AcDbLinetypeTableRecord
  2
TENSEN2
 70
     0
  3

 72
    65
 73
     2
 40
2.1
 49
1.5
 74
     0
 49
-0.6
 74
     0
  0
ENDTAB
  0
TABLE
  2
LAYER
  5
1C9
100
AcDbSymbolTable
 70
     4
  0
LAYER
  5
1D5
100
AcDbSymbolTableRecord
100
AcDbLayerTableRecord
  2
0
 70
     0
 62
     7
  6
CONTINUOUS
  0
LAYER
  5
1EA
100
AcDbSymbolTableRecord
100
AcDbLayerTableRecord
  2
1
 70
     0
 62
     1
  6
ITTEN1
  0
LAYER
  5
1EB
100
AcDbSymbolTableRecord
100
AcDbLayerTableRecord
  2
2
 70
     0
 62
     2
  6
TENSEN2
  0
LAYER
  5
1EC
100
AcDbSymbolTableRecord
100
AcDbLayerTableRecord
  2
3
 70
     0
 62
     3
  6
CONTINUOUS
  0
ENDTAB
  0
TABLE
  2
STYLE
  5
1CA
100
AcDbSymbolTable
 70
     2
  0
STYLE
  5
1D6
100
AcDbSymbolTableRecord
100
AcDbTextStyleTableRecord
  2
STANDARD
 70
     0
 40
0.0
 41
1.0
 50
0.0
 71
     0
 42
0.2
  3
txt
  4

  0
STYLE
  5
1E3
100
AcDbSymbolTableRecord
100
AcDbTextStyleTableRecord
  2
BIGFONT
 70
     0
 40
17.0
 41
1.0
 50
0.0
 71
     0
 42
17.0
  3
txt.shx
  4
bigfont
  0
ENDTAB
  0
TABLE
  2
VIEW
  5
1CD
100
AcDbSymbolTable
 70
     0
  0
ENDTAB
  0
TABLE
  2
UCS
  5
1CE
100
AcDbSymbolTable
 70
     0
  0
ENDTAB
  0
TABLE
  2
APPID
  5
1D0
100
AcDbSymbolTable
 70
     1
  0
APPID
  5
1D7
100
AcDbSymbolTableRecord
100
AcDbRegAppTableRecord
  2
ACAD
 70
     0
  0
ENDTAB
  0
TABLE
  2
DIMSTYLE
  5
1D1
100
AcDbSymbolTable
 70
     1
  0
DIMSTYLE
105
1E9
100
AcDbSymbolTableRecord
100
AcDbDimStyleTableRecord
  2
STANDARD
 70
     0
  3

  4

  5

  6

  7

 40
1.0
 41
0.18
 42
0.0625
 43
0.38
 44
0.18
 45
0.0
 46
0.0
 47
0.0
 48
0.0
140
0.18
141
0.09
142
0.0
143
25.4
144
1.0
145
0.0
146
1.0
147
0.09
 71
     0
 72
     0
 73
     1
 74
     1
 75
     0
 76
     0
 77
     0
 78
     0
170
     0
171
     2
172
     0
173
     0
174
     0
175
     0
176
     0
177
     0
178
     0
270
     2
271
     4
272
     4
273
     2
274
     2
340
1E3
275
     0
280
     0
281
     0
282
     0
283
     1
284
     0
285
     0
286
     0
287
     5
288
     0
  0
ENDTAB
  0
TABLE
  2
BLOCK_RECORD
  5
1C8
100
AcDbSymbolTable
 70
     0
  0
BLOCK_RECORD
  5
1DE
100
AcDbSymbolTableRecord
100
AcDbBlockTableRecord
  2
*MODEL_SPACE
  0
BLOCK_RECORD
  5
1DB
100
AcDbSymbolTableRecord
100
AcDbBlockTableRecord
  2
*PAPER_SPACE
  0
ENDTAB
  0
ENDSEC
  0
SECTION
  2
BLOCKS
  0
BLOCK
  5
1EF
100
AcDbEntity
  8
0
100
AcDbBlockBegin
  2
*MODEL_SPACE
 70
     0
 10
0.0
 20
0.0
 30
0.0
  3
*MODEL_SPACE
  1

  0
ENDBLK
  5
1F0
100
AcDbEntity
  8
0
100
AcDbBlockEnd
  0
BLOCK
  5
1ED
100
AcDbEntity
 67
     1
  8
0
100
AcDbBlockBegin
  2
*PAPER_SPACE
 70
     0
 10
0.0
 20
0.0
 30
0.0
  3
*PAPER_SPACE
  1

  0
ENDBLK
  5
1EE
100
AcDbEntity
 67
     1
  8
0
100
AcDbBlockEnd
  0
ENDSEC
  0
SECTION
  2
ENTITIES
  0
CIRCLE
  5
3B
100
AcDbEntity
  8
0
100
AcDbCircle
 10
180.0
 20
240.0
 30
0.0
 40
80.0
  0
CIRCLE
  5
3C
100
AcDbEntity
  8
0
100
AcDbCircle
 10
180.0
 20
240.0
 30
0.0
 40
18.0
  0
CIRCLE
  5
3D
100
AcDbEntity
  8
0
100
AcDbCircle
 10
180.0
 20
240.0
 30
0.0
 40
22.5
  0
LINE
  5
3E
100
AcDbEntity
  8
1
100
AcDbLine
 10
180.0
 20
153.5
 30
0.0
 11
180.0
 21
329.5
 31
0.0
  0
LINE
  5
3F
100
AcDbEntity
  8
0
100
AcDbLine
 10
167.5
 20
298.5
 30
0.0
 11
171.157737
 21
298.5
 31
0.0
  0
LINE
  5
40
100
AcDbEntity
  8
0
100
AcDbLine
 10
192.5
 20
298.5
 30
0.0
 11
196.471865
 21
299.303413
 31
0.0
  0
LINE
  5
41
100
AcDbEntity
  8
0
100
AcDbLine
 10
167.5
 20
298.5
 30
0.0
 11
163.516682
 21
299.303413
 31
0.0
  0
LINE
  5
42
100
AcDbEntity
  8
0
100
AcDbLine
 10
194.964443
 20
255.784626
 30
0.0
 11
192.5
 21
297.0
 31
0.0
  0
LINE
  5
43
100
AcDbEntity
  8
0
100
AcDbLine
 10
167.5
 20
297.0
 30
0.0
 11
165.028135
 21
255.784626
 31
0.0
  0
ARC
  5
44
100
AcDbEntity
  8
0
100
AcDbCircle
 10
162.924115
 20
293.698559
 30
0.0
 40
5.642538
100
AcDbArc
 50
35.809956
 51
84.180317
  0
ARC
  5
45
100
AcDbEntity
  8
0
100
AcDbCircle
 10
196.753203
 20
294.123225
 30
0.0
 40
5.134741
100
AcDbArc
 50
93.298029
 51
145.926423
  0
LINE
  5
46
100
AcDbEntity
  8
0
100
AcDbLine
 10
210.080293
 20
186.877144
 30
0.0
 11
202.5
 21
240.0
 31
0.0
  0
LINE
  5
47
100
AcDbEntity
  8
0
100
AcDbLine
 10
150.0
 20
186.5
 30
0.0
 11
157.5
 21
240.0
 31
0.0
  0
LINE
  5
48
100
AcDbEntity
  8
1
100
AcDbLine
 10
153.0
 20
305.0
 30
0.0
 11
208.5
 21
305.0
 31
0.0
  0
ARC
  5
49
100
AcDbEntity
  8
0
100
AcDbCircle
 10
180.0
 20
240.0
 30
0.0
 40
62.0
100
AcDbArc
 50
106.38954
 51
73.739795
  0
LINE
  5
4B
100
AcDbEntity
  8
0
100
AcDbLine
 10
188.975843
 20
298.5
 30
0.0
 11
192.5
 21
298.5
 31
0.0
  0
LINE
  5
4C
100
AcDbEntity
  8
0
100
AcDbLine
 10
163.501483
 20
299.295933
 30
0.0
 11
162.504335
 21
299.484803
 31
0.0
  0
LINE
  5
4D
100
AcDbEntity
  8
0
100
AcDbLine
 10
196.462225
 20
299.249573
 30
0.0
 11
196.528578
 21
299.312569
 31
0.0
  0
LINE
  5
4E
100
AcDbEntity
  8
0
100
AcDbLine
 10
196.462225
 20
299.299306
 30
0.0
 11
196.528578
 21
299.312569
 31
0.0
  0
LINE
  5
4F
100
AcDbEntity
  8
0
100
AcDbLine
 10
196.528578
 20
299.312569
 30
0.0
 11
197.361377
 21
299.52477
 31
0.0
  0
LINE
  5
FF
100
AcDbEntity
  8
1
100
AcDbLine
 10
92.0
 20
240.0
 30
0.0
 11
269.0
 21
240.0
 31
0.0
  0
LINE
  5
100
100
AcDbEntity
  8
1
100
AcDbLine
 10
460.0
 20
240.0
 30
0.0
 11
522.0
 21
240.0
 31
0.0
  0
LINE
  5
101
100
AcDbEntity
  8
1
100
AcDbLine
 10
480.0
 20
240.0
 30
0.0
 11
480.0
 21
328.5
 31
0.0
  0
LINE
  5
102
100
AcDbEntity
  8
0
100
AcDbLine
 10
469.0
 20
240.0
 30
0.0
 11
469.0
 21
319.0
 31
0.0
  0
LINE
  5
103
100
AcDbEntity
  8
0
100
AcDbLine
 10
491.0
 20
240.0
 30
0.0
 11
491.0
 21
319.0
 31
0.0
  0
LINE
  5
104
100
AcDbEntity
  8
0
100
AcDbLine
 10
517.0
 20
240.0
 30
0.0
 11
517.0
 21
259.0
 31
0.0
  0
LINE
  5
105
100
AcDbEntity
  8
0
100
AcDbLine
 10
516.0
 20
260.0
 30
0.0
 11
500.0
 21
260.0
 31
0.0
  0
LINE
  5
106
100
AcDbEntity
  8
0
100
AcDbLine
 10
500.0
 20
240.0
 30
0.0
 11
500.0
 21
261.0
 31
0.0
  0
LINE
  5
107
100
AcDbEntity
  8
2
100
AcDbLine
 10
485.0
 20
240.0
 30
0.0
 11
485.0
 21
260.5
 31
0.0
  0
LINE
  5
108
100
AcDbEntity
  8
2
100
AcDbLine
 10
485.0
 20
260.5
 30
0.0
 11
491.0
 21
262.5
 31
0.0
  0
ARC
  5
109
100
AcDbEntity
  8
0
100
AcDbCircle
 10
516.053762
 20
259.053762
 30
0.0
 40
0.947764
100
AcDbArc
 50
356.748153
 51
93.251847
  0
ARC
  5
10A
100
AcDbEntity
  8
0
100
AcDbCircle
 10
493.25
 20
248.25
 30
0.0
 40
14.426538
100
AcDbArc
 50
62.102729
 51
86.87787
  0
LINE
  5
10B
100
AcDbEntity
  8
0
100
AcDbLine
 10
490.0
 20
320.0
 30
0.0
 11
470.0
 21
320.0
 31
0.0
  0
ARC
  5
10C
100
AcDbEntity
  8
0
100
AcDbCircle
 10
489.937999
 20
318.937999
 30
0.0
 40
1.06381
100
AcDbArc
 50
3.341222
 51
86.658778
  0
ARC
  5
10D
100
AcDbEntity
  8
0
100
AcDbCircle
 10
470.232896
 20
318.767104
 30
0.0
 40
1.2547
100
AcDbArc
 50
100.697214
 51
169.302786
  0
LINE
  5
10E
100
AcDbEntity
  8
0
100
AcDbLine
 10
491.0
 20
318.5
 30
0.0
 11
492.0
 21
317.5
 31
0.0
  0
LINE
  5
10F
100
AcDbEntity
  8
0
100
AcDbLine
 10
492.0
 20
317.5
 30
0.0
 11
492.0
 21
299.5
 31
0.0
  0
LINE
  5
110
100
AcDbEntity
  8
0
100
AcDbLine
 10
492.0
 20
299.5
 30
0.0
 11
491.0
 21
298.5
 31
0.0
  0
LINE
  5
111
100
AcDbEntity
  8
0
100
AcDbLine
 10
494.0
 20
262.5
 30
0.0
 11
494.0
 21
259.0
 31
0.0
  0
LINE
  5
112
100
AcDbEntity
  8
0
100
AcDbLine
 10
494.0
 20
259.0
 30
0.0
 11
491.0
 21
259.0
 31
0.0
  0
LINE
  5
113
100
AcDbEntity
  8
0
100
AcDbLine
 10
493.485347
 20
264.889977
 30
0.0
 11
490.800837
 21
279.964533
 31
0.0
  0
LINE
  5
114
100
AcDbEntity
  8
0
100
AcDbLine
 10
494.0
 20
262.5
 30
0.0
 11
494.0
 21
263.0
 31
0.0
  0
LINE
  5
115
100
AcDbEntity
  8
0
100
AcDbLine
 10
494.0
 20
263.0
 30
0.0
 11
493.502992
 21
264.890635
 31
0.0
  0
LINE
  5
116
100
AcDbEntity
  8
2
100
AcDbLine
 10
485.0
 20
240.0
 30
0.0
 11
485.0
 21
219.5
 31
0.0
  0
LINE
  5
117
100
AcDbEntity
  8
0
100
AcDbLine
 10
500.0
 20
240.0
 30
0.0
 11
500.0
 21
219.0
 31
0.0
  0
LINE
  5
118
100
AcDbEntity
  8
0
100
AcDbLine
 10
517.0
 20
240.0
 30
0.0
 11
517.0
 21
221.0
 31
0.0
  0
LINE
  5
119
100
AcDbEntity
  8
0
100
AcDbLine
 10
491.0
 20
240.0
 30
0.0
 11
491.0
 21
161.0
 31
0.0
  0
LINE
  5
11A
100
AcDbEntity
  8
0
100
AcDbLine
 10
469.0
 20
240.0
 30
0.0
 11
469.0
 21
161.0
 31
0.0
  0
LINE
  5
11B
100
AcDbEntity
  8
1
100
AcDbLine
 10
480.0
 20
240.0
 30
0.0
 11
480.0
 21
151.5
 31
0.0
  0
LINE
  5
11C
100
AcDbEntity
  8
0
100
AcDbLine
 10
490.0
 20
160.0
 30
0.0
 11
470.0
 21
160.0
 31
0.0
  0
ARC
  5
11D
100
AcDbEntity
  8
0
100
AcDbCircle
 10
470.232896
 20
161.232896
 30
0.0
 40
1.2547
100
AcDbArc
 50
190.697214
 51
259.302786
  0
LINE
  5
11E
100
AcDbEntity
  8
0
100
AcDbLine
 10
516.0
 20
220.0
 30
0.0
 11
500.0
 21
220.0
 31
0.0
  0
LINE
  5
11F
100
AcDbEntity
  8
2
100
AcDbLine
 10
485.0
 20
219.5
 30
0.0
 11
491.0
 21
217.5
 31
0.0
  0
LINE
  5
120
100
AcDbEntity
  8
0
100
AcDbLine
 10
494.0
 20
217.5
 30
0.0
 11
494.0
 21
217.0
 31
0.0
  0
ARC
  5
121
100
AcDbEntity
  8
0
100
AcDbCircle
 10
493.25
 20
231.75
 30
0.0
 40
14.426538
100
AcDbArc
 50
273.12213
 51
297.897271
  0
ARC
  5
122
100
AcDbEntity
  8
0
100
AcDbCircle
 10
516.053762
 20
220.946238
 30
0.0
 40
0.947764
100
AcDbArc
 50
266.748153
 51
3.251847
  0
ARC
  5
123
100
AcDbEntity
  8
0
100
AcDbCircle
 10
489.937999
 20
161.062001
 30
0.0
 40
1.06381
100
AcDbArc
 50
273.341222
 51
356.658778
  0
LINE
  5
124
100
AcDbEntity
  8
0
100
AcDbLine
 10
494.0
 20
217.5
 30
0.0
 11
494.0
 21
240.0
 31
0.0
  0
LINE
  5
125
100
AcDbEntity
  8
0
100
AcDbLine
 10
494.0
 20
240.0
 30
0.0
 11
491.0
 21
240.0
 31
0.0
  0
LINE
  5
126
100
AcDbEntity
  8
0
100
AcDbLine
 10
494.0
 20
217.5
 30
0.0
 11
491.0
 21
180.5
 31
0.0
  0
LINE
  5
127
100
AcDbEntity
  8
1
100
AcDbLine
 10
495.0
 20
305.0
 30
0.0
 11
457.686316
 21
305.0
 31
0.0
  0
CIRCLE
  5
1FB
100
AcDbEntity
  8
0
100
AcDbCircle
 10
180.0
 20
305.0
 30
0.0
 40
5.0
  0
CIRCLE
  5
1FC
100
AcDbEntity
  8
0
100
AcDbCircle
 10
180.0
 20
305.0
 30
0.0
 40
4.0
  0
LINE
  5
1FE
100
AcDbEntity
  8
2
100
AcDbLine
 10
469.0
 20
310.0
 30
0.0
 11
492.0
 21
310.0
 31
0.0
  0
LINE
  5
200
100
AcDbEntity
  8
2
100
AcDbLine
 10
492.0
 20
309.0
 30
0.0
 11
469.0
 21
309.0
 31
0.0
  0
LINE
  5
201
100
AcDbEntity
  8
2
100
AcDbLine
 10
492.0
 20
301.0
 30
0.0
 11
469.0
 21
301.0
 31
0.0
  0
LINE
  5
202
100
AcDbEntity
  8
2
100
AcDbLine
 10
469.0
 20
300.0
 30
0.0
 11
492.0
 21
300.0
 31
0.0
  0
ENDSEC
  0
SECTION
  2
OBJECTS
  0
DICTIONARY
  5
1D3
100
AcDbDictionary
  3
ACAD_GROUP
350
1D4
  3
ACAD_MLINESTYLE
350
1E1
  3
ACDBVARIABLEDICTIONARY
350
1F1
  0
DICTIONARY
  5
1D4
102
{ACAD_REACTORS
330
1D3
102
}
100
AcDbDictionary
  0
DICTIONARY
  5
1E1
102
{ACAD_REACTORS
330
1D3
102
}
100
AcDbDictionary
  3
STANDARD
350
1E2
  0
DICTIONARY
  5
1F1
102
{ACAD_REACTORS
330
1D3
102
}
100
AcDbDictionary
  3
DIMADEC
350
1F2
  0
MLINESTYLE
  5
1E2
102
{ACAD_REACTORS
330
1E1
102
}
100
AcDbMlineStyle
  2
STANDARD
 70
     0
  3

 62
   256
 51
90.0
 52
90.0
 71
     2
 49
0.5
 62
   256
  6
BYLAYER
 49
-0.5
 62
   256
  6
BYLAYER
  0
DICTIONARYVAR
  5
1F2
102
{ACAD_REACTORS
330
1F1
102
}
100
DictionaryVariables
280
     0
  1
0
  0
ENDSEC
  0
EOF
