  0
SECTION
  2
HEADER
  9
$ACADVER
  1
AC1009
  9
$INSBASE
 10
0.0
 20
0.0
 30
0.0
  9
$EXTMIN
 10
45.164109202059983
 20
64.488373506451467
 30
-0.0015258207003583
  9
$EXTMAX
 10
314.92996296138722
 20
230.00427304301911
 30
0.0000000349246037
  9
$LIMMIN
 10
0.0
 20
0.0
  9
$LIMMAX
 10
375.0
 20
270.0
  9
$ORTHOMODE
 70
     1
  9
$REGENMODE
 70
     1
  9
$FILLMODE
 70
     1
  9
$QTEXTMODE
 70
     0
  9
$MIRRTEXT
 70
     0
  9
$DRAGMODE
 70
     2
  9
$LTSCALE
 40
10.0
  9
$OSMODE
 70
   231
  9
$ATTMODE
 70
     1
  9
$TEXTSIZE
 40
5.0
  9
$TRACEWID
 40
0.05
  9
$TEXTSTYLE
  7
STANDARD
  9
$CLAYER
  8
0
  9
$CELTYPE
  6
BYLAYER
  9
$CECOLOR
 62
   256
  9
$DIMSCALE
 40
1.0
  9
$DIMASZ
 40
3.0
  9
$DIMEXO
 40
2.0
  9
$DIMDLI
 40
0.38
  9
$DIMRND
 40
0.0
  9
$DIMDLE
 40
0.0
  9
$DIMEXE
 40
2.0
  9
$DIMTP
 40
0.0
  9
$DIMTM
 40
0.0
  9
$DIMTXT
 40
3.2000000000000002
  9
$DIMCEN
 40
0.0
  9
$DIMTSZ
 40
0.0
  9
$DIMTOL
 70
     0
  9
$DIMLIM
 70
     0
  9
$DIMTIH
 70
     0
  9
$DIMTOH
 70
     0
  9
$DIMSE1
 70
     0
  9
$DIMSE2
 70
     0
  9
$DIMTAD
 70
     1
  9
$DIMZIN
 70
     0
  9
$DIMBLK
  1

  9
$DIMASO
 70
     1
  9
$DIMSHO
 70
     0
  9
$DIMPOST
  1

  9
$DIMAPOST
  1

  9
$DIMALT
 70
     0
  9
$DIMALTD
 70
     2
  9
$DIMALTF
 40
25.399999999999999
  9
$DIMLFAC
 40
1.0
  9
$DIMTOFL
 70
     1
  9
$DIMTVP
 40
1.6000000000000001
  9
$DIMTIX
 70
     1
  9
$DIMSOXD
 70
     0
  9
$DIMSAH
 70
     0
  9
$DIMBLK1
  1

  9
$DIMBLK2
  1

  9
$DIMSTYLE
  2
STANDARD
  9
$DIMCLRD
 70
     0
  9
$DIMCLRE
 70
     0
  9
$DIMCLRT
 70
     0
  9
$DIMTFAC
 40
1.0
  9
$DIMGAP
 40
0.09
  9
$LUNITS
 70
     2
  9
$LUPREC
 70
     4
  9
$SKETCHINC
 40
0.1
  9
$FILLETRAD
 40
0.0
  9
$AUNITS
 70
     1
  9
$AUPREC
 70
     4
  9
$MENU
  1
E:\r13\win\SUPPORT\ACAD
  9
$ELEVATION
 40
0.0
  9
$PELEVATION
 40
0.0
  9
$THICKNESS
 40
0.0
  9
$LIMCHECK
 70
     0
  9
$BLIPMODE
 70
     1
  9
$CHAMFERA
 40
0.0
  9
$CHAMFERB
 40
0.0
  9
$SKPOLY
 70
     0
  9
$TDCREATE
 40
2449839.7903009248
  9
$TDUPDATE
 40
2453236.7651642011
  9
$TDINDWG
 40
0.0001370718
  9
$TDUSRTIMER
 40
0.0001370718
  9
$USRTIMER
 70
     1
  9
$ANGBASE
 50
0.0
  9
$ANGDIR
 70
     0
  9
$PDMODE
 70
     0
  9
$PDSIZE
 40
0.0
  9
$PLINEWID
 40
0.0
  9
$COORDS
 70
     0
  9
$SPLFRAME
 70
     0
  9
$SPLINETYPE
 70
     6
  9
$SPLINESEGS
 70
     8
  9
$ATTDIA
 70
     0
  9
$ATTREQ
 70
     1
  9
$HANDLING
 70
-16383
  9
$HANDSEED
  5
19B
  9
$SURFTAB1
 70
     6
  9
$SURFTAB2
 70
     6
  9
$SURFTYPE
 70
     6
  9
$SURFU
 70
     6
  9
$SURFV
 70
     6
  9
$UCSNAME
  2

  9
$UCSORG
 10
0.0
 20
0.0
 30
0.0
  9
$UCSXDIR
 10
1.0
 20
0.0
 30
0.0
  9
$UCSYDIR
 10
0.0
 20
1.0
 30
0.0
  9
$PUCSNAME
  2

  9
$PUCSORG
 10
0.0
 20
0.0
 30
0.0
  9
$PUCSXDIR
 10
1.0
 20
0.0
 30
0.0
  9
$PUCSYDIR
 10
0.0
 20
1.0
 30
0.0
  9
$USERI1
 70
     0
  9
$USERI2
 70
     1
  9
$USERI3
 70
     1
  9
$USERI4
 70
     0
  9
$USERI5
 70
     0
  9
$USERR1
 40
0.0
  9
$USERR2
 40
0.0
  9
$USERR3
 40
0.0
  9
$USERR4
 40
0.0
  9
$USERR5
 40
0.0
  9
$WORLDVIEW
 70
     1
  9
$SHADEDGE
 70
     3
  9
$SHADEDIF
 70
    70
  9
$TILEMODE
 70
     1
  9
$MAXACTVP
 70
    16
  9
$PLIMCHECK
 70
     0
  9
$PEXTMIN
 10
1.0000000000000000E+020
 20
1.0000000000000000E+020
 30
1.0000000000000000E+020
  9
$PEXTMAX
 10
-1.0000000000000000E+020
 20
-1.0000000000000000E+020
 30
-1.0000000000000000E+020
  9
$PLIMMIN
 10
0.0
 20
0.0
  9
$PLIMMAX
 10
12.0
 20
9.0
  9
$UNITMODE
 70
     0
  9
$VISRETAIN
 70
     0
  9
$PLINEGEN
 70
     0
  9
$PSLTSCALE
 70
     0
  0
ENDSEC
  0
SECTION
  2
TABLES
  0
TABLE
  2
VPORT
 70
     3
  0
VPORT
  2
*ACTIVE
 70
     0
 10
0.0
 20
0.0
 11
1.0
 21
1.0
 12
180.0470360817236
 22
147.24632327473529
 13
0.0
 23
0.0
 14
10.0
 24
10.0
 15
10.0
 25
10.0
 16
0.0
 26
0.0
 36
1.0
 17
0.0
 27
0.0
 37
0.0
 40
321.30505207966632
 41
0.9407114624505927
 42
50.0
 43
0.0
 44
0.0
 50
0.0
 51
0.0
 71
     0
 72
   500
 73
     1
 74
     0
 75
     0
 76
     0
 77
     0
 78
     2
  0
ENDTAB
  0
TABLE
  2
LTYPE
 70
     3
  0
LTYPE
  2
CONTINUOUS
 70
     0
  3
Solid Line
 72
    65
 73
     0
 40
0.0
  0
LTYPE
  2
CENTER
 70
     0
  3
____ _ ____ _ ____ _ ____ _ ____ _ ____ _ ____
 72
    65
 73
     4
 40
2.0
 49
1.25
 49
-0.25
 49
0.25
 49
-0.25
  0
LTYPE
  2
HIDDEN
 70
     0
  3
_ _ _ _ _ _ _ _ _ _ _ _ _ _ _ _ _ _ _ _ _ _ _
 72
    65
 73
     2
 40
0.375
 49
0.25
 49
-0.125
  0
ENDTAB
  0
TABLE
  2
LAYER
 70
     3
  0
LAYER
  2
0
 70
     0
 62
     7
  6
CONTINUOUS
  0
LAYER
  2
1
 70
     0
 62
     1
  6
CENTER
  0
LAYER
  2
2
 70
     0
 62
     2
  6
HIDDEN
  0
ENDTAB
  0
TABLE
  2
STYLE
 70
     1
  0
STYLE
  2
STANDARD
 70
     0
 40
0.0
 41
1.0
 50
0.0
 71
     0
 42
5.0
  3
TXT
  4
BIGFONT
  0
ENDTAB
  0
TABLE
  2
VIEW
 70
     1
  0
VIEW
  2
ALL
 70
     0
 40
270.0
 10
220.99159663865541
 20
135.0
 41
0.0
 11
0.0
 21
0.0
 31
1.0
 12
0.0
 22
0.0
 32
0.0
 42
0.0
 43
0.0
 44
0.0
 50
0.0
 71
     0
  0
ENDTAB
  0
TABLE
  2
UCS
 70
     0
  0
ENDTAB
  0
TABLE
  2
APPID
 70
     1
  0
APPID
  2
ACAD
 70
     0
  0
ENDTAB
  0
TABLE
  2
DIMSTYLE
 70
     1
  0
DIMSTYLE
  2
STANDARD
 70
     0
  3

  4

  5

  6

  7

 40
1.0
 41
0.18
 42
0.0625
 43
0.38
 44
0.18
 45
0.0
 46
0.0
 47
0.0
 48
0.0
140
0.18
141
0.09
142
0.0
143
25.399999999999999
144
1.0
145
0.0
146
1.0
147
0.09
 71
     0
 72
     0
 73
     1
 74
     1
 75
     0
 76
     0
 77
     0
 78
     0
170
     0
171
     2
172
     0
173
     0
174
     0
175
     0
176
     0
177
     0
178
     0
  0
ENDTAB
  0
ENDSEC
  0
SECTION
  2
BLOCKS
  0
BLOCK
  8
0
  2
$MODEL_SPACE
 70
     0
 10
0.0
 20
0.0
 30
0.0
  3
$MODEL_SPACE
  1

  0
ENDBLK
  5
143
  8
0
  0
BLOCK
 67
     1
  8
0
  2
$PAPER_SPACE
 70
     0
 10
0.0
 20
0.0
 30
0.0
  3
$PAPER_SPACE
  1

  0
ENDBLK
  5
141
 67
     1
  8
0
  0
ENDSEC
  0
SECTION
  2
ENTITIES
  0
LINE
  5
35
  8
0
 10
228.47024547415859
 20
97.0
 30
0.0
 11
211.5297545258409
 21
97.0
 31
0.0
  0
LINE
  5
36
  8
0
 10
228.76951468923659
 20
96.720926942123242
 30
0.0
 11
229.59122020975079
 21
84.969990531952433
 31
0.0
  0
LINE
  5
37
  8
0
 10
128.24999999999989
 20
96.0
 30
0.0
 11
126.2499999999999
 21
94.000000000000497
 31
0.0
  0
LINE
  5
38
  8
0
 10
126.11731893187969
 20
70.953464591273217
 30
0.0
 11
228.2759457062821
 21
83.376324899614985
 31
0.0
  0
LINE
  5
39
  8
0
 10
126.25
 20
94.000000000000497
 30
0.0
 11
124.9991768331947
 21
72.003039821778515
 31
0.0
  0
ARC
  5
3A
  8
0
 10
125.9975640170784
 20
71.946268076549842
 30
0.0
 40
0.9999999999996891
 50
176.7454687611301
 51
276.87795823263218
  0
LINE
  5
3B
  8
0
 10
126.5
 20
69.799999999999997
 30
0.0
 11
126.5
 21
70.999999999999929
 31
0.0
  0
LINE
  5
3C
  8
0
 10
153.48601463761111
 20
69.799999999999997
 30
0.0
 11
153.802086128317
 21
74.320032901845693
 31
0.0
  0
LINE
  5
3D
  8
0
 10
151.75
 20
96.0
 30
0.0
 11
153.75
 21
94.000000000000497
 31
0.0
  0
LINE
  5
3E
  8
0
 10
128.24999999999989
 20
96.0
 30
0.0
 11
151.75
 21
96.0
 31
0.0
  0
LINE
  5
3F
  8
0
 10
153.75
 20
94.000000000000497
 30
0.0
 11
126.25
 21
94.000000000000526
 31
0.0
  0
LINE
  5
40
  8
0
 10
141.01346109980719
 20
224.96572405863401
 30
0.0
 11
216.39322916866971
 21
219.86109548530311
 31
0.0
  0
CIRCLE
  5
41
  8
0
 10
140.0
 20
210.0
 30
0.0
 40
13.75
  0
LINE
  5
42
  8
0
 10
140.859375
 20
223.7231182538581
 30
0.0
 11
214.7541288288715
 21
219.09564927071841
 31
0.0
  0
LINE
  5
43
  8
0
 10
140.859375
 20
196.27688174614181
 30
0.0
 11
214.75412882887079
 21
200.9043507292815
 31
0.0
  0
LINE
  5
44
  8
0
 10
141.01346109980719
 20
195.03427594136591
 30
0.0
 11
216.3932291686688
 21
200.13890451469669
 31
0.0
  0
ARC
  5
45
  8
0
 10
140.0
 20
210.0
 30
0.0
 40
15.0
 50
86.125912457867045
 51
273.874087542133
  0
CIRCLE
  5
46
  8
0
 10
140.0
 20
210.0
 30
0.0
 40
11.75
  0
LINE
  5
47
  8
0
 10
147.86184167827861
 20
221.28068904924129
 30
0.0
 11
212.39474509865281
 21
217.23948187963231
 31
0.0
  0
LINE
  5
48
  8
0
 10
147.86184167827861
 20
198.7193109507586
 30
0.0
 11
212.39474509865229
 21
202.76051812036761
 31
0.0
  0
LINE
  5
49
  8
0
 10
153.75
 20
94.000000000000597
 30
0.0
 11
153.78564495064009
 21
93.490253457158715
 31
0.0
  0
ARC
  5
4A
  8
0
 10
155.28199102602991
 20
93.59488816777494
 30
0.0
 40
1.5
 50
184.00000000000111
 51
274.00000000000091
  0
LINE
  5
4B
  8
1
 10
140.0
 20
101.0
 30
0.0
 11
140.0
 21
64.5
 31
0.0
  0
LINE
  5
4C
  8
0
 10
147.86184167827861
 20
91.572357932620193
 30
0.0
 11
214.86499581740239
 21
96.25767489172874
 31
0.0
  0
LINE
  5
4D
  8
0
 10
211.23048531076299
 20
96.720926942123612
 30
0.0
 11
211.18007318805519
 21
96.0
 31
0.0
  0
ARC
  5
4E
  8
0
 10
211.5297545258409
 20
96.700000000000017
 30
0.0
 40
0.3
 50
90.0
 51
175.999999999929
  0
ARC
  5
4F
  8
0
 10
228.47024547415859
 20
96.700000000000017
 30
0.0
 40
0.3
 50
4.0000000000002087
 51
90.0
  0
LINE
  5
50
  8
1
 10
140.0
 20
230.0
 30
0.0
 11
140.0
 21
190.0
 31
0.0
  0
LINE
  5
51
  8
1
 10
235.49999999999989
 20
210.0000037180364
 30
0.0
 11
120.0
 21
210.00000015427531
 31
0.0
  0
LINE
  5
52
  8
0
 10
140.859375
 20
89.077813965905307
 30
0.0
 11
220.54687500000139
 21
94.650106792653261
 31
0.0
  0
ARC
  5
53
  8
0
 10
220.08805943288971
 20
103.8734040878105
 30
0.0
 40
9.2347021998264989
 50
235.55666481890091
 51
236.93944414342931
  0
ARC
  5
54
  8
0
 10
140.9672179844865
 20
99.850715964972949
 30
0.0
 40
10.773441770892831
 50
269.42645524175521
 51
309.78919605875137
  0
LINE
  5
55
  8
1
 10
220.0
 20
77.333106879824953
 30
0.0
 11
220.0
 21
152.0
 31
0.0
  0
LINE
  5
56
  8
1
 10
220.0
 20
194.5
 30
0.0
 11
220.0
 21
225.49999999999989
 31
0.0
  0
LINE
  5
57
  8
0
 10
230.4999999999994
 20
144.4499736564737
 30
0.0
 11
230.5
 21
117.0
 31
0.0
  0
LINE
  5
58
  8
0
 10
209.5
 20
117.0
 30
0.0
 11
209.50000000000051
 21
144.4499736564737
 31
0.0
  0
LINE
  5
59
  8
0
 10
210.49999999999989
 20
144.4499736564737
 30
0.0
 11
229.49999999999989
 21
144.4499736564737
 31
0.0
  0
ARC
  5
5A
  8
0
 10
220.0
 20
97.0
 30
0.0
 40
50.0
 50
79.551762668042969
 51
100.448237331957
  0
ARC
  5
5B
  8
0
 10
228.75
 20
144.4499736564737
 30
0.0
 40
1.7499999999994471
 50
360.0
 51
79.551762668042855
  0
ARC
  5
5C
  8
0
 10
211.24999999999989
 20
144.4499736564737
 30
0.0
 40
1.7499999999994471
 50
100.4482373319571
 51
180.0
  0
LINE
  5
5D
  8
0
 10
209.5
 20
116.9999999999998
 30
0.0
 11
230.5
 21
116.9999999999999
 31
0.0
  0
LINE
  5
5E
  8
0
 10
212.4036173901525
 20
97.300000000000253
 30
0.0
 11
227.5963826098473
 21
97.300000000000253
 31
0.0
  0
LINE
  5
5F
  8
0
 10
228.59126866392759
 20
98.19899633968754
 30
0.0
 11
230.5
 21
117.0
 31
0.0
  0
ARC
  5
60
  8
0
 10
227.5963826098473
 20
98.300000000000239
 30
0.0
 40
1.0
 50
270.00000000000011
 51
354.20303138092987
  0
ARC
  5
61
  8
0
 10
212.4036173901525
 20
98.300000000000239
 30
0.0
 40
1.0
 50
185.79696861906999
 51
269.99999999999989
  0
LINE
  5
62
  8
0
 10
211.40873133607221
 20
98.19899633968754
 30
0.0
 11
209.5
 21
117.0
 31
0.0
  0
LINE
  5
63
  8
0
 10
225.0
 20
97.0
 30
0.0
 11
225.0
 21
97.300000000000253
 31
0.0
  0
LINE
  5
64
  8
0
 10
215.0
 20
97.0
 30
0.0
 11
225.0
 21
97.0
 31
0.0
  0
LINE
  5
65
  8
0
 10
215.0
 20
97.300000000000253
 30
0.0
 11
215.0
 21
97.0
 31
0.0
  0
CIRCLE
  5
66
  8
0
 10
220.0
 20
210.0
 30
0.0
 40
10.5
  0
ARC
  5
67
  8
0
 10
228.09487413436099
 20
84.865355821336237
 30
0.0
 40
1.5
 50
276.93333333333322
 51
4.0000000000003491
  0
CIRCLE
  5
68
  8
0
 10
140.0
 20
210.00000077137679
 30
0.0
 40
8.75
  0
ARC
  5
69
  8
0
 10
220.08805943288979
 20
103.8734040878105
 30
0.0
 40
9.2347021998264989
 50
235.55666481890091
 51
236.9394441434288
  0
LINE
  5
6A
  8
0
 10
139.99999989091069
 20
217.07106869233149
 30
0.0
 11
132.92893229722361
 21
210.0000006622877
 31
0.0
  0
LINE
  5
6B
  8
0
 10
147.0710677027763
 20
210.0000008804659
 30
0.0
 11
140.00000010908909
 21
202.92893285042209
 31
0.0
  0
LINE
  5
6C
  8
0
 10
132.92893229722361
 20
210.0000006622877
 30
0.0
 11
140.00000010908909
 21
202.92893285042209
 31
0.0
  0
LINE
  5
6D
  8
0
 10
139.99999989091069
 20
217.07106869233141
 30
0.0
 11
147.0710677027763
 21
210.0000008804659
 31
0.0
  0
LINE
  5
6E
  8
2
 10
150.0
 20
91.800000344033947
 30
0.0
 11
130.0
 21
91.800000344033904
 31
0.0
  0
LINE
  5
6F
  8
2
 10
130.0
 20
91.800000344033904
 30
0.0
 11
130.0
 21
69.800000688067954
 31
0.0
  0
LINE
  5
70
  8
2
 10
150.0
 20
91.800000344033904
 30
0.0
 11
150.0
 21
69.800000688067954
 31
0.0
  0
LINE
  5
71
  8
2
 10
132.92893229722361
 20
91.800000344033904
 30
0.0
 11
132.92893229722361
 21
69.500000344033936
 31
0.0
  0
LINE
  5
72
  8
2
 10
140.00000010908909
 20
91.800000344033904
 30
0.0
 11
140.00000010908909
 21
69.500000344033936
 31
0.0
  0
LINE
  5
73
  8
2
 10
147.07106770277619
 20
91.800000344033904
 30
0.0
 11
147.07106770277619
 21
69.500000688067956
 31
0.0
  0
ARC
  5
74
  8
2
 10
143.53553390593271
 20
61.223527618809932
 30
0.0
 40
9.0
 50
66.868853082100003
 51
113.1311469179
  0
ARC
  5
75
  8
2
 10
136.46446620315629
 20
61.223527665410529
 30
0.0
 40
9.0
 50
66.868852326905099
 51
113.1311476730948
  0
LINE
  5
76
  8
2
 10
132.92893229722361
 20
69.500000344033936
 30
0.0
 11
140.00000010908909
 21
91.800000344033904
 31
0.0
  0
LINE
  5
77
  8
2
 10
140.00000010908909
 20
91.800000344033904
 30
0.0
 11
147.07106770277619
 21
69.500000344033936
 31
0.0
  0
LINE
  5
78
  8
2
 10
132.92893229722361
 20
91.800000344033904
 30
0.0
 11
140.00000010908909
 21
69.500000344033936
 31
0.0
  0
LINE
  5
79
  8
2
 10
140.00000010908909
 20
69.500000344033936
 30
0.0
 11
147.07106770277619
 21
91.800000344033933
 31
0.0
  0
LINE
  5
7A
  8
2
 10
148.75
 20
91.800000344033904
 30
0.0
 11
149.3527353032876
 21
96.000000688067942
 31
0.0
  0
LINE
  5
7B
  8
2
 10
131.25
 20
91.800000344033904
 30
0.0
 11
130.64726469671231
 21
96.000000688067942
 31
0.0
  0
CIRCLE
  5
7C
  8
0
 10
140.0
 20
210.00000077137679
 30
0.0
 40
9.2809802856443184
  0
LINE
  5
7D
  8
0
 10
130.0
 20
69.799999999999997
 30
0.0
 11
130.0
 21
69.5
 31
0.0
  0
LINE
  5
7E
  8
0
 10
150.0
 20
69.799999999999997
 30
0.0
 11
150.0
 21
69.5
 31
0.0
  0
LINE
  5
7F
  8
0
 10
126.5
 20
69.800000000000011
 30
0.0
 11
153.48601463761119
 21
69.800000000000011
 31
0.0
  0
LINE
  5
80
  8
0
 10
130.0
 20
69.5
 30
0.0
 11
150.0
 21
69.5
 31
0.0
  0
LINE
  5
81
  8
0
 10
71.750000000000057
 20
96.0
 30
0.0
 11
48.249999999999972
 21
96.0
 31
0.0
  0
LINE
  5
82
  8
0
 10
73.750000000000057
 20
94.000000000000512
 30
0.0
 11
46.249999999999972
 21
94.000000000000512
 31
0.0
  0
LINE
  5
83
  8
0
 10
46.249999999999972
 20
94.000000000000512
 30
0.0
 11
45.168179779734707
 21
73.485479613675892
 31
0.0
  0
LINE
  5
84
  8
0
 10
73.750000000000057
 20
94.000000000000512
 30
0.0
 11
74.862255357794197
 21
73.486690520793886
 31
0.0
  0
LINE
  5
85
  8
0
 10
48.249999999999972
 20
96.0
 30
0.0
 11
46.249999999999972
 21
94.000000000000512
 31
0.0
  0
LINE
  5
86
  8
0
 10
71.750000000000057
 20
96.0
 30
0.0
 11
73.750000000000057
 21
94.000000000000512
 31
0.0
  0
LINE
  5
87
  8
1
 10
60.0
 20
152.0
 30
0.0
 11
60.0
 21
64.5
 31
0.0
  0
ARC
  5
88
  8
0
 10
60.015877696783889
 20
137.20028153578579
 30
0.0
 40
66.254015361771422
 50
257.74672907828642
 51
282.2521557946344
  0
ARC
  5
89
  8
0
 10
46.166792216421932
 20
73.432818420244502
 30
0.0
 40
1.0
 50
176.98133954889741
 51
257.7467290782883
  0
ARC
  5
8A
  8
0
 10
73.863722091401371
 20
73.432548892569201
 30
0.0
 40
1.0
 50
282.25215579463571
 51
3.1036043285901211
  0
LINE
  5
8B
  8
0
 10
73.5
 20
69.799999999999997
 30
0.0
 11
46.5
 21
69.799999999999997
 31
0.0
  0
LINE
  5
8C
  8
0
 10
46.5
 20
72.339541471834849
 30
0.0
 11
46.500000000000028
 21
69.799999999999997
 31
0.0
  0
LINE
  5
8D
  8
0
 10
73.5
 20
72.332932296975827
 30
0.0
 11
73.5
 21
69.799999999999997
 31
0.0
  0
LINE
  5
8E
  8
1
 10
300.0
 20
64.5
 30
0.0
 11
300.0
 21
152.0
 31
0.0
  0
LINE
  5
8F
  8
0
 10
308.47024547415862
 20
97.0
 30
0.0
 11
291.52975452584081
 21
97.0
 31
0.0
  0
LINE
  5
90
  8
0
 10
310.49999999999932
 20
144.4499736564737
 30
0.0
 11
310.49999999999989
 21
117.0
 31
0.0
  0
LINE
  5
91
  8
0
 10
289.49999999999989
 20
117.0
 30
0.0
 11
289.50000000000051
 21
144.4499736564737
 31
0.0
  0
LINE
  5
92
  8
0
 10
290.5
 20
144.4499736564737
 30
0.0
 11
309.5
 21
144.4499736564737
 31
0.0
  0
ARC
  5
93
  8
0
 10
299.99999999999989
 20
97.0
 30
0.0
 40
50.0
 50
79.551762668042969
 51
100.448237331957
  0
ARC
  5
94
  8
0
 10
308.74999999999989
 20
144.4499736564737
 30
0.0
 40
1.7499999999994471
 50
360.0
 51
79.551762668042855
  0
ARC
  5
95
  8
0
 10
291.25
 20
144.4499736564737
 30
0.0
 40
1.7499999999994471
 50
100.4482373319571
 51
180.0
  0
LINE
  5
96
  8
0
 10
289.49999999999989
 20
116.9999999999998
 30
0.0
 11
310.49999999999989
 21
116.9999999999999
 31
0.0
  0
LINE
  5
97
  8
0
 10
292.40361739015242
 20
97.300000000000253
 30
0.0
 11
307.59638260984718
 21
97.300000000000253
 31
0.0
  0
LINE
  5
98
  8
0
 10
308.59126866392751
 20
98.19899633968754
 30
0.0
 11
310.49999999999989
 21
117.0
 31
0.0
  0
ARC
  5
99
  8
0
 10
307.59638260984718
 20
98.300000000000239
 30
0.0
 40
1.0
 50
270.00000000000011
 51
354.20303138092987
  0
ARC
  5
9A
  8
0
 10
292.40361739015242
 20
98.300000000000239
 30
0.0
 40
1.0
 50
185.79696861906999
 51
269.99999999999989
  0
LINE
  5
9B
  8
0
 10
291.40873133607221
 20
98.19899633968754
 30
0.0
 11
289.49999999999989
 21
117.0
 31
0.0
  0
LINE
  5
9C
  8
0
 10
304.99999999999977
 20
97.0
 30
0.0
 11
304.99999999999977
 21
97.300000000000253
 31
0.0
  0
LINE
  5
9D
  8
0
 10
294.99999999999977
 20
97.0
 30
0.0
 11
304.99999999999977
 21
97.0
 31
0.0
  0
LINE
  5
9E
  8
0
 10
294.99999999999977
 20
97.300000000000253
 30
0.0
 11
294.99999999999977
 21
97.0
 31
0.0
  0
LINE
  5
9F
  8
0
 10
286.5
 20
69.799999999999997
 30
0.0
 11
286.5
 21
72.491938781556541
 31
0.0
  0
ARC
  5
A0
  8
0
 10
300.0
 20
130.95346459127219
 30
0.0
 40
60.000000000000497
 50
256.3659241682397
 51
256.99712183708613
  0
ARC
  5
A1
  8
0
 10
286.09251226186723
 20
73.616026692341364
 30
0.0
 40
1.0000000000000371
 50
176.74546876113061
 51
256.36592416823959
  0
LINE
  5
A2
  8
0
 10
288.24999999999989
 20
96.0
 30
0.0
 11
286.25
 21
94.000000000000497
 31
0.0
  0
LINE
  5
A3
  8
0
 10
313.5
 20
69.799999999999997
 30
0.0
 11
286.5
 21
69.799999999999997
 31
0.0
  0
LINE
  5
A4
  8
0
 10
286.25
 20
94.000000000000497
 30
0.0
 11
285.09412507798322
 21
73.672798437570052
 31
0.0
  0
LINE
  5
A5
  8
0
 10
288.24999999999989
 20
96.0
 30
0.0
 11
291.18007318805661
 21
96.0
 31
0.0
  0
LINE
  5
A6
  8
0
 10
291.23048531076341
 20
96.720926942123256
 30
0.0
 11
290.33840649025711
 21
83.963605455383188
 31
0.0
  0
ARC
  5
A7
  8
0
 10
291.83475256564691
 20
83.858970744767021
 30
0.0
 40
1.5
 50
175.99999999999989
 51
263.06666666666672
  0
ARC
  5
A8
  8
0
 10
291.52975452584133
 20
96.700000000000017
 30
0.0
 40
0.3
 50
90.0
 51
175.9999999999998
  0
ARC
  5
A9
  8
0
 10
291.52975452584087
 20
96.700000000000017
 30
0.0
 40
0.3
 50
90.0
 51
175.999999999929
  0
ARC
  5
AA
  8
0
 10
300.0
 20
54.407648750838121
 30
0.0
 40
28.769159245090119
 50
76.398223746573422
 51
103.60177625342649
  0
LINE
  5
AB
  8
0
 10
290.654660029083
 20
94.000000000000526
 30
0.0
 11
286.25
 21
94.000000000000526
 31
0.0
  0
LINE
  5
AC
  8
0
 10
286.27688174614178
 20
89.077813965905307
 30
0.0
 11
291.07312002133119
 21
94.470498457562385
 31
0.0
  0
LINE
  5
AD
  8
0
 10
286.49999999999937
 20
72.491938781556684
 30
0.0
 11
288.0318235819322
 21
72.491938781556684
 31
0.0
  0
LINE
  5
AE
  8
0
 10
288.0318235819322
 20
72.491938781556684
 30
0.0
 11
293.23429222752719
 21
82.369939823045769
 31
0.0
  0
LINE
  5
AF
  8
0
 10
285.35775883691281
 20
73.852514011863718
 30
0.0
 11
290.26860536250581
 21
83.176807995928243
 31
0.0
  0
LINE
  5
B0
  8
0
 10
291.65368099372569
 20
82.369939823045769
 30
0.0
 11
293.2342922275277
 21
82.369939823045769
 31
0.0
  0
LINE
  5
B1
  8
0
 10
308.34631900627409
 20
82.369939823045769
 30
0.0
 11
306.76570777247213
 21
82.369939823045769
 31
0.0
  0
LINE
  5
B2
  8
0
 10
314.64224116308691
 20
73.852514011863718
 30
0.0
 11
309.73139463749402
 21
83.176807995928243
 31
0.0
  0
LINE
  5
B3
  8
0
 10
311.96817641806763
 20
72.491938781556684
 30
0.0
 11
306.76570777247252
 21
82.369939823045769
 31
0.0
  0
LINE
  5
B4
  8
0
 10
313.5000000000004
 20
72.491938781556684
 30
0.0
 11
311.96817641806763
 21
72.491938781556684
 31
0.0
  0
LINE
  5
B5
  8
0
 10
313.72311825385799
 20
89.077813965905307
 30
0.0
 11
308.92687997866869
 21
94.470498457562385
 31
0.0
  0
LINE
  5
B6
  8
0
 10
309.34533997091683
 20
94.000000000000526
 30
0.0
 11
313.74999999999972
 21
94.000000000000526
 31
0.0
  0
ARC
  5
B7
  8
0
 10
308.47024547415879
 20
96.700000000000017
 30
0.0
 40
0.3
 50
4.000000000070945
 51
90.0
  0
ARC
  5
B8
  8
0
 10
308.47024547415839
 20
96.700000000000017
 30
0.0
 40
0.3
 50
4.0000000000002087
 51
90.0
  0
ARC
  5
B9
  8
0
 10
308.16524743435292
 20
83.858970744767021
 30
0.0
 40
1.5
 50
276.93333333333322
 51
4.000000000000056
  0
LINE
  5
BA
  8
0
 10
308.76951468923642
 20
96.720926942123256
 30
0.0
 11
309.66159350974272
 21
83.963605455383188
 31
0.0
  0
LINE
  5
BB
  8
0
 10
311.74999999999977
 20
96.0
 30
0.0
 11
308.81992681194328
 21
96.0
 31
0.0
  0
LINE
  5
BC
  8
0
 10
313.74999999999972
 20
94.000000000000497
 30
0.0
 11
314.90587492201661
 21
73.672798437570052
 31
0.0
  0
LINE
  5
BD
  8
0
 10
311.74999999999977
 20
96.0
 30
0.0
 11
313.74999999999977
 21
94.000000000000497
 31
0.0
  0
ARC
  5
BE
  8
0
 10
313.9074877381326
 20
73.616026692341364
 30
0.0
 40
1.0000000000000371
 50
283.6340758317603
 51
3.2545312388693799
  0
ARC
  5
BF
  8
0
 10
299.99999999999989
 20
130.95346459127219
 30
0.0
 40
60.000000000000497
 50
283.00287816291382
 51
283.6340758317603
  0
LINE
  5
C0
  8
0
 10
313.49999999999977
 20
69.799999999999997
 30
0.0
 11
313.49999999999977
 21
72.491938781556541
 31
0.0
  0
ARC
  5
C1
  8
0
 10
300.0
 20
54.407648750838121
 30
0.0
 40
30.370455466785511
 50
73.697444796111981
 51
106.30255520388801
  0
LINE
  5
C2
  8
0
 10
68.470245474158673
 20
97.0
 30
0.0
 11
51.529754525840929
 21
97.0
 31
0.0
  0
LINE
  5
C3
  8
0
 10
55.0
 20
97.300000000000253
 30
0.0
 11
55.0
 21
97.0
 31
0.0
  0
LINE
  5
C4
  8
0
 10
65.0
 20
97.0
 30
0.0
 11
65.0
 21
97.300000000000253
 31
0.0
  0
LINE
  5
C5
  8
0
 10
51.408731336072258
 20
98.19899633968754
 30
0.0
 11
49.5
 21
117.0
 31
0.0
  0
ARC
  5
C6
  8
0
 10
52.40361739015259
 20
98.300000000000239
 30
0.0
 40
1.0
 50
185.79696861906999
 51
269.99999999999989
  0
ARC
  5
C7
  8
0
 10
67.596382609847296
 20
98.300000000000239
 30
0.0
 40
1.0
 50
270.00000000000011
 51
354.20303138092987
  0
LINE
  5
C8
  8
0
 10
68.591268663927622
 20
98.19899633968754
 30
0.0
 11
70.5
 21
117.0
 31
0.0
  0
LINE
  5
C9
  8
0
 10
52.40361739015259
 20
97.300000000000253
 30
0.0
 11
67.596382609847296
 21
97.300000000000253
 31
0.0
  0
LINE
  5
CA
  8
0
 10
49.5
 20
116.9999999999998
 30
0.0
 11
70.5
 21
116.9999999999999
 31
0.0
  0
ARC
  5
CB
  8
0
 10
51.25
 20
144.4499736564737
 30
0.0
 40
1.7499999999994471
 50
100.4482373319571
 51
180.0
  0
ARC
  5
CC
  8
0
 10
68.75
 20
144.4499736564737
 30
0.0
 40
1.7499999999994471
 50
360.0
 51
79.551762668042855
  0
ARC
  5
CD
  8
0
 10
60.0
 20
97.0
 30
0.0
 40
50.0
 50
79.551762668042969
 51
100.448237331957
  0
LINE
  5
CE
  8
0
 10
50.5
 20
144.4499736564737
 30
0.0
 11
69.5
 21
144.4499736564737
 31
0.0
  0
LINE
  5
CF
  8
0
 10
49.5
 20
117.0
 30
0.0
 11
49.500000000000568
 21
144.4499736564737
 31
0.0
  0
LINE
  5
D0
  8
0
 10
70.499999999999432
 20
144.4499736564737
 30
0.0
 11
70.5
 21
117.0
 31
0.0
  0
ARC
  5
D1
  8
0
 10
68.470245474158673
 20
96.700000000000017
 30
0.0
 40
0.3
 50
0.0001821383778661
 51
90.0
  0
ARC
  5
D2
  8
0
 10
51.529754525840929
 20
96.700000000000017
 30
0.0
 40
0.3
 50
90.0
 51
180.0
  0
LINE
  5
D3
  8
0
 10
51.229754525840917
 20
96.700000000000017
 30
0.0
 11
51.229754525840917
 21
96.0
 31
0.0
  0
LINE
  5
D4
  8
0
 10
68.770245474159083
 20
96.700000000000017
 30
0.0
 11
68.770245474159083
 21
96.0
 31
0.0
  0
ARC
  5
D5
  8
0
 10
220.08805943288979
 20
103.8734040878105
 30
0.0
 40
9.2347021998264989
 50
235.55666481890091
 51
272.84784743124811
  0
LINE
  5
D6
  8
0
 10
50.0
 20
69.5
 30
0.0
 11
70.0
 21
69.5
 31
0.0
  0
LINE
  5
D7
  8
0
 10
50.0
 20
69.799999999999997
 30
0.0
 11
50.0
 21
69.5
 31
0.0
  0
LINE
  5
D8
  8
0
 10
70.0
 20
69.799999999999997
 30
0.0
 11
70.0
 21
69.5
 31
0.0
  0
LINE
  5
D9
  8
0
 10
310.0
 20
69.799999999999997
 30
0.0
 11
310.0
 21
69.5
 31
0.0
  0
LINE
  5
DA
  8
0
 10
290.0
 20
69.799999999999997
 30
0.0
 11
290.0
 21
69.5
 31
0.0
  0
LINE
  5
DB
  8
0
 10
290.0
 20
69.5
 30
0.0
 11
310.0
 21
69.5
 31
0.0
  0
ENDSEC
  0
EOF
