  0
SECTION
  2
HEADER
  9
$ACADVER
  1
AC1009
  9
$INSBASE
 10
0.0
 20
0.0
 30
0.0
  9
$EXTMIN
 10
66.65039157570618
 20
74.685059309337575
 30
-0.0015258207003583
  9
$EXTMAX
 10
313.29917987843407
 20
218.50982722885649
 30
0.0000000349246037
  9
$LIMMIN
 10
0.0
 20
0.0
  9
$LIMMAX
 10
375.0
 20
270.0
  9
$ORTHOMODE
 70
     1
  9
$REGENMODE
 70
     1
  9
$FILLMODE
 70
     1
  9
$QTEXTMODE
 70
     0
  9
$MIRRTEXT
 70
     0
  9
$DRAGMODE
 70
     2
  9
$LTSCALE
 40
10.0
  9
$OSMODE
 70
   231
  9
$ATTMODE
 70
     1
  9
$TEXTSIZE
 40
5.0
  9
$TRACEWID
 40
0.05
  9
$TEXTSTYLE
  7
STANDARD
  9
$CLAYER
  8
0
  9
$CELTYPE
  6
BYLAYER
  9
$CECOLOR
 62
   256
  9
$DIMSCALE
 40
1.0
  9
$DIMASZ
 40
3.0
  9
$DIMEXO
 40
2.0
  9
$DIMDLI
 40
0.38
  9
$DIMRND
 40
0.0
  9
$DIMDLE
 40
0.0
  9
$DIMEXE
 40
2.0
  9
$DIMTP
 40
0.0
  9
$DIMTM
 40
0.0
  9
$DIMTXT
 40
3.2000000000000002
  9
$DIMCEN
 40
0.0
  9
$DIMTSZ
 40
0.0
  9
$DIMTOL
 70
     0
  9
$DIMLIM
 70
     0
  9
$DIMTIH
 70
     0
  9
$DIMTOH
 70
     0
  9
$DIMSE1
 70
     0
  9
$DIMSE2
 70
     0
  9
$DIMTAD
 70
     1
  9
$DIMZIN
 70
     0
  9
$DIMBLK
  1

  9
$DIMASO
 70
     1
  9
$DIMSHO
 70
     0
  9
$DIMPOST
  1

  9
$DIMAPOST
  1

  9
$DIMALT
 70
     0
  9
$DIMALTD
 70
     2
  9
$DIMALTF
 40
25.399999999999999
  9
$DIMLFAC
 40
1.0
  9
$DIMTOFL
 70
     1
  9
$DIMTVP
 40
1.6000000000000001
  9
$DIMTIX
 70
     1
  9
$DIMSOXD
 70
     0
  9
$DIMSAH
 70
     0
  9
$DIMBLK1
  1

  9
$DIMBLK2
  1

  9
$DIMSTYLE
  2
STANDARD
  9
$DIMCLRD
 70
     0
  9
$DIMCLRE
 70
     0
  9
$DIMCLRT
 70
     0
  9
$DIMTFAC
 40
1.0
  9
$DIMGAP
 40
0.09
  9
$LUNITS
 70
     2
  9
$LUPREC
 70
     4
  9
$SKETCHINC
 40
0.1
  9
$FILLETRAD
 40
1.0
  9
$AUNITS
 70
     0
  9
$AUPREC
 70
     4
  9
$MENU
  1
E:\r13\win\SUPPORT\ACAD
  9
$ELEVATION
 40
0.0
  9
$PELEVATION
 40
0.0
  9
$THICKNESS
 40
0.0
  9
$LIMCHECK
 70
     0
  9
$BLIPMODE
 70
     1
  9
$CHAMFERA
 40
0.0
  9
$CHAMFERB
 40
0.0
  9
$SKPOLY
 70
     0
  9
$TDCREATE
 40
2449839.7902662032
  9
$TDUPDATE
 40
2453236.7650582292
  9
$TDINDWG
 40
0.0001490162
  9
$TDUSRTIMER
 40
0.0001490162
  9
$USRTIMER
 70
     1
  9
$ANGBASE
 50
0.0
  9
$ANGDIR
 70
     0
  9
$PDMODE
 70
     0
  9
$PDSIZE
 40
0.0
  9
$PLINEWID
 40
0.0
  9
$COORDS
 70
     0
  9
$SPLFRAME
 70
     0
  9
$SPLINETYPE
 70
     6
  9
$SPLINESEGS
 70
     8
  9
$ATTDIA
 70
     0
  9
$ATTREQ
 70
     1
  9
$HANDLING
 70
-16383
  9
$HANDSEED
  5
193
  9
$SURFTAB1
 70
     6
  9
$SURFTAB2
 70
     6
  9
$SURFTYPE
 70
     6
  9
$SURFU
 70
     6
  9
$SURFV
 70
     6
  9
$UCSNAME
  2

  9
$UCSORG
 10
0.0
 20
0.0
 30
0.0
  9
$UCSXDIR
 10
1.0
 20
0.0
 30
0.0
  9
$UCSYDIR
 10
0.0
 20
1.0
 30
0.0
  9
$PUCSNAME
  2

  9
$PUCSORG
 10
0.0
 20
0.0
 30
0.0
  9
$PUCSXDIR
 10
1.0
 20
0.0
 30
0.0
  9
$PUCSYDIR
 10
0.0
 20
1.0
 30
0.0
  9
$USERI1
 70
     0
  9
$USERI2
 70
     1
  9
$USERI3
 70
     1
  9
$USERI4
 70
     0
  9
$USERI5
 70
     0
  9
$USERR1
 40
0.0
  9
$USERR2
 40
0.0
  9
$USERR3
 40
0.0
  9
$USERR4
 40
0.0
  9
$USERR5
 40
0.0
  9
$WORLDVIEW
 70
     1
  9
$SHADEDGE
 70
     3
  9
$SHADEDIF
 70
    70
  9
$TILEMODE
 70
     1
  9
$MAXACTVP
 70
    16
  9
$PLIMCHECK
 70
     0
  9
$PEXTMIN
 10
1.0000000000000000E+020
 20
1.0000000000000000E+020
 30
1.0000000000000000E+020
  9
$PEXTMAX
 10
-1.0000000000000000E+020
 20
-1.0000000000000000E+020
 30
-1.0000000000000000E+020
  9
$PLIMMIN
 10
0.0
 20
0.0
  9
$PLIMMAX
 10
12.0
 20
9.0
  9
$UNITMODE
 70
     0
  9
$VISRETAIN
 70
     0
  9
$PLINEGEN
 70
     0
  9
$PSLTSCALE
 70
     0
  0
ENDSEC
  0
SECTION
  2
TABLES
  0
TABLE
  2
VPORT
 70
     3
  0
VPORT
  2
*ACTIVE
 70
     0
 10
0.0
 20
0.0
 11
1.0
 21
1.0
 12
189.9747857270701
 22
146.597443269097
 13
0.0
 23
0.0
 14
10.0
 24
10.0
 15
10.0
 25
10.0
 16
0.0
 26
0.0
 36
1.0
 17
0.0
 27
0.0
 37
0.0
 40
293.77143425163581
 41
0.9407114624505929
 42
50.0
 43
0.0
 44
0.0
 50
0.0
 51
0.0
 71
     0
 72
   500
 73
     1
 74
     0
 75
     0
 76
     0
 77
     0
 78
     2
  0
ENDTAB
  0
TABLE
  2
LTYPE
 70
     3
  0
LTYPE
  2
CONTINUOUS
 70
     0
  3
Solid Line
 72
    65
 73
     0
 40
0.0
  0
LTYPE
  2
CENTER
 70
     0
  3
____ _ ____ _ ____ _ ____ _ ____ _ ____ _ ____
 72
    65
 73
     4
 40
2.0
 49
1.25
 49
-0.25
 49
0.25
 49
-0.25
  0
LTYPE
  2
HIDDEN
 70
     0
  3
_ _ _ _ _ _ _ _ _ _ _ _ _ _ _ _ _ _ _ _ _ _ _
 72
    65
 73
     2
 40
0.375
 49
0.25
 49
-0.125
  0
ENDTAB
  0
TABLE
  2
LAYER
 70
     3
  0
LAYER
  2
0
 70
     0
 62
     7
  6
CONTINUOUS
  0
LAYER
  2
1
 70
     0
 62
     1
  6
CENTER
  0
LAYER
  2
2
 70
     0
 62
     2
  6
HIDDEN
  0
ENDTAB
  0
TABLE
  2
STYLE
 70
     1
  0
STYLE
  2
STANDARD
 70
     0
 40
0.0
 41
1.0
 50
0.0
 71
     0
 42
5.0
  3
TXT
  4
BIGFONT
  0
ENDTAB
  0
TABLE
  2
VIEW
 70
     1
  0
VIEW
  2
ALL
 70
     0
 40
270.0
 10
220.99159663865541
 20
135.0
 41
0.0
 11
0.0
 21
0.0
 31
1.0
 12
0.0
 22
0.0
 32
0.0
 42
0.0
 43
0.0
 44
0.0
 50
0.0
 71
     0
  0
ENDTAB
  0
TABLE
  2
UCS
 70
     0
  0
ENDTAB
  0
TABLE
  2
APPID
 70
     1
  0
APPID
  2
ACAD
 70
     0
  0
ENDTAB
  0
TABLE
  2
DIMSTYLE
 70
     1
  0
DIMSTYLE
  2
STANDARD
 70
     0
  3

  4

  5

  6

  7

 40
1.0
 41
0.18
 42
0.0625
 43
0.38
 44
0.18
 45
0.0
 46
0.0
 47
0.0
 48
0.0
140
0.18
141
0.09
142
0.0
143
25.399999999999999
144
1.0
145
0.0
146
1.0
147
0.09
 71
     0
 72
     0
 73
     1
 74
     1
 75
     0
 76
     0
 77
     0
 78
     0
170
     0
171
     2
172
     0
173
     0
174
     0
175
     0
176
     0
177
     0
178
     0
  0
ENDTAB
  0
ENDSEC
  0
SECTION
  2
BLOCKS
  0
BLOCK
  8
0
  2
$MODEL_SPACE
 70
     0
 10
0.0
 20
0.0
 30
0.0
  3
$MODEL_SPACE
  1

  0
ENDBLK
  5
13B
  8
0
  0
BLOCK
 67
     1
  8
0
  2
$PAPER_SPACE
 70
     0
 10
0.0
 20
0.0
 30
0.0
  3
$PAPER_SPACE
  1

  0
ENDBLK
  5
139
 67
     1
  8
0
  0
ENDSEC
  0
SECTION
  2
ENTITIES
  0
LINE
  5
35
  8
0
 10
148.0
 20
80.0
 30
0.0
 11
172.0
 21
80.0
 31
0.0
  0
LINE
  5
36
  8
0
 10
149.5
 20
102.40000000000001
 30
0.0
 11
148.0
 21
101.4509993850683
 31
0.0
  0
LINE
  5
37
  8
0
 10
148.0
 20
101.4509993850683
 30
0.0
 11
146.642524242127
 21
82.038191620149036
 31
0.0
  0
LINE
  5
38
  8
0
 10
149.5
 20
102.40000000000001
 30
0.0
 11
170.5
 21
102.40000000000001
 31
0.0
  0
LINE
  5
39
  8
0
 10
170.5
 20
102.40000000000001
 30
0.0
 11
172.0
 21
101.4509993850683
 31
0.0
  0
LINE
  5
3A
  8
0
 10
172.0
 20
101.4509993850683
 30
0.0
 11
172.0
 21
99.972368710024966
 31
0.0
  0
ARC
  5
3B
  8
0
 10
173.0
 20
99.972368710024966
 30
0.0
 40
1.0
 50
180.0
 51
273.99999999999989
  0
LINE
  5
3C
  8
0
 10
148.0
 20
101.4509993850683
 30
0.0
 11
172.0
 21
101.4509993850683
 31
0.0
  0
LINE
  5
3D
  8
0
 10
148.0
 20
80.0
 30
0.0
 11
148.0
 21
81.000000000000028
 31
0.0
  0
LINE
  5
3E
  8
0
 10
172.0
 20
80.0
 30
0.0
 11
172.24311991476509
 21
83.476776761417355
 31
0.0
  0
CIRCLE
  5
3F
  8
0
 10
160.0
 20
200.0
 30
0.0
 40
12.0
  0
CIRCLE
  5
40
  8
0
 10
160.0
 20
200.0
 30
0.0
 40
10.5
  0
LINE
  5
41
  8
0
 10
160.83076923076919
 20
211.97120806289851
 30
0.0
 11
219.5562300902414
 21
207.8264237675408
 31
0.0
  0
LINE
  5
42
  8
0
 10
160.83076923076919
 20
188.0287919371014
 30
0.0
 11
219.55623009024171
 21
192.1735762324592
 31
0.0
  0
CIRCLE
  5
43
  8
0
 10
160.0
 20
200.0
 30
0.0
 40
8.0
  0
ARC
  5
44
  8
0
 10
159.99999999999949
 20
199.99999999999909
 30
0.0
 40
12.00000000000097
 50
58.134771498224431
 51
86.030184561453396
  0
ARC
  5
45
  8
0
 10
129.1573381724485
 20
196.5882596837051
 30
0.0
 40
104.87038291490239
 50
287.57924343229507
 51
290.7158925364779
  0
LINE
  5
46
  8
0
 10
231.51951468923659
 20
102.7209269421228
 30
0.0
 11
232.36762463275741
 21
90.592389690833841
 31
0.0
  0
LINE
  5
47
  8
0
 10
216.5
 20
102.0816699434299
 30
0.0
 11
216.5
 21
102.6999999999999
 31
0.0
  0
LINE
  5
48
  8
0
 10
216.80000000000001
 20
103.0
 30
0.0
 11
231.22024547415859
 21
103.0
 31
0.0
  0
ARC
  5
49
  8
0
 10
216.80000000000001
 20
102.6999999999999
 30
0.0
 40
0.3
 50
89.999999999998664
 51
179.99999999999901
  0
ARC
  5
4A
  8
0
 10
231.22024547415859
 20
102.6999999999996
 30
0.0
 40
0.3
 50
3.9999999999999538
 51
89.999999999998707
  0
LINE
  5
4B
  8
0
 10
160.83076923076919
 20
96.615308453324474
 30
0.0
 11
224.50939949805851
 21
101.144565234439
 31
0.0
  0
LINE
  5
4C
  8
0
 10
166.2535897599999
 20
98.498171851797537
 30
0.0
 11
222.26134719280051
 21
102.48904530293849
 31
0.0
  0
LINE
  5
4D
  8
0
 10
219.0
 20
103.3
 30
0.0
 11
219.0
 21
102.9999999999998
 31
0.0
  0
LINE
  5
4E
  8
0
 10
229.0
 20
102.9999999999998
 30
0.0
 11
229.0
 21
103.3
 31
0.0
  0
LINE
  5
4F
  8
0
 10
215.0
 20
118.3
 30
0.0
 11
216.42796029752199
 21
104.02039702478319
 31
0.0
  0
ARC
  5
50
  8
0
 10
217.22399004969
 20
104.09999999999999
 30
0.0
 40
0.8
 50
185.71059313750109
 51
269.99999999999989
  0
ARC
  5
51
  8
0
 10
230.77600995030991
 20
104.09999999999999
 30
0.0
 40
0.8
 50
270.00000000000011
 51
354.28940686249882
  0
LINE
  5
52
  8
0
 10
233.0
 20
118.3
 30
0.0
 11
231.57203970247789
 21
104.02039702478319
 31
0.0
  0
LINE
  5
53
  8
0
 10
217.22399004969
 20
103.3
 30
0.0
 11
230.77600995030991
 21
103.3
 31
0.0
  0
LINE
  5
54
  8
0
 10
215.0
 20
118.3
 30
0.0
 11
233.0
 21
118.3
 31
0.0
  0
ARC
  5
55
  8
0
 10
216.5
 20
140.49545416973521
 30
0.0
 40
1.4999999999996321
 50
105.25752329045611
 51
180.0
  0
ARC
  5
56
  8
0
 10
231.51603390554399
 20
140.49545416973521
 30
0.0
 40
1.4999999999996321
 50
360.0
 51
74.74247670954388
  0
ARC
  5
57
  8
0
 10
224.0
 20
112.9999999999998
 30
0.0
 40
30.0
 50
74.712937721073132
 51
105.25752329045601
  0
LINE
  5
58
  8
0
 10
216.0
 20
140.49545416973521
 30
0.0
 11
232.0
 21
140.49545416973521
 31
0.0
  0
LINE
  5
59
  8
0
 10
215.0000000000004
 20
140.49545416973521
 30
0.0
 11
215.0
 21
118.2999999999999
 31
0.0
  0
LINE
  5
5A
  8
0
 10
233.01603390554371
 20
140.49545416973521
 30
0.0
 11
233.0
 21
118.3
 31
0.0
  0
CIRCLE
  5
5B
  8
0
 10
224.0
 20
200.0
 30
0.0
 40
9.0
  0
LINE
  5
5C
  8
0
 10
217.72327586502601
 20
206.45001814985309
 30
0.0
 11
166.52245925962171
 21
210.07261263062219
 31
0.0
  0
LINE
  5
5D
  8
0
 10
217.72327586502601
 20
193.54998185014679
 30
0.0
 11
166.52245925962171
 21
189.9273873693777
 31
0.0
  0
LINE
  5
5E
  8
1
 10
160.0
 20
107.39999999999991
 30
0.0
 11
160.0
 21
75.0
 31
0.0
  0
LINE
  5
5F
  8
1
 10
224.0
 20
147.99999999999989
 30
0.0
 11
224.0
 21
82.535564810250975
 31
0.0
  0
LINE
  5
60
  8
1
 10
224.0
 20
214.0
 30
0.0
 11
224.0
 21
186.0
 31
0.0
  0
LINE
  5
61
  8
1
 10
238.0
 20
200.0
 30
0.0
 11
141.49999999999989
 21
200.0
 31
0.0
  0
LINE
  5
62
  8
1
 10
160.0
 20
181.5
 30
0.0
 11
160.0
 21
218.5
 31
0.0
  0
ARC
  5
63
  8
0
 10
159.99999999999989
 20
199.99999999999989
 30
0.0
 40
13.5
 50
89.999999999999886
 51
270.00000000000011
  0
LINE
  5
64
  8
0
 10
160.0
 20
213.50000000000011
 30
0.0
 11
221.62989579455211
 21
208.6823157081113
 31
0.0
  0
LINE
  5
65
  8
0
 10
160.0
 20
186.4999999999998
 30
0.0
 11
221.62989579455331
 21
191.31768429188861
 31
0.0
  0
LINE
  5
66
  8
0
 10
159.99999999999989
 20
205.65685424949231
 30
0.0
 11
154.34314575050749
 21
200.0
 31
0.0
  0
LINE
  5
67
  8
0
 10
165.65685424949231
 20
200.0
 30
0.0
 11
159.99999999999989
 21
194.3431457505076
 31
0.0
  0
LINE
  5
68
  8
0
 10
159.99999999999989
 20
194.3431457505076
 30
0.0
 11
154.34314575050749
 21
200.0
 31
0.0
  0
LINE
  5
69
  8
0
 10
165.65685424949231
 20
200.0
 30
0.0
 11
159.99999999999989
 21
205.6568542494924
 31
0.0
  0
LINE
  5
6A
  8
2
 10
151.0000000000006
 20
99.200000000000017
 30
0.0
 11
169.0000000000006
 21
99.200000000000017
 31
0.0
  0
LINE
  5
6B
  8
2
 10
151.0
 20
99.199999999998155
 30
0.0
 11
151.0
 21
79.999999999998138
 31
0.0
  0
LINE
  5
6C
  8
2
 10
169.0
 20
99.199999999998155
 30
0.0
 11
169.0
 21
79.999999999998138
 31
0.0
  0
LINE
  5
6D
  8
2
 10
152.0000000000006
 20
99.200000000000017
 30
0.0
 11
151.77623420178139
 21
102.39999999999991
 31
0.0
  0
LINE
  5
6E
  8
2
 10
168.0000000000006
 20
99.200000000000017
 30
0.0
 11
168.22376579821989
 21
102.39999999999991
 31
0.0
  0
LINE
  5
6F
  8
2
 10
154.3431457505082
 20
99.200000000000017
 30
0.0
 11
154.3431457505082
 21
79.700000000000017
 31
0.0
  0
LINE
  5
70
  8
2
 10
160.0000000000006
 20
99.200000000000017
 30
0.0
 11
160.0000000000006
 21
79.700000000000017
 31
0.0
  0
LINE
  5
71
  8
2
 10
165.65685424949299
 20
99.200000000000017
 30
0.0
 11
165.65685424949299
 21
79.700000000000017
 31
0.0
  0
ARC
  5
72
  8
2
 10
162.82842712474681
 20
74.40849737787137
 30
0.0
 40
6.0
 50
61.874494297944373
 51
118.12550570205551
  0
ARC
  5
73
  8
2
 10
157.17157287525441
 20
74.408497377871385
 30
0.0
 40
6.0
 50
61.874494297944238
 51
118.1255057020558
  0
CIRCLE
  5
74
  8
0
 10
159.99999999999989
 20
199.99999999999989
 30
0.0
 40
8.2237657982192616
  0
LINE
  5
75
  8
0
 10
147.7417233705695
 20
80.973613398108867
 30
0.0
 11
231.4716956606803
 21
89.527811468793686
 31
0.0
  0
ARC
  5
76
  8
0
 10
147.64008829238671
 20
81.968435146404886
 30
0.0
 40
1.0
 50
176.00000000000011
 51
275.83333333333331
  0
ARC
  5
77
  8
0
 10
231.37006058249739
 20
90.522633217089719
 30
0.0
 40
1.0
 50
275.83333333333331
 51
3.9999999999998912
  0
LINE
  5
78
  8
0
 10
151.0
 20
79.700000000000003
 30
0.0
 11
168.99999999999989
 21
79.699999999999974
 31
0.0
  0
LINE
  5
79
  8
0
 10
151.0
 20
80.0
 30
0.0
 11
151.0
 21
79.700000000000003
 31
0.0
  0
LINE
  5
7A
  8
0
 10
169.0
 20
80.0
 30
0.0
 11
169.0
 21
79.700000000000003
 31
0.0
  0
LINE
  5
7B
  8
2
 10
154.3431457505082
 20
99.200000000000017
 30
0.0
 11
160.0000000000006
 21
79.700000000000557
 31
0.0
  0
LINE
  5
7C
  8
2
 10
160.0000000000006
 20
79.700000000000557
 30
0.0
 11
165.65685424949299
 21
99.200000000000017
 31
0.0
  0
LINE
  5
7D
  8
2
 10
154.3431457505082
 20
79.700000000000003
 30
0.0
 11
160.0000000000006
 21
99.200000000000017
 31
0.0
  0
LINE
  5
7E
  8
2
 10
160.0000000000006
 20
99.200000000000017
 30
0.0
 11
165.65685424949299
 21
79.700000000000728
 31
0.0
  0
ARC
  5
7F
  8
0
 10
333.50082284186942
 20
285.93652253698917
 30
0.0
 40
214.53950183175431
 50
238.76716343664151
 51
239.4676368896202
  0
LINE
  5
80
  8
0
 10
90.500000000000384
 20
102.40000000000001
 30
0.0
 11
69.499999999999673
 21
102.40000000000001
 31
0.0
  0
LINE
  5
81
  8
0
 10
92.000000000000313
 20
101.4509993850683
 30
0.0
 11
67.99999999999973
 21
101.4509993850683
 31
0.0
  0
LINE
  5
82
  8
0
 10
67.999999999999716
 20
101.4509993850683
 30
0.0
 11
66.65766042864891
 21
83.121295051536421
 31
0.0
  0
LINE
  5
83
  8
0
 10
92.000000000000313
 20
101.4509993850683
 30
0.0
 11
93.342339571351104
 21
83.121295051536407
 31
0.0
  0
LINE
  5
84
  8
0
 10
69.499999999999659
 20
102.40000000000001
 30
0.0
 11
67.99999999999973
 21
101.4509993850683
 31
0.0
  0
LINE
  5
85
  8
0
 10
90.500000000000341
 20
102.40000000000001
 30
0.0
 11
92.000000000000313
 21
101.4509993850683
 31
0.0
  0
LINE
  5
86
  8
1
 10
80.000000000000028
 20
147.99999999999989
 30
0.0
 11
80.000000000000028
 21
75.968435146404886
 31
0.0
  0
LINE
  5
87
  8
0
 10
92.000000000000014
 20
80.000000000000014
 30
0.0
 11
68.000000000000028
 21
80.000000000000014
 31
0.0
  0
LINE
  5
88
  8
0
 10
67.999999999999986
 20
81.973966016374249
 30
0.0
 11
68.000000000000043
 21
80.0
 31
0.0
  0
LINE
  5
89
  8
0
 10
92.000000000000057
 20
81.973966016374305
 30
0.0
 11
92.000000000000057
 21
80.0
 31
0.0
  0
ARC
  5
8A
  8
0
 10
79.999999999999972
 20
153.07516834638801
 30
0.0
 40
72.106733199983125
 50
260.00208171903358
 51
279.99791828096642
  0
ARC
  5
8B
  8
0
 10
67.65498962915548
 20
83.048257624028395
 30
0.0
 40
1.0
 50
175.81153414211019
 51
260.00208171903301
  0
ARC
  5
8C
  8
0
 10
92.345010370844562
 20
83.048257624028395
 30
0.0
 40
1.0
 50
279.99791828096721
 51
4.1884658578883247
  0
LINE
  5
8D
  8
0
 10
89.016033905543765
 20
140.49545416973521
 30
0.0
 11
89.000000000000028
 21
118.3
 31
0.0
  0
LINE
  5
8E
  8
0
 10
71.000000000000483
 20
140.49545416973521
 30
0.0
 11
71.000000000000028
 21
118.2999999999999
 31
0.0
  0
LINE
  5
8F
  8
0
 10
72.000000000000014
 20
140.49545416973521
 30
0.0
 11
88.000000000000014
 21
140.49545416973521
 31
0.0
  0
ARC
  5
90
  8
0
 10
80.000000000000028
 20
112.9999999999998
 30
0.0
 40
30.0
 50
74.712937721073132
 51
105.25752329045601
  0
ARC
  5
91
  8
0
 10
87.516033905544106
 20
140.49545416973521
 30
0.0
 40
1.4999999999996321
 50
360.0
 51
74.74247670954388
  0
ARC
  5
92
  8
0
 10
72.500000000000085
 20
140.49545416973521
 30
0.0
 40
1.4999999999996321
 50
105.25752329045611
 51
180.0
  0
LINE
  5
93
  8
0
 10
71.000000000000028
 20
118.3
 30
0.0
 11
89.000000000000028
 21
118.3
 31
0.0
  0
LINE
  5
94
  8
0
 10
73.223990049690059
 20
103.3
 30
0.0
 11
86.776009950309984
 21
103.3
 31
0.0
  0
LINE
  5
95
  8
0
 10
89.000000000000028
 20
118.3
 30
0.0
 11
87.572039702477994
 21
104.02039702478319
 31
0.0
  0
ARC
  5
96
  8
0
 10
86.776009950309984
 20
104.09999999999999
 30
0.0
 40
0.8
 50
270.00000000000011
 51
354.28940686249882
  0
ARC
  5
97
  8
0
 10
73.223990049690059
 20
104.09999999999999
 30
0.0
 40
0.8
 50
185.71059313750109
 51
269.99999999999989
  0
LINE
  5
98
  8
0
 10
71.000000000000028
 20
118.3
 30
0.0
 11
72.427960297522105
 21
104.02039702478319
 31
0.0
  0
LINE
  5
99
  8
0
 10
85.000000000000028
 20
102.9999999999998
 30
0.0
 11
85.000000000000028
 21
103.3
 31
0.0
  0
LINE
  5
9A
  8
0
 10
75.000000000000028
 20
103.3
 30
0.0
 11
75.000000000000028
 21
102.9999999999998
 31
0.0
  0
ARC
  5
9B
  8
0
 10
87.220245474158702
 20
102.6999999999996
 30
0.0
 40
0.3
 50
0.0
 51
89.999999999998707
  0
ARC
  5
9C
  8
0
 10
72.80000000000004
 20
102.6999999999999
 30
0.0
 40
0.3
 50
89.999999999998664
 51
179.99999999999901
  0
LINE
  5
9D
  8
0
 10
72.80000000000004
 20
103.0
 30
0.0
 11
87.220245474158702
 21
103.0
 31
0.0
  0
LINE
  5
9E
  8
0
 10
72.500000000000043
 20
102.40000000000001
 30
0.0
 11
72.500000000000028
 21
102.6999999999999
 31
0.0
  0
LINE
  5
9F
  8
0
 10
87.520245474158713
 20
102.6999999999996
 30
0.0
 11
87.520245474158713
 21
102.40000000000001
 31
0.0
  0
LINE
  5
A9
  8
0
 10
292.78324333223622
 20
102.9999999999999
 30
0.0
 11
307.21675666774331
 21
102.9999999999999
 31
0.0
  0
LINE
  5
AA
  8
0
 10
309.01603390554368
 20
140.49545416973541
 30
0.0
 11
309.0
 21
118.3000000000001
 31
0.0
  0
LINE
  5
AB
  8
0
 10
291.0000000000004
 20
140.49545416973541
 30
0.0
 11
291.0
 21
118.3000000000001
 31
0.0
  0
LINE
  5
AC
  8
0
 10
292.0
 20
140.49545416973541
 30
0.0
 11
308.0
 21
140.49545416973541
 31
0.0
  0
ARC
  5
AD
  8
0
 10
300.0
 20
112.9999999999999
 30
0.0
 40
30.0
 50
74.712937721073132
 51
105.25752329045601
  0
ARC
  5
AE
  8
0
 10
307.51603390554402
 20
140.49545416973541
 30
0.0
 40
1.4999999999996321
 50
360.0
 51
74.74247670954388
  0
ARC
  5
AF
  8
0
 10
292.5
 20
140.49545416973541
 30
0.0
 40
1.4999999999996321
 50
105.25752329045611
 51
180.0
  0
LINE
  5
B0
  8
0
 10
291.0
 20
118.3000000000001
 30
0.0
 11
309.0
 21
118.3000000000001
 31
0.0
  0
LINE
  5
B1
  8
0
 10
293.22399004968992
 20
103.3000000000002
 30
0.0
 11
306.77600995031003
 21
103.3000000000002
 31
0.0
  0
LINE
  5
B2
  8
0
 10
309.0
 20
118.3000000000001
 30
0.0
 11
307.57203970247792
 21
104.02039702478331
 31
0.0
  0
ARC
  5
B3
  8
0
 10
306.77600995031003
 20
104.10000000000009
 30
0.0
 40
0.8
 50
270.00000000000011
 51
354.28940686249882
  0
ARC
  5
B4
  8
0
 10
293.22399004968992
 20
104.10000000000009
 30
0.0
 40
0.8
 50
185.71059313750109
 51
269.99999999999989
  0
LINE
  5
B5
  8
0
 10
305.0
 20
102.9999999999999
 30
0.0
 11
305.0
 21
103.3000000000002
 31
0.0
  0
LINE
  5
B6
  8
0
 10
295.0
 20
103.3000000000002
 30
0.0
 11
295.0
 21
102.9999999999999
 31
0.0
  0
LINE
  5
B7
  8
1
 10
300.0
 20
148.0
 30
0.0
 11
300.0
 21
74.700000000000003
 31
0.0
  0
LINE
  5
B8
  8
0
 10
292.42796029752202
 20
104.02039702478331
 30
0.0
 11
291.0
 21
118.3000000000001
 31
0.0
  0
LINE
  5
B9
  8
0
 10
312.0
 20
80.0
 30
0.0
 11
288.0
 21
79.999999999999986
 31
0.0
  0
LINE
  5
BA
  8
0
 10
310.50000000000023
 20
102.40000000000001
 30
0.0
 11
307.5385842406348
 21
102.39999999999991
 31
0.0
  0
LINE
  5
BB
  8
0
 10
287.93645085167839
 20
101.4509993850683
 30
0.0
 11
286.70861916476559
 21
83.115379527167704
 31
0.0
  0
LINE
  5
BC
  8
0
 10
312.0635491483215
 20
101.4509993850682
 30
0.0
 11
313.29138083523429
 21
83.115379527167676
 31
0.0
  0
LINE
  5
BD
  8
0
 10
312.0635491483215
 20
101.4509993850683
 30
0.0
 11
307.60529062724419
 21
101.4509993850683
 31
0.0
  0
LINE
  5
BE
  8
0
 10
289.49999999999972
 20
102.39999999999991
 30
0.0
 11
287.93645085167839
 21
101.4509993850683
 31
0.0
  0
LINE
  5
BF
  8
0
 10
310.50000000000023
 20
102.39999999999991
 30
0.0
 11
312.0635491483215
 21
101.4509993850683
 31
0.0
  0
ARC
  5
C0
  8
0
 10
300.0
 20
152.4690685069223
 30
0.0
 40
71.500633360517455
 50
259.95765526762608
 51
260.33828584106823
  0
ARC
  5
C1
  8
0
 10
287.70638456948808
 20
83.048564879530034
 30
0.0
 40
1.0
 50
176.16894863894299
 51
259.9576552676254
  0
ARC
  5
C2
  8
0
 10
312.29361543051169
 20
83.048564879530034
 30
0.0
 40
1.0
 50
280.04234473237523
 51
3.831051361056002
  0
LINE
  5
C3
  8
0
 10
288.0
 20
82.313720349537263
 30
0.0
 11
288.0
 21
79.999999999999986
 31
0.0
  0
LINE
  5
C4
  8
0
 10
312.0
 20
82.313720349537263
 30
0.0
 11
312.0
 21
80.0
 31
0.0
  0
LINE
  5
C5
  8
0
 10
292.5757168111947
 20
88.764472333986845
 30
0.0
 11
294.1456500118743
 21
88.764472333986845
 31
0.0
  0
LINE
  5
C6
  8
0
 10
292.4839817249424
 20
102.7210354557825
 30
0.0
 11
291.5781781202158
 21
89.834590519928838
 31
0.0
  0
LINE
  5
C7
  8
0
 10
307.51601827503703
 20
102.721035455783
 30
0.0
 11
308.4218218797825
 21
89.834590519930273
 31
0.0
  0
LINE
  5
C8
  8
0
 10
292.46141575934541
 20
102.39999999999991
 30
0.0
 11
289.49999999999972
 21
102.39999999999991
 31
0.0
  0
LINE
  5
C9
  8
0
 10
292.3947093727374
 20
101.4509993850683
 30
0.0
 11
287.93645085167861
 21
101.4509993850683
 31
0.0
  0
ARC
  5
CA
  8
0
 10
292.5757168111947
 20
89.764472333986845
 30
0.0
 40
1.0
 50
175.97922454650541
 51
269.99999999999989
  0
ARC
  5
CB
  8
0
 10
307.4242831888036
 20
89.764472333986845
 30
0.0
 40
1.0
 50
270.0
 51
4.0207754535765652
  0
ARC
  5
CC
  8
0
 10
299.9999999999996
 20
62.482307739856118
 30
0.0
 40
26.926299217240921
 50
77.442383624691615
 51
102.5576163753079
  0
ARC
  5
CD
  8
0
 10
299.9999999999996
 20
62.482307739856118
 30
0.0
 40
27.143937659632261
 50
77.442383624691615
 51
102.5576163753079
  0
LINE
  5
CE
  8
0
 10
305.85434998812502
 20
88.764472333986845
 30
0.0
 11
307.4242831888036
 21
88.764472333986845
 31
0.0
  0
LINE
  5
CF
  8
0
 10
288.0
 20
82.313720349537263
 30
0.0
 11
290.03135801457063
 21
82.313720349537249
 31
0.0
  0
ARC
  5
D0
  8
0
 10
300.0
 20
152.4690685069223
 30
0.0
 40
71.500633360517455
 50
279.66171415893177
 51
280.04234473237369
  0
LINE
  5
D1
  8
0
 10
290.03135801457063
 20
82.313720349537263
 30
0.0
 11
294.1456500118743
 21
88.764472333986845
 31
0.0
  0
LINE
  5
D2
  8
0
 10
305.85434998812502
 20
88.764472333986845
 30
0.0
 11
309.96864198542988
 21
82.313720349537249
 31
0.0
  0
LINE
  5
D3
  8
0
 10
309.96864198542988
 20
82.313720349537263
 30
0.0
 11
312.0
 21
82.313720349537263
 31
0.0
  0
LINE
  5
D4
  8
0
 10
288.13046404648628
 20
83.476776761417383
 30
0.0
 11
291.50295823489182
 21
88.764472333986873
 31
0.0
  0
LINE
  5
D5
  8
0
 10
311.8695359535136
 20
83.476776761417383
 30
0.0
 11
308.49704176510812
 21
88.764472333986873
 31
0.0
  0
LINE
  5
D6
  8
0
 10
288.0307789534329
 20
96.615308453324474
 30
0.0
 11
292.36090368888989
 21
100.97006170592191
 31
0.0
  0
LINE
  5
D7
  8
0
 10
311.96922104656687
 20
96.615308453324474
 30
0.0
 11
307.63909631110999
 21
100.97006170592191
 31
0.0
  0
ARC
  5
D8
  8
0
 10
292.78324333223622
 20
102.6999999999999
 30
0.0
 40
0.3
 50
90.0
 51
175.979224546506
  0
ARC
  5
D9
  8
0
 10
307.21675666774331
 20
102.6999999999999
 30
0.0
 40
0.3
 50
4.0207754535769968
 51
90.0
  0
LINE
  5
DA
  8
0
 10
291.0
 20
79.700000000000003
 30
0.0
 11
309.0
 21
79.699999999999974
 31
0.0
  0
LINE
  5
DB
  8
0
 10
291.0
 20
80.0
 30
0.0
 11
291.0
 21
79.700000000000003
 31
0.0
  0
LINE
  5
DC
  8
0
 10
309.0
 20
80.0
 30
0.0
 11
309.0
 21
79.700000000000003
 31
0.0
  0
ENDSEC
  0
EOF
