  0
SECTION
  2
HEADER
  9
$ACADVER
  1
AC1009
  9
$INSBASE
 10
0.0
 20
0.0
 30
0.0
  9
$EXTMIN
 10
22.590638106445109
 20
44.980774606788493
 30
-0.0015258207003583
  9
$EXTMAX
 10
357.41615380674602
 20
257.50442566292412
 30
0.0000000349246037
  9
$LIMMIN
 10
0.0
 20
0.0
  9
$LIMMAX
 10
375.0
 20
270.0
  9
$ORTHOMODE
 70
     1
  9
$REGENMODE
 70
     1
  9
$FILLMODE
 70
     1
  9
$QTEXTMODE
 70
     0
  9
$MIRRTEXT
 70
     0
  9
$DRAGMODE
 70
     2
  9
$LTSCALE
 40
10.0
  9
$OSMODE
 70
   231
  9
$ATTMODE
 70
     1
  9
$TEXTSIZE
 40
8.0000000000000497
  9
$TRACEWID
 40
0.05
  9
$TEXTSTYLE
  7
STANDARD
  9
$CLAYER
  8
0
  9
$CELTYPE
  6
BYLAYER
  9
$CECOLOR
 62
   256
  9
$DIMSCALE
 40
1.0
  9
$DIMASZ
 40
3.0
  9
$DIMEXO
 40
2.0
  9
$DIMDLI
 40
0.38
  9
$DIMRND
 40
0.0
  9
$DIMDLE
 40
0.0
  9
$DIMEXE
 40
2.0
  9
$DIMTP
 40
0.0
  9
$DIMTM
 40
0.0
  9
$DIMTXT
 40
3.2000000000000002
  9
$DIMCEN
 40
0.0
  9
$DIMTSZ
 40
0.0
  9
$DIMTOL
 70
     0
  9
$DIMLIM
 70
     0
  9
$DIMTIH
 70
     0
  9
$DIMTOH
 70
     0
  9
$DIMSE1
 70
     0
  9
$DIMSE2
 70
     0
  9
$DIMTAD
 70
     1
  9
$DIMZIN
 70
     0
  9
$DIMBLK
  1

  9
$DIMASO
 70
     1
  9
$DIMSHO
 70
     0
  9
$DIMPOST
  1

  9
$DIMAPOST
  1

  9
$DIMALT
 70
     0
  9
$DIMALTD
 70
     2
  9
$DIMALTF
 40
25.399999999999999
  9
$DIMLFAC
 40
1.0
  9
$DIMTOFL
 70
     1
  9
$DIMTVP
 40
1.6000000000000001
  9
$DIMTIX
 70
     1
  9
$DIMSOXD
 70
     0
  9
$DIMSAH
 70
     0
  9
$DIMBLK1
  1

  9
$DIMBLK2
  1

  9
$DIMSTYLE
  2
STANDARD
  9
$DIMCLRD
 70
     0
  9
$DIMCLRE
 70
     0
  9
$DIMCLRT
 70
     0
  9
$DIMTFAC
 40
1.0
  9
$DIMGAP
 40
0.09
  9
$LUNITS
 70
     2
  9
$LUPREC
 70
     4
  9
$SKETCHINC
 40
0.1
  9
$FILLETRAD
 40
0.3
  9
$AUNITS
 70
     1
  9
$AUPREC
 70
     4
  9
$MENU
  1
E:\r13\win\SUPPORT\ACAD
  9
$ELEVATION
 40
0.0
  9
$PELEVATION
 40
0.0
  9
$THICKNESS
 40
0.0
  9
$LIMCHECK
 70
     0
  9
$BLIPMODE
 70
     1
  9
$CHAMFERA
 40
0.0
  9
$CHAMFERB
 40
0.0
  9
$SKPOLY
 70
     0
  9
$TDCREATE
 40
2449839.7904398139
  9
$TDUPDATE
 40
2453236.7648489932
  9
$TDINDWG
 40
0.0001591435
  9
$TDUSRTIMER
 40
0.0001591435
  9
$USRTIMER
 70
     1
  9
$ANGBASE
 50
0.0
  9
$ANGDIR
 70
     0
  9
$PDMODE
 70
     0
  9
$PDSIZE
 40
0.0
  9
$PLINEWID
 40
0.0
  9
$COORDS
 70
     0
  9
$SPLFRAME
 70
     0
  9
$SPLINETYPE
 70
     6
  9
$SPLINESEGS
 70
     8
  9
$ATTDIA
 70
     0
  9
$ATTREQ
 70
     1
  9
$HANDLING
 70
-16383
  9
$HANDSEED
  5
190
  9
$SURFTAB1
 70
     6
  9
$SURFTAB2
 70
     6
  9
$SURFTYPE
 70
     6
  9
$SURFU
 70
     6
  9
$SURFV
 70
     6
  9
$UCSNAME
  2

  9
$UCSORG
 10
0.0
 20
0.0
 30
0.0
  9
$UCSXDIR
 10
1.0
 20
0.0
 30
0.0
  9
$UCSYDIR
 10
0.0
 20
1.0
 30
0.0
  9
$PUCSNAME
  2

  9
$PUCSORG
 10
0.0
 20
0.0
 30
0.0
  9
$PUCSXDIR
 10
1.0
 20
0.0
 30
0.0
  9
$PUCSYDIR
 10
0.0
 20
1.0
 30
0.0
  9
$USERI1
 70
     0
  9
$USERI2
 70
     1
  9
$USERI3
 70
     1
  9
$USERI4
 70
     0
  9
$USERI5
 70
     0
  9
$USERR1
 40
0.0
  9
$USERR2
 40
0.0
  9
$USERR3
 40
0.0
  9
$USERR4
 40
0.0
  9
$USERR5
 40
0.0
  9
$WORLDVIEW
 70
     1
  9
$SHADEDGE
 70
     3
  9
$SHADEDIF
 70
    70
  9
$TILEMODE
 70
     1
  9
$MAXACTVP
 70
    16
  9
$PLIMCHECK
 70
     0
  9
$PEXTMIN
 10
1.0000000000000000E+020
 20
1.0000000000000000E+020
 30
1.0000000000000000E+020
  9
$PEXTMAX
 10
-1.0000000000000000E+020
 20
-1.0000000000000000E+020
 30
-1.0000000000000000E+020
  9
$PLIMMIN
 10
0.0
 20
0.0
  9
$PLIMMAX
 10
12.0
 20
9.0
  9
$UNITMODE
 70
     0
  9
$VISRETAIN
 70
     0
  9
$PLINEGEN
 70
     0
  9
$PSLTSCALE
 70
     0
  0
ENDSEC
  0
SECTION
  2
TABLES
  0
TABLE
  2
VPORT
 70
     3
  0
VPORT
  2
*ACTIVE
 70
     0
 10
0.0
 20
0.0
 11
1.0
 21
1.0
 12
190.00339595659551
 22
151.2426001348563
 13
0.0
 23
0.0
 14
10.0
 24
10.0
 15
10.0
 25
10.0
 16
0.0
 26
0.0
 36
1.0
 17
0.0
 27
0.0
 37
0.0
 40
398.7944666105343
 41
0.9407114624505929
 42
50.0
 43
0.0
 44
0.0
 50
0.0
 51
0.0
 71
     0
 72
   500
 73
     1
 74
     0
 75
     0
 76
     0
 77
     0
 78
     2
  0
ENDTAB
  0
TABLE
  2
LTYPE
 70
     3
  0
LTYPE
  2
CONTINUOUS
 70
     0
  3
Solid Line
 72
    65
 73
     0
 40
0.0
  0
LTYPE
  2
CENTER
 70
     0
  3
____ _ ____ _ ____ _ ____ _ ____ _ ____ _ ____
 72
    65
 73
     4
 40
2.0
 49
1.25
 49
-0.25
 49
0.25
 49
-0.25
  0
LTYPE
  2
HIDDEN
 70
     0
  3
_ _ _ _ _ _ _ _ _ _ _ _ _ _ _ _ _ _ _ _ _ _ _
 72
    65
 73
     2
 40
0.375
 49
0.25
 49
-0.125
  0
ENDTAB
  0
TABLE
  2
LAYER
 70
     3
  0
LAYER
  2
0
 70
     0
 62
     7
  6
CONTINUOUS
  0
LAYER
  2
1
 70
     0
 62
     1
  6
CENTER
  0
LAYER
  2
2
 70
     0
 62
     2
  6
HIDDEN
  0
ENDTAB
  0
TABLE
  2
STYLE
 70
     1
  0
STYLE
  2
STANDARD
 70
     0
 40
0.0
 41
1.0
 50
0.0
 71
     0
 42
8.0000000000000497
  3
TXT
  4
BIGFONT
  0
ENDTAB
  0
TABLE
  2
VIEW
 70
     1
  0
VIEW
  2
ALL
 70
     0
 40
270.0
 10
220.99159663865541
 20
135.0
 41
0.0
 11
0.0
 21
0.0
 31
1.0
 12
0.0
 22
0.0
 32
0.0
 42
0.0
 43
0.0
 44
0.0
 50
0.0
 71
     0
  0
ENDTAB
  0
TABLE
  2
UCS
 70
     0
  0
ENDTAB
  0
TABLE
  2
APPID
 70
     1
  0
APPID
  2
ACAD
 70
     0
  0
ENDTAB
  0
TABLE
  2
DIMSTYLE
 70
     1
  0
DIMSTYLE
  2
STANDARD
 70
     0
  3

  4

  5

  6

  7

 40
1.0
 41
0.18
 42
0.0625
 43
0.38
 44
0.18
 45
0.0
 46
0.0
 47
0.0
 48
0.0
140
0.18
141
0.09
142
0.0
143
25.399999999999999
144
1.0
145
0.0
146
1.0
147
0.09
 71
     0
 72
     0
 73
     1
 74
     1
 75
     0
 76
     0
 77
     0
 78
     0
170
     0
171
     2
172
     0
173
     0
174
     0
175
     0
176
     0
177
     0
178
     0
  0
ENDTAB
  0
ENDSEC
  0
SECTION
  2
BLOCKS
  0
BLOCK
  8
0
  2
$MODEL_SPACE
 70
     0
 10
0.0
 20
0.0
 30
0.0
  3
$MODEL_SPACE
  1

  0
ENDBLK
  5
138
  8
0
  0
BLOCK
 67
     1
  8
0
  2
$PAPER_SPACE
 70
     0
 10
0.0
 20
0.0
 30
0.0
  3
$PAPER_SPACE
  1

  0
ENDBLK
  5
136
 67
     1
  8
0
  0
ENDSEC
  0
SECTION
  2
ENTITIES
  0
LINE
  5
35
  8
0
 10
94.0
 20
50.0
 30
0.0
 11
136.0
 21
50.0
 31
0.0
  0
LINE
  5
36
  8
1
 10
115.0
 20
94.500000000000014
 30
0.0
 11
114.9999999999999
 21
44.999999999999993
 31
0.0
  0
LINE
  5
37
  8
0
 10
94.281132973899446
 20
51.590872247797449
 30
0.0
 11
286.56264499312329
 21
72.196410939642959
 31
0.0
  0
LINE
  5
38
  8
0
 10
92.624956936480089
 20
53.186967445063431
 30
0.0
 11
95.0
 21
87.1516656417798
 31
0.0
  0
ARC
  5
39
  8
0
 10
94.121303011869827
 20
53.082332734447249
 30
0.0
 40
1.5
 50
176.0
 51
276.11666666666662
  0
LINE
  5
3A
  8
0
 10
94.0
 20
50.0
 30
0.0
 11
94.0
 21
51.587245586715831
 31
0.0
  0
LINE
  5
3B
  8
0
 10
97.5
 20
89.500000000000014
 30
0.0
 11
132.49999999999989
 21
89.500000000000014
 31
0.0
  0
LINE
  5
3C
  8
0
 10
95.0
 20
87.151665641779886
 30
0.0
 11
97.5
 21
89.500000000000014
 31
0.0
  0
LINE
  5
3D
  8
0
 10
135.0
 20
87.151665641779886
 30
0.0
 11
132.49999999999989
 21
89.500000000000014
 31
0.0
  0
LINE
  5
3E
  8
1
 10
275.0
 20
184.99999999999989
 30
0.0
 11
275.0
 21
65.928690678940313
 31
0.0
  0
LINE
  5
3F
  8
0
 10
287.89916110648352
 20
73.792506136908941
 30
0.0
 11
286.7853374202802
 21
89.720926942123242
 31
0.0
  0
LINE
  5
40
  8
0
 10
286.48606820520229
 20
90.0
 30
0.0
 11
263.56582273104351
 21
90.0
 31
0.0
  0
LINE
  5
41
  8
0
 10
263.2658227310435
 20
89.699999999999974
 30
0.0
 11
263.2658227310435
 21
89.0
 31
0.0
  0
LINE
  5
42
  8
0
 10
268.2155838131261
 20
89.161317718519413
 30
0.0
 11
125.57192221446969
 21
84.512416555662256
 31
0.0
  0
LINE
  5
43
  8
0
 10
135.0
 20
87.151665641779886
 30
0.0
 11
135.0
 21
86.369370079482565
 31
0.0
  0
ARC
  5
44
  8
0
 10
136.49999999999989
 20
86.369370079482565
 30
0.0
 40
1.5
 50
180.0
 51
271.86666666666662
  0
ARC
  5
45
  8
0
 10
263.56582273104351
 20
89.699999999999974
 30
0.0
 40
0.3
 50
90.0
 51
179.99999999999989
  0
ARC
  5
46
  8
0
 10
286.48606820520229
 20
89.699999999999974
 30
0.0
 40
0.3
 50
4.0000000000000053
 51
90.0
  0
LINE
  5
47
  8
0
 10
136.0
 20
50.0
 30
0.0
 11
136.2124711126246
 21
56.08437659642135
 31
0.0
  0
LINE
  5
48
  8
0
 10
95.0
 20
87.151665641779886
 30
0.0
 11
135.0
 21
87.151665641779857
 31
0.0
  0
LINE
  5
49
  8
0
 10
261.0
 20
122.0
 30
0.0
 11
261.0
 21
176.08687448721139
 31
0.0
  0
LINE
  5
4A
  8
0
 10
289.0
 20
176.0868744872117
 30
0.0
 11
289.0
 21
122.0
 31
0.0
  0
ARC
  5
4B
  8
0
 10
275.0
 20
130.0
 30
0.0
 40
50.0
 50
75.989171925123046
 51
104.010828074877
  0
ARC
  5
4C
  8
0
 10
263.5
 20
176.08687448721139
 30
0.0
 40
2.5
 50
104.0108280748774
 51
180.0
  0
ARC
  5
4D
  8
0
 10
286.5
 20
176.0868744872117
 30
0.0
 40
2.5
 50
0.0
 51
75.989171925123543
  0
LINE
  5
4E
  8
0
 10
262.0
 20
176.08687448721139
 30
0.0
 11
288.0
 21
176.0868744872117
 31
0.0
  0
LINE
  5
4F
  8
0
 10
289.0
 20
122.0
 30
0.0
 11
261.0
 21
122.0
 31
0.0
  0
LINE
  5
50
  8
0
 10
284.8627113799277
 20
90.300000000000011
 30
0.0
 11
265.13728862007218
 21
90.300000000000011
 31
0.0
  0
LINE
  5
51
  8
0
 10
261.0
 20
122.0
 30
0.0
 11
263.89284892599852
 21
91.432229681948854
 31
0.0
  0
LINE
  5
52
  8
0
 10
289.0
 20
122.0
 30
0.0
 11
286.10715107400142
 21
91.432229681948854
 31
0.0
  0
ARC
  5
53
  8
0
 10
265.13728862007218
 20
91.550000000000011
 30
0.0
 40
1.25
 50
185.4062121722946
 51
269.99999999999989
  0
ARC
  5
54
  8
0
 10
284.8627113799277
 20
91.550000000000011
 30
0.0
 40
1.25
 50
270.0
 51
354.59378782770523
  0
LINE
  5
55
  8
0
 10
269.0
 20
90.299999999999983
 30
0.0
 11
269.0
 21
90.0
 31
0.0
  0
LINE
  5
56
  8
0
 10
281.0
 20
90.299999999999983
 30
0.0
 11
281.0
 21
90.0
 31
0.0
  0
LINE
  5
57
  8
0
 10
275.0
 20
86.881101336851344
 30
0.0
 11
116.0312500000142
 21
81.700149036199946
 31
0.0
  0
ARC
  5
58
  8
0
 10
114.59731014379049
 20
104.1544095782164
 30
0.0
 40
22.5
 50
273.65397420696519
 51
299.19349411561183
  0
LINE
  5
59
  8
0
 10
62.500000000000071
 20
89.500000000000014
 30
0.0
 11
27.499999999999929
 21
89.500000000000014
 31
0.0
  0
LINE
  5
5A
  8
0
 10
65.000000000000057
 20
87.151665641779914
 30
0.0
 11
24.999999999999972
 21
87.151665641779914
 31
0.0
  0
LINE
  5
5B
  8
0
 10
24.999999999999961
 20
87.151665641779914
 30
0.0
 11
22.599770635301152
 21
55.141737000468993
 31
0.0
  0
LINE
  5
5C
  8
0
 10
65.000000000000057
 20
87.151665641779914
 30
0.0
 11
67.400229364698873
 21
55.14173700046905
 31
0.0
  0
LINE
  5
5D
  8
0
 10
27.499999999999961
 20
89.500000000000014
 30
0.0
 11
24.999999999999961
 21
87.151665641779886
 31
0.0
  0
LINE
  5
5E
  8
0
 10
62.500000000000071
 20
89.500000000000014
 30
0.0
 11
65.000000000000057
 21
87.151665641779886
 31
0.0
  0
LINE
  5
5F
  8
1
 10
45.0
 20
185.0
 30
0.0
 11
45.0
 21
44.999999999999993
 31
0.0
  0
ARC
  5
60
  8
0
 10
45.000000000000021
 20
166.26461828959739
 30
0.0
 40
114.6822855551502
 50
259.35653264007169
 51
280.64346735992831
  0
ARC
  5
61
  8
0
 10
65.904428604247812
 20
55.029576022254922
 30
0.0
 40
1.5
 50
280.64346735992939
 51
4.2882361615712012
  0
ARC
  5
62
  8
0
 10
24.095571395752248
 20
55.029576022254901
 30
0.0
 40
1.5
 50
175.7117638384299
 51
259.35653264007209
  0
LINE
  5
63
  8
0
 10
24.0
 20
53.521429492433207
 30
0.0
 11
24.0
 21
50.000000000000028
 31
0.0
  0
LINE
  5
64
  8
0
 10
65.999999999999986
 20
53.521429492433128
 30
0.0
 11
65.999999999999986
 21
50.000000000000028
 31
0.0
  0
LINE
  5
65
  8
0
 10
66.0
 20
50.000000000000028
 30
0.0
 11
24.0
 21
50.0
 31
0.0
  0
LINE
  5
66
  8
0
 10
51.0
 20
90.299999999999983
 30
0.0
 11
51.0
 21
90.0
 31
0.0
  0
LINE
  5
67
  8
0
 10
39.0
 20
90.299999999999983
 30
0.0
 11
39.0
 21
90.0
 31
0.0
  0
ARC
  5
68
  8
0
 10
54.862711379927759
 20
91.550000000000011
 30
0.0
 40
1.25
 50
270.0
 51
354.59378782770523
  0
ARC
  5
69
  8
0
 10
35.137288620072241
 20
91.550000000000011
 30
0.0
 40
1.25
 50
185.4062121722946
 51
269.99999999999989
  0
LINE
  5
6A
  8
0
 10
54.862711379927759
 20
90.300000000000011
 30
0.0
 11
35.137288620072241
 21
90.300000000000011
 31
0.0
  0
ARC
  5
6B
  8
0
 10
56.48606820520228
 20
89.699999999999974
 30
0.0
 40
0.3
 50
0.0
 51
90.0
  0
ARC
  5
6C
  8
0
 10
33.565822731043561
 20
89.699999999999974
 30
0.0
 40
0.3
 50
90.0
 51
179.99999999999989
  0
LINE
  5
6D
  8
0
 10
56.48606820520228
 20
90.0
 30
0.0
 11
33.565822731043561
 21
90.0
 31
0.0
  0
LINE
  5
6E
  8
0
 10
33.265822731043492
 20
89.699999999999974
 30
0.0
 11
33.265822731043492
 21
89.500000000000014
 31
0.0
  0
LINE
  5
6F
  8
0
 10
31.0
 20
122.0
 30
0.0
 11
33.892848925998571
 21
91.432229681948854
 31
0.0
  0
LINE
  5
70
  8
0
 10
59.000000000000107
 20
122.0
 30
0.0
 11
56.107151074001422
 21
91.432229681948854
 31
0.0
  0
LINE
  5
71
  8
0
 10
59.0
 20
122.0
 30
0.0
 11
31.0
 21
122.0
 31
0.0
  0
LINE
  5
72
  8
0
 10
32.000000000000107
 20
176.08687448721139
 30
0.0
 11
58.0
 21
176.0868744872117
 31
0.0
  0
ARC
  5
73
  8
0
 10
56.5
 20
176.0868744872117
 30
0.0
 40
2.5
 50
0.0
 51
75.989171925123543
  0
ARC
  5
74
  8
0
 10
33.5
 20
176.08687448721139
 30
0.0
 40
2.5
 50
104.0108280748774
 51
180.0
  0
ARC
  5
75
  8
0
 10
45.0
 20
130.0
 30
0.0
 40
50.0
 50
75.989171925123046
 51
104.010828074877
  0
LINE
  5
76
  8
0
 10
59.0
 20
176.0868744872117
 30
0.0
 11
59.000000000000107
 21
122.0
 31
0.0
  0
LINE
  5
77
  8
0
 10
31.0
 20
122.0
 30
0.0
 11
31.0
 21
176.08687448721139
 31
0.0
  0
LINE
  5
78
  8
0
 10
56.786068205202291
 20
89.699999999999974
 30
0.0
 11
56.786068205202291
 21
89.500000000000057
 31
0.0
  0
LINE
  5
79
  8
0
 10
356.0
 20
50.000000000000028
 30
0.0
 11
314.0
 21
50.0
 31
0.0
  0
LINE
  5
7A
  8
0
 10
356.0
 20
53.922526382622493
 30
0.0
 11
356.0
 21
50.000000000000028
 31
0.0
  0
LINE
  5
7B
  8
0
 10
313.99999999999989
 20
53.922526382622493
 30
0.0
 11
314.0
 21
50.000000000000028
 31
0.0
  0
ARC
  5
7C
  8
0
 10
314.09557139575219
 20
55.029576022254901
 30
0.0
 40
1.5
 50
175.7117638384299
 51
259.35653264007209
  0
ARC
  5
7D
  8
0
 10
355.90442860424781
 20
55.029576022254922
 30
0.0
 40
1.5
 50
280.64346735992939
 51
4.2882361615712012
  0
ARC
  5
7E
  8
0
 10
335.0
 20
166.26461828959739
 30
0.0
 40
114.6822855551502
 50
259.35653264007169
 51
259.4487711516457
  0
LINE
  5
7F
  8
0
 10
352.5
 20
89.500000000000014
 30
0.0
 11
355.0
 21
87.151665641779886
 31
0.0
  0
LINE
  5
80
  8
0
 10
317.49999999999989
 20
89.500000000000014
 30
0.0
 11
314.99999999999989
 21
87.151665641779886
 31
0.0
  0
LINE
  5
81
  8
0
 10
355.0
 20
87.151665641779914
 30
0.0
 11
357.40022936469882
 21
55.14173700046905
 31
0.0
  0
LINE
  5
82
  8
0
 10
314.99999999999989
 20
87.151665641779914
 30
0.0
 11
312.59977063530113
 21
55.141737000468993
 31
0.0
  0
LINE
  5
83
  8
0
 10
355.0
 20
87.151665641779914
 30
0.0
 11
347.796330190329
 21
87.151665641779886
 31
0.0
  0
LINE
  5
84
  8
0
 10
352.5
 20
89.500000000000014
 30
0.0
 11
346.7986643609222
 21
89.500000000000014
 31
0.0
  0
LINE
  5
85
  8
1
 10
334.99999999999989
 20
184.99999999999989
 30
0.0
 11
335.0
 21
45.0
 31
0.0
  0
LINE
  5
86
  8
0
 10
323.51519418945952
 20
90.000000000000028
 30
0.0
 11
346.48480581054201
 21
90.0
 31
0.0
  0
LINE
  5
87
  8
0
 10
323.57933027948991
 20
70.957318703037032
 30
0.0
 11
326.97702419404192
 21
70.957318703037004
 31
0.0
  0
LINE
  5
88
  8
0
 10
323.21584598720278
 20
89.719764964095816
 30
0.0
 11
322.08258909087942
 21
72.556140837826007
 31
0.0
  0
LINE
  5
89
  8
0
 10
346.78415401279869
 20
89.719764964095788
 30
0.0
 11
347.9174107317948
 21
72.556143523515914
 31
0.0
  0
LINE
  5
8A
  8
0
 10
323.20133563907939
 20
89.500000000000014
 30
0.0
 11
317.49999999999989
 21
89.500000000000014
 31
0.0
  0
LINE
  5
8B
  8
0
 10
322.20366980967088
 20
87.151665641779886
 30
0.0
 11
315.0
 21
87.151665641779914
 31
0.0
  0
ARC
  5
8C
  8
0
 10
323.57933027948991
 20
72.457318703037004
 30
0.0
 40
1.5
 50
176.222433732513
 51
270.0
  0
ARC
  5
8D
  8
0
 10
346.42066972051151
 20
72.457318703036975
 30
0.0
 40
1.5
 50
270.0
 51
3.777566267486264
  0
ARC
  5
8E
  8
0
 10
334.99999999999977
 20
36.080162891095192
 30
0.0
 40
35.788044628247732
 50
77.045316440824493
 51
102.9546835591749
  0
LINE
  5
8F
  8
0
 10
343.02297580595769
 20
70.957318703037004
 30
0.0
 11
346.42066972051151
 21
70.957318703036975
 31
0.0
  0
ARC
  5
90
  8
0
 10
334.99999999999977
 20
36.562398146786272
 30
0.0
 40
35.788044628247732
 50
77.045316440824493
 51
102.9546835591749
  0
LINE
  5
91
  8
0
 10
314.0
 20
53.922526382622493
 30
0.0
 11
318.10577036852868
 21
53.922526382622493
 31
0.0
  0
ARC
  5
92
  8
0
 10
335.0
 20
166.26461828959739
 30
0.0
 40
114.6822855551502
 50
280.55122884835419
 51
280.64346735992831
  0
LINE
  5
93
  8
0
 10
326.97702419404192
 20
70.957318703037004
 30
0.0
 11
318.10577036852868
 21
53.922526382622458
 31
0.0
  0
LINE
  5
94
  8
0
 10
343.02297580595808
 20
70.957318703037004
 30
0.0
 11
351.89422963147121
 21
53.922526382622458
 31
0.0
  0
LINE
  5
95
  8
0
 10
351.89422963147121
 20
53.922526382622493
 30
0.0
 11
356.0
 21
53.922526382622493
 31
0.0
  0
LINE
  5
96
  8
0
 10
321.97702419404197
 20
70.957318703036975
 30
0.0
 11
314.2316028188821
 21
56.084376596421379
 31
0.0
  0
LINE
  5
97
  8
0
 10
348.0229758059578
 20
70.957318703036975
 30
0.0
 11
355.76839718111779
 21
56.084376596421379
 31
0.0
  0
ARC
  5
98
  8
0
 10
286.40281503109372
 20
73.687871426292759
 30
0.0
 40
1.5
 50
276.11666666666662
 51
3.9999999999997509
  0
ARC
  5
99
  8
0
 10
278.84597832645471
 20
109.5572661517498
 30
0.0
 40
23.0
 50
242.47141640582521
 51
260.37398322612
  0
LINE
  5
9A
  8
0
 10
315.02660460919333
 20
81.700149036199434
 30
0.0
 11
318.02253079251608
 21
84.512416555662355
 31
0.0
  0
LINE
  5
9B
  8
0
 10
318.02253079251608
 20
84.512416555662355
 30
0.0
 11
323.08292854855438
 21
87.706677760137609
 31
0.0
  0
LINE
  5
9C
  8
0
 10
314.56959277907538
 20
81.411670693328134
 30
0.0
 11
323.01946248540048
 21
86.745459120054363
 31
0.0
  0
LINE
  5
9D
  8
0
 10
354.97339539080667
 20
81.700149036199434
 30
0.0
 11
351.97746920748381
 21
84.512416555662355
 31
0.0
  0
LINE
  5
9E
  8
0
 10
351.97746920748381
 20
84.512416555662355
 30
0.0
 11
346.91707145144551
 21
87.706677760137609
 31
0.0
  0
LINE
  5
9F
  8
0
 10
355.43040722092439
 20
81.411670693328134
 30
0.0
 11
346.9805375145994
 21
86.745459120054363
 31
0.0
  0
LINE
  5
A0
  8
0
 10
341.0
 20
90.299999999999983
 30
0.0
 11
341.0
 21
90.0
 31
0.0
  0
LINE
  5
A1
  8
0
 10
329.0
 20
90.299999999999983
 30
0.0
 11
329.0
 21
90.0
 31
0.0
  0
ARC
  5
A2
  8
0
 10
344.8627113799277
 20
91.550000000000011
 30
0.0
 40
1.25
 50
270.0
 51
354.59378782770523
  0
ARC
  5
A3
  8
0
 10
325.13728862007218
 20
91.550000000000011
 30
0.0
 40
1.25
 50
185.4062121722946
 51
269.99999999999989
  0
LINE
  5
A4
  8
0
 10
349.00000000000011
 20
122.0
 30
0.0
 11
346.10715107400142
 21
91.432229681948854
 31
0.0
  0
LINE
  5
A5
  8
0
 10
321.0
 20
122.0
 30
0.0
 11
323.89284892599852
 21
91.432229681948854
 31
0.0
  0
LINE
  5
A6
  8
0
 10
344.8627113799277
 20
90.300000000000011
 30
0.0
 11
325.13728862007218
 21
90.300000000000011
 31
0.0
  0
LINE
  5
A7
  8
0
 10
349.0
 20
122.0
 30
0.0
 11
321.0
 21
122.0
 31
0.0
  0
LINE
  5
A8
  8
0
 10
322.00000000000011
 20
176.08687448721139
 30
0.0
 11
348.0
 21
176.0868744872117
 31
0.0
  0
ARC
  5
A9
  8
0
 10
346.49999999999989
 20
176.0868744872117
 30
0.0
 40
2.5
 50
0.0
 51
75.989171925123543
  0
ARC
  5
AA
  8
0
 10
323.49999999999989
 20
176.08687448721139
 30
0.0
 40
2.5
 50
104.0108280748774
 51
180.0
  0
ARC
  5
AB
  8
0
 10
335.0
 20
130.0
 30
0.0
 40
50.0
 50
75.989171925123046
 51
104.010828074877
  0
LINE
  5
AC
  8
0
 10
349.0
 20
176.0868744872117
 30
0.0
 11
349.00000000000011
 21
122.0
 31
0.0
  0
LINE
  5
AD
  8
0
 10
321.0
 20
122.0
 30
0.0
 11
321.0
 21
176.08687448721139
 31
0.0
  0
ARC
  5
AE
  8
0
 10
323.51519418945952
 20
89.700000000000017
 30
0.0
 40
0.3
 50
90.0
 51
176.22243373251271
  0
ARC
  5
AF
  8
0
 10
346.48480581054201
 20
89.699999999999974
 30
0.0
 40
0.3
 50
3.7775662674863408
 51
89.999999999999915
  0
LINE
  5
B9
  8
2
 10
99.999999999999659
 20
84.000000000000369
 30
0.0
 11
129.9999999999996
 21
84.000000000000369
 31
0.0
  0
LINE
  5
BA
  8
2
 10
99.999999999999659
 20
84.000000000000369
 30
0.0
 11
99.999999999999659
 21
50.000000000000369
 31
0.0
  0
LINE
  5
BB
  8
2
 10
129.9999999999996
 20
84.000000000000369
 30
0.0
 11
129.9999999999996
 21
50.000000000000369
 31
0.0
  0
LINE
  5
BC
  8
2
 10
102.9791847198284
 20
84.000000000000341
 30
0.0
 11
102.9791847198284
 21
50.000000000000341
 31
0.0
  0
LINE
  5
BD
  8
2
 10
127.02081528017069
 20
84.000000000000369
 30
0.0
 11
127.02081528017069
 21
50.000000000000369
 31
0.0
  0
LINE
  5
BE
  8
2
 10
114.9999999999996
 20
84.000000000000369
 30
0.0
 11
114.9999999999996
 21
50.000000000000341
 31
0.0
  0
LINE
  5
BF
  8
2
 10
101.39999999999959
 20
84.000000000000369
 30
0.0
 11
101.0154025343104
 21
89.500000000000341
 31
0.0
  0
LINE
  5
C0
  8
2
 10
128.59999999999951
 20
84.000000000000369
 30
0.0
 11
128.98459746568889
 21
89.500000000000341
 31
0.0
  0
LINE
  5
C1
  8
2
 10
102.9791847198284
 20
84.000000000000369
 30
0.0
 11
114.9999999999996
 21
50.000000000000391
 31
0.0
  0
LINE
  5
C2
  8
2
 10
114.9999999999996
 20
50.000000000000391
 30
0.0
 11
127.02081528017069
 21
84.000000000000369
 31
0.0
  0
LINE
  5
C3
  8
2
 10
127.02081528017069
 20
50.000000000000369
 30
0.0
 11
114.9999999999996
 21
84.000000000000369
 31
0.0
  0
LINE
  5
C4
  8
2
 10
114.9999999999996
 20
84.000000000000369
 30
0.0
 11
102.9791847198284
 21
50.000000000000369
 31
0.0
  0
ARC
  5
C5
  8
2
 10
108.9895923599138
 20
39.039844891608759
 30
0.0
 40
12.5
 50
61.260204708311981
 51
118.7397952916873
  0
ARC
  5
C6
  8
2
 10
121.0104076400861
 20
39.039844891608759
 30
0.0
 40
12.5
 50
61.260204708312671
 51
118.739795291688
  0
CIRCLE
  5
C7
  8
0
 10
115.0
 20
230.0
 30
0.0
 40
13.9845974656892
  0
CIRCLE
  5
C8
  8
0
 10
115.0
 20
230.0
 30
0.0
 40
13.6
  0
LINE
  5
C9
  8
0
 10
115.0
 20
242.02081528017121
 30
0.0
 11
127.02081528017121
 21
230.0
 31
0.0
  0
LINE
  5
CA
  8
0
 10
102.97918471982869
 20
230.0
 30
0.0
 11
115.0
 21
217.9791847198286
 31
0.0
  0
LINE
  5
CB
  8
0
 10
127.02081528017121
 20
230.0
 30
0.0
 11
115.0
 21
217.9791847198286
 31
0.0
  0
LINE
  5
CC
  8
0
 10
115.0
 20
242.02081528017121
 30
0.0
 11
102.97918471982869
 21
230.0
 31
0.0
  0
CIRCLE
  5
CD
  8
0
 10
275.0
 20
230.0
 30
0.0
 40
14.0
  0
LINE
  5
CE
  8
0
 10
125.5719222144764
 20
213.02253079251611
 30
0.0
 11
264.98200763834677
 21
220.2204381978608
 31
0.0
  0
LINE
  5
CF
  8
0
 10
125.5719222144764
 20
246.97746920748381
 30
0.0
 11
264.98200763834677
 21
239.779561802139
 31
0.0
  0
LINE
  5
D0
  8
0
 10
116.03125
 20
210.02660460919321
 30
0.0
 11
268.00431597470009
 21
217.8731535419073
 31
0.0
  0
LINE
  5
D1
  8
0
 10
116.03125
 20
249.9733953908067
 30
0.0
 11
268.00431597470009
 21
242.1268464580927
 31
0.0
  0
CIRCLE
  5
D2
  8
0
 10
115.0
 20
230.0
 30
0.0
 40
17.5
  0
CIRCLE
  5
D3
  8
0
 10
115.0
 20
230.0
 30
0.0
 40
20.0
  0
LINE
  5
D4
  8
0
 10
116.3359374999999
 20
207.53969566109811
 30
0.0
 11
270.58488989753891
 21
216.7144137207583
 31
0.0
  0
LINE
  5
D5
  8
0
 10
116.3359374999999
 20
252.46030433890181
 30
0.0
 11
270.58488989754028
 21
243.2855862792415
 31
0.0
  0
LINE
  5
D6
  8
1
 10
275.0
 20
249.0
 30
0.0
 11
275.0
 21
211.0
 31
0.0
  0
LINE
  5
D7
  8
1
 10
115.0
 20
257.5
 30
0.0
 11
115.0
 21
202.49999999999989
 31
0.0
  0
LINE
  5
D8
  8
1
 10
294.0
 20
230.0
 30
0.0
 11
87.5
 21
230.0
 31
0.0
  0
ARC
  5
D9
  8
0
 10
115.0
 20
230.0
 30
0.0
 40
22.5
 50
86.596061054284263
 51
273.40393894571571
  0
ENDSEC
  0
EOF
