  0
SECTION
  2
HEADER
  9
$ACADVER
  1
AC1009
  9
$INSBASE
 10
0.0
 20
0.0
 30
0.0
  9
$EXTMIN
 10
40.100098576047571
 20
58.988342982470499
 30
-0.0015258207003583
  9
$EXTMAX
 10
349.8630532120157
 20
255.011902466663
 30
0.0000000349246037
  9
$LIMMIN
 10
0.0
 20
0.0
  9
$LIMMAX
 10
375.0
 20
270.0
  9
$ORTHOMODE
 70
     1
  9
$REGENMODE
 70
     1
  9
$FILLMODE
 70
     1
  9
$QTEXTMODE
 70
     0
  9
$MIRRTEXT
 70
     0
  9
$DRAGMODE
 70
     2
  9
$LTSCALE
 40
10.0
  9
$OSMODE
 70
   231
  9
$ATTMODE
 70
     1
  9
$TEXTSIZE
 40
8.0000000000000497
  9
$TRACEWID
 40
0.05
  9
$TEXTSTYLE
  7
STANDARD
  9
$CLAYER
  8
0
  9
$CELTYPE
  6
BYLAYER
  9
$CECOLOR
 62
   256
  9
$DIMSCALE
 40
1.0
  9
$DIMASZ
 40
3.0
  9
$DIMEXO
 40
2.0
  9
$DIMDLI
 40
0.38
  9
$DIMRND
 40
0.0
  9
$DIMDLE
 40
0.0
  9
$DIMEXE
 40
2.0
  9
$DIMTP
 40
0.0
  9
$DIMTM
 40
0.0
  9
$DIMTXT
 40
3.2000000000000002
  9
$DIMCEN
 40
0.0
  9
$DIMTSZ
 40
0.0
  9
$DIMTOL
 70
     0
  9
$DIMLIM
 70
     0
  9
$DIMTIH
 70
     0
  9
$DIMTOH
 70
     0
  9
$DIMSE1
 70
     0
  9
$DIMSE2
 70
     0
  9
$DIMTAD
 70
     1
  9
$DIMZIN
 70
     0
  9
$DIMBLK
  1

  9
$DIMASO
 70
     1
  9
$DIMSHO
 70
     0
  9
$DIMPOST
  1

  9
$DIMAPOST
  1

  9
$DIMALT
 70
     0
  9
$DIMALTD
 70
     2
  9
$DIMALTF
 40
25.399999999999999
  9
$DIMLFAC
 40
1.0
  9
$DIMTOFL
 70
     1
  9
$DIMTVP
 40
1.6000000000000001
  9
$DIMTIX
 70
     1
  9
$DIMSOXD
 70
     0
  9
$DIMSAH
 70
     0
  9
$DIMBLK1
  1

  9
$DIMBLK2
  1

  9
$DIMSTYLE
  2
STANDARD
  9
$DIMCLRD
 70
     0
  9
$DIMCLRE
 70
     0
  9
$DIMCLRT
 70
     0
  9
$DIMTFAC
 40
1.0
  9
$DIMGAP
 40
0.09
  9
$LUNITS
 70
     2
  9
$LUPREC
 70
     4
  9
$SKETCHINC
 40
0.1
  9
$FILLETRAD
 40
0.3
  9
$AUNITS
 70
     0
  9
$AUPREC
 70
     4
  9
$MENU
  1
E:\r13\win\SUPPORT\ACAD
  9
$ELEVATION
 40
0.0
  9
$PELEVATION
 40
0.0
  9
$THICKNESS
 40
0.0
  9
$LIMCHECK
 70
     0
  9
$BLIPMODE
 70
     1
  9
$CHAMFERA
 40
0.0
  9
$CHAMFERB
 40
0.0
  9
$SKPOLY
 70
     0
  9
$TDCREATE
 40
2449839.7903819438
  9
$TDUPDATE
 40
2453236.76474971
  9
$TDINDWG
 40
0.0001414352
  9
$TDUSRTIMER
 40
0.0001414352
  9
$USRTIMER
 70
     1
  9
$ANGBASE
 50
0.0
  9
$ANGDIR
 70
     0
  9
$PDMODE
 70
     0
  9
$PDSIZE
 40
0.0
  9
$PLINEWID
 40
0.0
  9
$COORDS
 70
     0
  9
$SPLFRAME
 70
     0
  9
$SPLINETYPE
 70
     6
  9
$SPLINESEGS
 70
     8
  9
$ATTDIA
 70
     0
  9
$ATTREQ
 70
     1
  9
$HANDLING
 70
-16383
  9
$HANDSEED
  5
18D
  9
$SURFTAB1
 70
     6
  9
$SURFTAB2
 70
     6
  9
$SURFTYPE
 70
     6
  9
$SURFU
 70
     6
  9
$SURFV
 70
     6
  9
$UCSNAME
  2

  9
$UCSORG
 10
0.0
 20
0.0
 30
0.0
  9
$UCSXDIR
 10
1.0
 20
0.0
 30
0.0
  9
$UCSYDIR
 10
0.0
 20
1.0
 30
0.0
  9
$PUCSNAME
  2

  9
$PUCSORG
 10
0.0
 20
0.0
 30
0.0
  9
$PUCSXDIR
 10
1.0
 20
0.0
 30
0.0
  9
$PUCSYDIR
 10
0.0
 20
1.0
 30
0.0
  9
$USERI1
 70
     0
  9
$USERI2
 70
     1
  9
$USERI3
 70
     1
  9
$USERI4
 70
     0
  9
$USERI5
 70
     0
  9
$USERR1
 40
0.0
  9
$USERR2
 40
0.0
  9
$USERR3
 40
0.0
  9
$USERR4
 40
0.0
  9
$USERR5
 40
0.0
  9
$WORLDVIEW
 70
     1
  9
$SHADEDGE
 70
     3
  9
$SHADEDIF
 70
    70
  9
$TILEMODE
 70
     1
  9
$MAXACTVP
 70
    16
  9
$PLIMCHECK
 70
     0
  9
$PEXTMIN
 10
1.0000000000000000E+020
 20
1.0000000000000000E+020
 30
1.0000000000000000E+020
  9
$PEXTMAX
 10
-1.0000000000000000E+020
 20
-1.0000000000000000E+020
 30
-1.0000000000000000E+020
  9
$PLIMMIN
 10
0.0
 20
0.0
  9
$PLIMMAX
 10
12.0
 20
9.0
  9
$UNITMODE
 70
     0
  9
$VISRETAIN
 70
     0
  9
$PLINEGEN
 70
     0
  9
$PSLTSCALE
 70
     0
  0
ENDSEC
  0
SECTION
  2
TABLES
  0
TABLE
  2
VPORT
 70
     3
  0
VPORT
  2
*ACTIVE
 70
     0
 10
0.0
 20
0.0
 11
1.0
 21
1.0
 12
194.98157589403161
 22
157.00012272456669
 13
0.0
 23
0.0
 14
10.0
 24
10.0
 15
10.0
 25
10.0
 16
0.0
 26
0.0
 36
1.0
 17
0.0
 27
0.0
 37
0.0
 40
368.94366312370931
 41
0.9407114624505929
 42
50.0
 43
0.0
 44
0.0
 50
0.0
 51
0.0
 71
     0
 72
   500
 73
     1
 74
     0
 75
     0
 76
     0
 77
     0
 78
     2
  0
ENDTAB
  0
TABLE
  2
LTYPE
 70
     3
  0
LTYPE
  2
CONTINUOUS
 70
     0
  3
Solid Line
 72
    65
 73
     0
 40
0.0
  0
LTYPE
  2
CENTER
 70
     0
  3
____ _ ____ _ ____ _ ____ _ ____ _ ____ _ ____
 72
    65
 73
     4
 40
2.0
 49
1.25
 49
-0.25
 49
0.25
 49
-0.25
  0
LTYPE
  2
HIDDEN
 70
     0
  3
_ _ _ _ _ _ _ _ _ _ _ _ _ _ _ _ _ _ _ _ _ _ _
 72
    65
 73
     2
 40
0.375
 49
0.25
 49
-0.125
  0
ENDTAB
  0
TABLE
  2
LAYER
 70
     3
  0
LAYER
  2
0
 70
     0
 62
     7
  6
CONTINUOUS
  0
LAYER
  2
1
 70
     0
 62
     1
  6
CENTER
  0
LAYER
  2
2
 70
     0
 62
     2
  6
HIDDEN
  0
ENDTAB
  0
TABLE
  2
STYLE
 70
     1
  0
STYLE
  2
STANDARD
 70
     0
 40
0.0
 41
1.0
 50
0.0
 71
     0
 42
8.0000000000000497
  3
TXT
  4
BIGFONT
  0
ENDTAB
  0
TABLE
  2
VIEW
 70
     1
  0
VIEW
  2
ALL
 70
     0
 40
270.0
 10
220.99159663865541
 20
135.0
 41
0.0
 11
0.0
 21
0.0
 31
1.0
 12
0.0
 22
0.0
 32
0.0
 42
0.0
 43
0.0
 44
0.0
 50
0.0
 71
     0
  0
ENDTAB
  0
TABLE
  2
UCS
 70
     0
  0
ENDTAB
  0
TABLE
  2
APPID
 70
     1
  0
APPID
  2
ACAD
 70
     0
  0
ENDTAB
  0
TABLE
  2
DIMSTYLE
 70
     1
  0
DIMSTYLE
  2
STANDARD
 70
     0
  3

  4

  5

  6

  7

 40
1.0
 41
0.18
 42
0.0625
 43
0.38
 44
0.18
 45
0.0
 46
0.0
 47
0.0
 48
0.0
140
0.18
141
0.09
142
0.0
143
25.399999999999999
144
1.0
145
0.0
146
1.0
147
0.09
 71
     0
 72
     0
 73
     1
 74
     1
 75
     0
 76
     0
 77
     0
 78
     0
170
     0
171
     2
172
     0
173
     0
174
     0
175
     0
176
     0
177
     0
178
     0
  0
ENDTAB
  0
ENDSEC
  0
SECTION
  2
BLOCKS
  0
BLOCK
  8
0
  2
$MODEL_SPACE
 70
     0
 10
0.0
 20
0.0
 30
0.0
  3
$MODEL_SPACE
  1

  0
ENDBLK
  5
135
  8
0
  0
BLOCK
 67
     1
  8
0
  2
$PAPER_SPACE
 70
     0
 10
0.0
 20
0.0
 30
0.0
  3
$PAPER_SPACE
  1

  0
ENDBLK
  5
133
 67
     1
  8
0
  0
ENDSEC
  0
SECTION
  2
ENTITIES
  0
LINE
  5
35
  8
0
 10
111.4999999999999
 20
64.0
 30
0.0
 11
148.5
 21
64.0
 31
0.0
  0
CIRCLE
  5
36
  8
0
 10
130.0
 20
230.00000077137679
 30
0.0
 40
15.75
  0
CIRCLE
  5
37
  8
0
 10
130.0
 20
230.00000077137679
 30
0.0
 40
17.75
  0
LINE
  5
38
  8
0
 10
111.6711053383478
 20
65.591875795895788
 30
0.0
 11
270.67110533834767
 21
83.848206409755377
 31
0.0
  0
LINE
  5
39
  8
0
 10
112.2500000000002
 20
96.999999999998835
 30
0.0
 11
110.0042399340101
 21
67.194787202769021
 31
0.0
  0
ARC
  5
3A
  8
0
 10
111.5000000000001
 20
67.082084829283019
 30
0.0
 40
1.5
 50
175.6910257250571
 51
276.55000000000001
  0
LINE
  5
3B
  8
0
 10
112.2500000000002
 20
96.999999999998636
 30
0.0
 11
114.25000000000129
 21
99.0
 31
0.0
  0
LINE
  5
3C
  8
0
 10
111.4999999999999
 20
64.0
 30
0.0
 11
111.4999999999999
 21
65.582084829282422
 31
0.0
  0
LINE
  5
3D
  8
0
 10
148.5
 20
64.0
 30
0.0
 11
148.91030741550031
 21
69.867669411724762
 31
0.0
  0
LINE
  5
3E
  8
0
 10
147.74999999999969
 20
96.999999999998636
 30
0.0
 11
145.74999999999861
 21
99.0
 31
0.0
  0
LINE
  5
3F
  8
0
 10
145.74999999999849
 20
99.0
 30
0.0
 11
114.25000000000129
 21
99.0
 31
0.0
  0
LINE
  5
40
  8
0
 10
147.74999999999969
 20
96.999999999998636
 30
0.0
 11
112.2500000000002
 21
96.999999999998636
 31
0.0
  0
LINE
  5
41
  8
0
 10
249.2794888474568
 20
99.500000000000014
 30
0.0
 11
270.72051115254311
 21
99.500000000000014
 31
0.0
  0
LINE
  5
42
  8
0
 10
130.92163461538459
 20
247.72605757021739
 30
0.0
 11
253.65229615749101
 21
241.34489636048599
 31
0.0
  0
LINE
  5
43
  8
0
 10
255.7479379743653
 20
242.28494963289711
 30
0.0
 11
131.2307692307692
 21
249.96209502775659
 31
0.0
  0
LINE
  5
44
  8
0
 10
138.99209990676471
 20
245.3037466940836
 30
0.0
 11
251.0991300958232
 21
239.4749421933013
 31
0.0
  0
LINE
  5
45
  8
0
 10
138.99209990676471
 20
214.69625484866989
 30
0.0
 11
251.0991300958224
 21
220.52505934945211
 31
0.0
  0
LINE
  5
46
  8
0
 10
255.74793797436669
 20
217.71505190985661
 30
0.0
 11
131.2307692307692
 21
210.03790651499691
 31
0.0
  0
LINE
  5
47
  8
0
 10
130.92163461538459
 20
212.2739439725361
 30
0.0
 11
253.65229615749101
 21
218.6551051822675
 31
0.0
  0
ARC
  5
48
  8
0
 10
130.0
 20
230.00000077137679
 30
0.0
 40
20.0
 50
86.471876658712048
 51
273.52812334128788
  0
LINE
  5
49
  8
1
 10
260.0
 20
248.00000077137659
 30
0.0
 11
260.0
 21
212.00000077137651
 31
0.0
  0
LINE
  5
4A
  8
1
 10
278.0000000000004
 20
230.0000007713767
 30
0.0
 11
104.9999999999996
 21
230.0000007713767
 31
0.0
  0
LINE
  5
4B
  8
1
 10
130.0
 20
255.0000007713769
 30
0.0
 11
130.0
 21
205.00000077137659
 31
0.0
  0
LINE
  5
4C
  8
0
 10
147.74999999999969
 20
96.999999999998636
 30
0.0
 11
147.86658638606491
 21
95.452692209396162
 31
0.0
  0
ARC
  5
4D
  8
0
 10
149.36234645205491
 20
95.56539458288222
 30
0.0
 40
1.5
 50
184.30897427494369
 51
272.29999999999978
  0
LINE
  5
4E
  8
0
 10
138.99209990676411
 20
93.647673074198565
 30
0.0
 11
254.11445905540899
 21
98.271464656499305
 31
0.0
  0
LINE
  5
4F
  8
0
 10
260.57115384613672
 20
96.529179799093129
 30
0.0
 11
130.92163461538459
 21
91.321917195185108
 31
0.0
  0
ARC
  5
50
  8
0
 10
129.71402662010161
 20
110.6776604319524
 30
0.0
 40
19.39337807907469
 50
273.57006568101821
 51
298.58190165036518
  0
LINE
  5
51
  8
0
 10
271.01976039887779
 20
99.221210576798583
 30
0.0
 11
271.99624623167432
 21
85.444468327135638
 31
0.0
  0
LINE
  5
52
  8
0
 10
248.98023960112221
 20
99.221210576798626
 30
0.0
 11
248.89807223100851
 21
98.061952919013606
 31
0.0
  0
ARC
  5
53
  8
0
 10
270.5
 20
85.338415443142608
 30
0.0
 40
1.5000000000009079
 50
276.55000000000052
 51
4.0543043185882661
  0
ARC
  5
54
  8
0
 10
249.2794888474568
 20
99.200000000000017
 30
0.0
 40
0.3
 50
90.0
 51
175.9456956814104
  0
ARC
  5
55
  8
0
 10
270.72051115254311
 20
99.199999999999989
 30
0.0
 40
0.3
 50
4.0543043185881453
 51
89.999999999999986
  0
CIRCLE
  5
56
  8
0
 10
260.0
 20
230.00000077137679
 30
0.0
 40
13.0
  0
LINE
  5
57
  8
0
 10
254.0
 20
99.800000000000253
 30
0.0
 11
254.0
 21
99.500000000000014
 31
0.0
  0
LINE
  5
58
  8
0
 10
266.0
 20
99.500000000000014
 30
0.0
 11
266.0
 21
99.800000000000253
 31
0.0
  0
LINE
  5
59
  8
0
 10
249.42288539146691
 20
100.7161215493732
 30
0.0
 11
247.0
 21
129.49999999999989
 31
0.0
  0
LINE
  5
5A
  8
0
 10
247.0
 20
129.49999999999989
 30
0.0
 11
273.0
 21
129.49999999999989
 31
0.0
  0
ARC
  5
5B
  8
0
 10
250.4193613849159
 20
100.8000000000002
 30
0.0
 40
1.0
 50
184.81153450167801
 51
269.99999999999989
  0
ARC
  5
5C
  8
0
 10
269.5806386150839
 20
100.8000000000002
 30
0.0
 40
1.0
 50
270.00000000000011
 51
355.18846549832188
  0
LINE
  5
5D
  8
0
 10
270.57711460853301
 20
100.7161215493732
 30
0.0
 11
273.0
 21
129.49999999999989
 31
0.0
  0
LINE
  5
5E
  8
0
 10
250.4193613849159
 20
99.800000000000253
 30
0.0
 11
269.5806386150839
 21
99.800000000000253
 31
0.0
  0
ARC
  5
5F
  8
0
 10
249.25
 20
176.024187257813
 30
0.0
 40
2.2499999999994569
 50
103.0105750854502
 51
180.0
  0
ARC
  5
60
  8
0
 10
270.74999999999989
 20
176.024187257813
 30
0.0
 40
2.2499999999994569
 50
360.0
 51
76.989424914549716
  0
ARC
  5
61
  8
0
 10
260.0
 20
129.49999999999989
 30
0.0
 40
50.0
 50
76.989424914549772
 51
103.0105750854502
  0
LINE
  5
62
  8
0
 10
248.49999999999989
 20
176.024187257813
 30
0.0
 11
271.49999999999989
 21
176.024187257813
 31
0.0
  0
LINE
  5
63
  8
0
 10
247.00000000000051
 20
176.024187257813
 30
0.0
 11
247.0
 21
129.49999999999989
 31
0.0
  0
LINE
  5
64
  8
0
 10
272.99999999999932
 20
176.024187257813
 30
0.0
 11
273.0
 21
129.49999999999989
 31
0.0
  0
LINE
  5
65
  8
1
 10
260.0
 20
77.590102425333967
 30
0.0
 11
260.0
 21
184.49999999999989
 31
0.0
  0
CIRCLE
  5
66
  8
0
 10
130.0
 20
230.00000077137679
 30
0.0
 40
12.75
  0
LINE
  5
67
  8
1
 10
130.0
 20
104.0
 30
0.0
 11
130.0
 21
59.000000000000007
 31
0.0
  0
CIRCLE
  5
68
  8
0
 10
130.0
 20
230.00000077137679
 30
0.0
 40
6.9999999999998863
  0
CIRCLE
  5
69
  8
0
 10
130.0
 20
230.00000077137679
 30
0.0
 40
13.043692610162729
  0
ARC
  5
6A
  8
0
 10
260.78100842497281
 20
109.9914164541336
 30
0.0
 40
13.46387220306813
 50
240.50099304894721
 51
269.10692344740897
  0
LINE
  5
6B
  8
0
 10
341.22362639955043
 20
96.344968802052875
 30
0.0
 11
347.72605679884049
 21
91.321917195185108
 31
0.0
  0
LINE
  5
6C
  8
0
 10
347.08553809521021
 20
67.802215588181014
 30
0.0
 11
348.49999999999989
 21
67.802215588181014
 31
0.0
  0
LINE
  5
6D
  8
0
 10
311.5
 20
67.802215588181014
 30
0.0
 11
312.91446190478848
 21
67.802215588181014
 31
0.0
  0
LINE
  5
6E
  8
0
 10
338.75477646233929
 20
82.622953409301275
 30
0.0
 11
347.08553809521021
 21
67.802215588181014
 31
0.0
  0
LINE
  5
6F
  8
0
 10
312.91446190478848
 20
67.802215588181014
 30
0.0
 11
321.24522353765821
 21
82.622953409299996
 31
0.0
  0
ARC
  5
70
  8
0
 10
330.0
 20
153.2755630029387
 30
0.0
 40
87.875563002939032
 50
282.153118416518
 51
282.27575954451152
  0
ARC
  5
71
  8
0
 10
330.0
 20
29.774880969461741
 30
0.0
 40
54.237135485143149
 50
81.158601659705084
 51
98.841398340296493
  0
ARC
  5
72
  8
0
 10
330.0
 20
29.774880969461741
 30
0.0
 40
54.237135485143149
 50
102.9951563791347
 51
102.9951563791353
  0
LINE
  5
73
  8
0
 10
338.7547764623402
 20
82.622953409300806
 30
0.0
 11
340.5861510968889
 21
82.622953409300848
 31
0.0
  0
ARC
  5
74
  8
0
 10
330.00000000000119
 20
46.526963018299739
 30
0.0
 40
37.142517863128163
 50
76.366658652354246
 51
103.6333413476524
  0
LINE
  5
75
  8
0
 10
342.19623323109352
 20
82.622953409301275
 30
0.0
 11
349.33896534315591
 21
69.915764724213716
 31
0.0
  0
ARC
  5
76
  8
0
 10
340.58615109688873
 20
84.122953409300862
 30
0.0
 40
1.5
 50
270.00000000000159
 51
4.0543043185880556
  0
LINE
  5
77
  8
0
 10
341.01976039887768
 20
99.221210576798626
 30
0.0
 11
342.08239732856208
 21
84.229006293293793
 31
0.0
  0
ARC
  5
78
  8
0
 10
319.41384890311122
 20
84.122953409300237
 30
0.0
 40
1.5
 50
175.94569568141171
 51
270.00000000000159
  0
LINE
  5
79
  8
0
 10
319.41384890311127
 20
82.622953409300223
 30
0.0
 11
321.24522353766309
 21
82.622953409300294
 31
0.0
  0
LINE
  5
7A
  8
0
 10
318.98023960112221
 20
99.221210576798626
 30
0.0
 11
317.91760267143781
 21
84.229006293293196
 31
0.0
  0
LINE
  5
7B
  8
0
 10
317.80376676890631
 20
82.622953409301275
 30
0.0
 11
310.66103465684381
 21
69.915764724213716
 31
0.0
  0
LINE
  5
7C
  8
0
 10
318.7763736004494
 20
96.344968802052875
 30
0.0
 11
312.27394320115923
 21
91.321917195185108
 31
0.0
  0
LINE
  5
7D
  8
0
 10
318.96456035051312
 20
99.0
 30
0.0
 11
314.25000000000131
 21
99.0
 31
0.0
  0
LINE
  5
7E
  8
0
 10
318.82280175256568
 20
96.999999999998636
 30
0.0
 11
312.25000000000023
 21
96.999999999998636
 31
0.0
  0
ARC
  5
7F
  8
0
 10
330.0
 20
29.774880969461741
 30
0.0
 40
54.237135485143149
 50
77.004843620864548
 51
77.004843620865273
  0
LINE
  5
80
  8
1
 10
330.0
 20
109.0
 30
0.0
 11
330.0
 21
59.000000000000007
 31
0.0
  0
LINE
  5
81
  8
0
 10
347.74999999999972
 20
96.999999999998636
 30
0.0
 11
341.17719824743421
 21
96.999999999998636
 31
0.0
  0
LINE
  5
82
  8
0
 10
345.74999999999858
 20
99.0
 30
0.0
 11
341.03543964948682
 21
99.0
 31
0.0
  0
LINE
  5
83
  8
0
 10
347.74999999999972
 20
96.999999999998636
 30
0.0
 11
345.74999999999858
 21
99.0
 31
0.0
  0
LINE
  5
84
  8
0
 10
311.5
 20
64.0
 30
0.0
 11
311.5
 21
67.802215588181014
 31
0.0
  0
LINE
  5
85
  8
0
 10
312.25000000000023
 20
96.999999999998636
 30
0.0
 11
314.25000000000131
 21
99.0
 31
0.0
  0
LINE
  5
86
  8
0
 10
311.5
 20
64.0
 30
0.0
 11
348.49999999999989
 21
64.0
 31
0.0
  0
LINE
  5
87
  8
0
 10
342.99999999999932
 20
176.024187257813
 30
0.0
 11
343.0
 21
129.49999999999989
 31
0.0
  0
LINE
  5
88
  8
0
 10
317.00000000000051
 20
176.024187257813
 30
0.0
 11
317.0
 21
129.49999999999989
 31
0.0
  0
LINE
  5
89
  8
0
 10
318.5
 20
176.024187257813
 30
0.0
 11
341.5
 21
176.024187257813
 31
0.0
  0
ARC
  5
8A
  8
0
 10
330.0
 20
129.49999999999989
 30
0.0
 40
50.0
 50
76.989424914549772
 51
103.0105750854502
  0
ARC
  5
8B
  8
0
 10
340.74999999999977
 20
176.024187257813
 30
0.0
 40
2.2499999999994569
 50
360.0
 51
76.989424914549716
  0
ARC
  5
8C
  8
0
 10
319.24999999999989
 20
176.024187257813
 30
0.0
 40
2.2499999999994569
 50
103.0105750854502
 51
180.0
  0
LINE
  5
8D
  8
0
 10
320.41936138491599
 20
99.800000000000253
 30
0.0
 11
339.5806386150839
 21
99.800000000000253
 31
0.0
  0
LINE
  5
8E
  8
0
 10
340.57711460853301
 20
100.7161215493732
 30
0.0
 11
343.0
 21
129.49999999999989
 31
0.0
  0
ARC
  5
8F
  8
0
 10
339.5806386150839
 20
100.8000000000002
 30
0.0
 40
1.0
 50
270.00000000000011
 51
355.18846549832188
  0
ARC
  5
90
  8
0
 10
320.41936138491599
 20
100.8000000000002
 30
0.0
 40
1.0
 50
184.81153450167801
 51
269.99999999999989
  0
LINE
  5
91
  8
0
 10
317.0
 20
129.49999999999989
 30
0.0
 11
343.0
 21
129.49999999999989
 31
0.0
  0
LINE
  5
92
  8
0
 10
319.42288539146688
 20
100.7161215493732
 30
0.0
 11
317.0
 21
129.49999999999989
 31
0.0
  0
LINE
  5
93
  8
1
 10
330.0
 20
72.622953409301346
 30
0.0
 11
330.0
 21
184.49999999999989
 31
0.0
  0
LINE
  5
94
  8
0
 10
319.27948884745678
 20
99.500000000000014
 30
0.0
 11
340.72051115254311
 21
99.500000000000014
 31
0.0
  0
ARC
  5
95
  8
0
 10
319.27948884745678
 20
99.200000000000017
 30
0.0
 40
0.3
 50
90.0
 51
175.9456956814104
  0
ARC
  5
96
  8
0
 10
340.72051115254311
 20
99.199999999999989
 30
0.0
 40
0.3
 50
4.0543043185881453
 51
89.999999999999986
  0
LINE
  5
97
  8
0
 10
324.0
 20
99.800000000000253
 30
0.0
 11
324.0
 21
99.500000000000014
 31
0.0
  0
LINE
  5
98
  8
0
 10
324.0
 20
99.500000000000014
 30
0.0
 11
336.0
 21
99.500000000000014
 31
0.0
  0
LINE
  5
99
  8
0
 10
336.0
 20
99.500000000000014
 30
0.0
 11
336.0
 21
99.800000000000253
 31
0.0
  0
LINE
  5
9A
  8
0
 10
347.74999999999972
 20
96.999999999998835
 30
0.0
 11
349.86067339741101
 21
68.987626502040754
 31
0.0
  0
ARC
  5
9B
  8
0
 10
348.36491333142152
 20
68.874924128554824
 30
0.0
 40
1.499999999999428
 50
282.27575954451243
 51
4.3089742749428463
  0
ARC
  5
9C
  8
0
 10
311.63508666857842
 20
68.874924128554824
 30
0.0
 40
1.499999999999428
 50
175.6910257250571
 51
257.72424045548752
  0
LINE
  5
9D
  8
0
 10
312.25000000000023
 20
96.999999999998835
 30
0.0
 11
310.13932660258899
 21
68.987626502040754
 31
0.0
  0
LINE
  5
9E
  8
0
 10
348.49999999999989
 20
64.0
 30
0.0
 11
348.49999999999989
 21
67.802215588181014
 31
0.0
  0
ARC
  5
9F
  8
0
 10
330.0
 20
153.2755630029387
 30
0.0
 40
87.875563002939032
 50
257.72424045548848
 51
257.846881583482
  0
LINE
  5
A0
  8
0
 10
75.749999228623921
 20
98.999999999999986
 30
0.0
 11
44.249999228622499
 21
98.999999999999986
 31
0.0
  0
LINE
  5
A1
  8
0
 10
77.726056027463841
 20
96.999999999998636
 30
0.0
 11
42.249999228622663
 21
96.999999999998664
 31
0.0
  0
LINE
  5
A2
  8
0
 10
42.249999228622613
 20
96.999999999998593
 30
0.0
 11
40.101095287815781
 21
69.013051169317293
 31
0.0
  0
LINE
  5
A3
  8
0
 10
77.726056027463869
 20
96.999999999998593
 30
0.0
 11
79.897749493139997
 21
69.014054661037534
 31
0.0
  0
LINE
  5
A4
  8
0
 10
44.249999228622507
 20
99.0
 30
0.0
 11
42.249999228622592
 21
96.999999999998593
 31
0.0
  0
LINE
  5
A5
  8
0
 10
75.749999228623892
 20
99.0
 30
0.0
 11
77.726056027463869
 21
96.999999999998593
 31
0.0
  0
LINE
  5
A6
  8
1
 10
59.99999922862321
 20
184.49999999999989
 30
0.0
 11
59.999999228623203
 21
59.000000000000007
 31
0.0
  0
ARC
  5
A7
  8
0
 10
59.99999922862326
 20
161.232793946985
 30
0.0
 40
95.650709117702078
 50
258.72802563507048
 51
281.27131666678741
  0
ARC
  5
A8
  8
0
 10
41.596693095284053
 20
68.898215642165923
 30
0.0
 40
1.5
 50
175.60930987123319
 51
258.72802563507162
  0
ARC
  5
A9
  8
0
 10
78.402245452304612
 20
68.898004396733882
 30
0.0
 40
1.5
 50
281.27131666678667
 51
4.4372277003688287
  0
LINE
  5
AA
  8
0
 10
41.499999228623182
 20
67.388198179731333
 30
0.0
 11
41.499999228623203
 21
63.999999999999972
 31
0.0
  0
LINE
  5
AB
  8
0
 10
78.499999228623153
 20
67.388198179731233
 30
0.0
 11
78.499999228623182
 21
63.999999999999972
 31
0.0
  0
LINE
  5
AC
  8
0
 10
78.499999228623153
 20
64.0
 30
0.0
 11
41.49999922862321
 21
64.0
 31
0.0
  0
LINE
  5
AD
  8
0
 10
72.999999228622514
 20
176.024187257813
 30
0.0
 11
72.99999922862321
 21
129.49999999999989
 31
0.0
  0
LINE
  5
AE
  8
0
 10
46.999999228623771
 20
176.024187257813
 30
0.0
 11
46.999999228623203
 21
129.49999999999989
 31
0.0
  0
LINE
  5
AF
  8
0
 10
48.49999922862321
 20
176.024187257813
 30
0.0
 11
71.49999922862321
 21
176.024187257813
 31
0.0
  0
ARC
  5
B0
  8
0
 10
59.99999922862321
 20
129.49999999999989
 30
0.0
 40
50.0
 50
76.989424914549772
 51
103.0105750854502
  0
ARC
  5
B1
  8
0
 10
70.749999228623096
 20
176.024187257813
 30
0.0
 40
2.2499999999994569
 50
360.0
 51
76.989424914549716
  0
ARC
  5
B2
  8
0
 10
49.24999922862321
 20
176.024187257813
 30
0.0
 40
2.2499999999994569
 50
103.0105750854502
 51
180.0
  0
LINE
  5
B3
  8
0
 10
50.41936061353919
 20
99.800000000000253
 30
0.0
 11
69.580637843707109
 21
99.800000000000253
 31
0.0
  0
LINE
  5
B4
  8
0
 10
70.577113837156276
 20
100.7161215493732
 30
0.0
 11
72.99999922862321
 21
129.49999999999989
 31
0.0
  0
ARC
  5
B5
  8
0
 10
69.580637843707109
 20
100.8000000000002
 30
0.0
 40
1.0
 50
270.00000000000011
 51
355.18846549832188
  0
ARC
  5
B6
  8
0
 10
50.41936061353919
 20
100.8000000000002
 30
0.0
 40
1.0
 50
184.81153450167801
 51
269.99999999999989
  0
LINE
  5
B7
  8
0
 10
46.999999228623203
 20
129.49999999999989
 30
0.0
 11
72.99999922862321
 21
129.49999999999989
 31
0.0
  0
LINE
  5
B8
  8
0
 10
49.422884620090137
 20
100.7161215493732
 30
0.0
 11
46.999999228623203
 21
129.49999999999989
 31
0.0
  0
LINE
  5
B9
  8
0
 10
65.99999922862321
 20
99.500000000000014
 30
0.0
 11
65.99999922862321
 21
99.800000000000253
 31
0.0
  0
LINE
  5
BA
  8
0
 10
53.99999922862321
 20
99.800000000000253
 30
0.0
 11
53.99999922862321
 21
99.500000000000014
 31
0.0
  0
ARC
  5
BB
  8
0
 10
49.279488076080042
 20
99.200000000000017
 30
0.0
 40
0.3
 50
90.0
 51
180.0
  0
LINE
  5
BC
  8
0
 10
49.279488076080042
 20
99.500000000000014
 30
0.0
 11
70.720510381166363
 21
99.500000000000014
 31
0.0
  0
LINE
  5
BD
  8
0
 10
48.979488076080031
 20
99.200000000000017
 30
0.0
 11
48.979488076080031
 21
98.999999999999986
 31
0.0
  0
LINE
  5
BE
  8
0
 10
71.020510381166389
 20
99.199999999999989
 30
0.0
 11
71.020510381166389
 21
98.999999999999986
 31
0.0
  0
ARC
  5
BF
  8
0
 10
70.720510381166363
 20
99.199999999999989
 30
0.0
 40
0.3
 50
0.0
 51
90.0
  0
LINE
  5
C9
  8
2
 10
115.9999999999998
 20
94.200000000000301
 30
0.0
 11
143.9999999999998
 21
94.200000000000301
 31
0.0
  0
LINE
  5
CA
  8
2
 10
115.9999999999998
 20
94.200000000000301
 30
0.0
 11
115.9999999999998
 21
64.000000000000313
 31
0.0
  0
LINE
  5
CB
  8
2
 10
143.9999999999998
 20
94.200000000000301
 30
0.0
 11
143.9999999999998
 21
64.000000000000313
 31
0.0
  0
LINE
  5
CC
  8
2
 10
142.74999999999969
 20
94.200000000000344
 30
0.0
 11
143.08564869732859
 21
99.000000000000327
 31
0.0
  0
LINE
  5
CD
  8
2
 10
117.2499999999998
 20
94.200000000000344
 30
0.0
 11
116.91435130267099
 21
99.000000000000327
 31
0.0
  0
LINE
  5
CE
  8
2
 10
120.1005050633882
 20
94.200000000000301
 30
0.0
 11
120.1005050633882
 21
64.000000000000313
 31
0.0
  0
LINE
  5
CF
  8
2
 10
139.89949493661149
 20
94.200000000000301
 30
0.0
 11
139.89949493661149
 21
64.000000000000313
 31
0.0
  0
LINE
  5
D0
  8
2
 10
129.9999999999998
 20
94.200000000000301
 30
0.0
 11
129.9999999999998
 21
64.000000000000313
 31
0.0
  0
ARC
  5
D1
  8
2
 10
134.9497474683057
 20
54.739870411274239
 30
0.0
 40
10.5
 50
61.874494297944373
 51
118.1255057020557
  0
ARC
  5
D2
  8
2
 10
125.050252531694
 20
54.739870411274239
 30
0.0
 40
10.5
 50
61.874494297944288
 51
118.12550570205561
  0
LINE
  5
D3
  8
2
 10
120.1005050633882
 20
64.000000000000313
 30
0.0
 11
129.9999999999998
 21
94.200000000000301
 31
0.0
  0
LINE
  5
D4
  8
2
 10
129.9999999999998
 20
94.200000000000301
 30
0.0
 11
139.89949493661149
 21
64.000000000000369
 31
0.0
  0
LINE
  5
D5
  8
2
 10
120.1005050633882
 20
94.200000000000344
 30
0.0
 11
129.9999999999998
 21
64.000000000000369
 31
0.0
  0
LINE
  5
D6
  8
2
 10
129.9999999999998
 20
64.000000000000369
 30
0.0
 11
139.89949493661149
 21
94.200000000000344
 31
0.0
  0
ENDSEC
  0
EOF
