  0
SECTION
  2
HEADER
  9
$ACADVER
  1
AC1015
  9
$ACADMAINTVER
 70
    13
  9
$DWGCODEPAGE
  3
ANSI_932
  9
$INSBASE
 10
0.0
 20
0.0
 30
0.0
  9
$EXTMIN
 10
25.5
 20
7.847083936033115
 30
0.0
  9
$EXTMAX
 10
288.5058880676095
 20
99.13970340451607
 30
0.0
  9
$LIMMIN
 10
0.0
 20
0.0
  9
$LIMMAX
 10
250.0
 20
160.0
  9
$ORTHOMODE
 70
     1
  9
$REGENMODE
 70
     1
  9
$FILLMODE
 70
     1
  9
$QTEXTMODE
 70
     0
  9
$MIRRTEXT
 70
     1
  9
$LTSCALE
 40
1.0
  9
$ATTMODE
 70
     1
  9
$TEXTSIZE
 40
7.0
  9
$TRACEWID
 40
0.05
  9
$TEXTSTYLE
  7
EXTFONT
  9
$CLAYER
  8
0
  9
$CELTYPE
  6
BYLAYER
  9
$CECOLOR
 62
   256
  9
$CELTSCALE
 40
1.0
  9
$DISPSILH
 70
     0
  9
$DIMSCALE
 40
1.0
  9
$DIMASZ
 40
0.18
  9
$DIMEXO
 40
0.0625
  9
$DIMDLI
 40
0.38
  9
$DIMRND
 40
0.0
  9
$DIMDLE
 40
0.0
  9
$DIMEXE
 40
0.18
  9
$DIMTP
 40
0.0
  9
$DIMTM
 40
0.0
  9
$DIMTXT
 40
0.18
  9
$DIMCEN
 40
0.09
  9
$DIMTSZ
 40
0.0
  9
$DIMTOL
 70
     0
  9
$DIMLIM
 70
     0
  9
$DIMTIH
 70
     1
  9
$DIMTOH
 70
     1
  9
$DIMSE1
 70
     0
  9
$DIMSE2
 70
     0
  9
$DIMTAD
 70
     0
  9
$DIMZIN
 70
     0
  9
$DIMBLK
  1

  9
$DIMASO
 70
     1
  9
$DIMSHO
 70
     1
  9
$DIMPOST
  1

  9
$DIMAPOST
  1

  9
$DIMALT
 70
     0
  9
$DIMALTD
 70
     2
  9
$DIMALTF
 40
25.4
  9
$DIMLFAC
 40
1.0
  9
$DIMTOFL
 70
     0
  9
$DIMTVP
 40
0.0
  9
$DIMTIX
 70
     0
  9
$DIMSOXD
 70
     0
  9
$DIMSAH
 70
     0
  9
$DIMBLK1
  1

  9
$DIMBLK2
  1

  9
$DIMSTYLE
  2
STANDARD
  9
$DIMCLRD
 70
     0
  9
$DIMCLRE
 70
     0
  9
$DIMCLRT
 70
     0
  9
$DIMTFAC
 40
1.0
  9
$DIMGAP
 40
0.09
  9
$DIMJUST
 70
     0
  9
$DIMSD1
 70
     0
  9
$DIMSD2
 70
     0
  9
$DIMTOLJ
 70
     1
  9
$DIMTZIN
 70
     0
  9
$DIMALTZ
 70
     0
  9
$DIMALTTZ
 70
     0
  9
$DIMUPT
 70
     0
  9
$DIMDEC
 70
     4
  9
$DIMTDEC
 70
     4
  9
$DIMALTU
 70
     2
  9
$DIMALTTD
 70
     2
  9
$DIMTXSTY
  7
EXTFONT
  9
$DIMAUNIT
 70
     0
  9
$DIMADEC
 70
     0
  9
$DIMALTRND
 40
0.0
  9
$DIMAZIN
 70
     0
  9
$DIMDSEP
 70
    46
  9
$DIMATFIT
 70
     3
  9
$DIMFRAC
 70
     0
  9
$DIMLDRBLK
  1

  9
$DIMLUNIT
 70
     2
  9
$DIMLWD
 70
    -2
  9
$DIMLWE
 70
    -2
  9
$DIMTMOVE
 70
     0
  9
$LUNITS
 70
     2
  9
$LUPREC
 70
     4
  9
$SKETCHINC
 40
0.1
  9
$FILLETRAD
 40
0.0
  9
$AUNITS
 70
     0
  9
$AUPREC
 70
     0
  9
$MENU
  1
acad
  9
$ELEVATION
 40
0.0
  9
$PELEVATION
 40
0.0
  9
$THICKNESS
 40
0.0
  9
$LIMCHECK
 70
     0
  9
$CHAMFERA
 40
0.0
  9
$CHAMFERB
 40
0.0
  9
$CHAMFERC
 40
0.0
  9
$CHAMFERD
 40
0.0
  9
$SKPOLY
 70
     0
  9
$TDCREATE
 40
2450867.136282175
  9
$TDUCREATE
 40
2450866.761282175
  9
$TDUPDATE
 40
2456709.632528750
  9
$TDUUPDATE
 40
2456709.257528750
  9
$TDINDWG
 40
0.0046761111
  9
$TDUSRTIMER
 40
0.0046761111
  9
$USRTIMER
 70
     1
  9
$ANGBASE
 50
0.0
  9
$ANGDIR
 70
     0
  9
$PDMODE
 70
     0
  9
$PDSIZE
 40
0.0
  9
$PLINEWID
 40
0.0
  9
$SPLFRAME
 70
     0
  9
$SPLINETYPE
 70
     6
  9
$SPLINESEGS
 70
     8
  9
$HANDSEED
  5
27F
  9
$SURFTAB1
 70
     6
  9
$SURFTAB2
 70
     6
  9
$SURFTYPE
 70
     6
  9
$SURFU
 70
     6
  9
$SURFV
 70
     6
  9
$UCSBASE
  2

  9
$UCSNAME
  2

  9
$UCSORG
 10
0.0
 20
0.0
 30
0.0
  9
$UCSXDIR
 10
1.0
 20
0.0
 30
0.0
  9
$UCSYDIR
 10
0.0
 20
1.0
 30
0.0
  9
$UCSORTHOREF
  2

  9
$UCSORTHOVIEW
 70
     0
  9
$UCSORGTOP
 10
0.0
 20
0.0
 30
0.0
  9
$UCSORGBOTTOM
 10
0.0
 20
0.0
 30
0.0
  9
$UCSORGLEFT
 10
0.0
 20
0.0
 30
0.0
  9
$UCSORGRIGHT
 10
0.0
 20
0.0
 30
0.0
  9
$UCSORGFRONT
 10
0.0
 20
0.0
 30
0.0
  9
$UCSORGBACK
 10
0.0
 20
0.0
 30
0.0
  9
$PUCSBASE
  2

  9
$PUCSNAME
  2

  9
$PUCSORG
 10
0.0
 20
0.0
 30
0.0
  9
$PUCSXDIR
 10
1.0
 20
0.0
 30
0.0
  9
$PUCSYDIR
 10
0.0
 20
1.0
 30
0.0
  9
$PUCSORTHOREF
  2

  9
$PUCSORTHOVIEW
 70
     0
  9
$PUCSORGTOP
 10
0.0
 20
0.0
 30
0.0
  9
$PUCSORGBOTTOM
 10
0.0
 20
0.0
 30
0.0
  9
$PUCSORGLEFT
 10
0.0
 20
0.0
 30
0.0
  9
$PUCSORGRIGHT
 10
0.0
 20
0.0
 30
0.0
  9
$PUCSORGFRONT
 10
0.0
 20
0.0
 30
0.0
  9
$PUCSORGBACK
 10
0.0
 20
0.0
 30
0.0
  9
$USERI1
 70
     0
  9
$USERI2
 70
     0
  9
$USERI3
 70
     0
  9
$USERI4
 70
     0
  9
$USERI5
 70
     0
  9
$USERR1
 40
0.0
  9
$USERR2
 40
0.0
  9
$USERR3
 40
0.0
  9
$USERR4
 40
0.0
  9
$USERR5
 40
0.0
  9
$WORLDVIEW
 70
     1
  9
$SHADEDGE
 70
     3
  9
$SHADEDIF
 70
    70
  9
$TILEMODE
 70
     1
  9
$MAXACTVP
 70
    16
  9
$PINSBASE
 10
0.0
 20
0.0
 30
0.0
  9
$PLIMCHECK
 70
     0
  9
$PEXTMIN
 10
1.000000000000000E+20
 20
1.000000000000000E+20
 30
1.000000000000000E+20
  9
$PEXTMAX
 10
-1.000000000000000E+20
 20
-1.000000000000000E+20
 30
-1.000000000000000E+20
  9
$PLIMMIN
 10
0.0
 20
0.0
  9
$PLIMMAX
 10
12.0
 20
9.0
  9
$UNITMODE
 70
     0
  9
$VISRETAIN
 70
     0
  9
$PLINEGEN
 70
     0
  9
$PSLTSCALE
 70
     1
  9
$TREEDEPTH
 70
  3020
  9
$CMLSTYLE
  2
STANDARD
  9
$CMLJUST
 70
     0
  9
$CMLSCALE
 40
1.0
  9
$PROXYGRAPHICS
 70
     1
  9
$MEASUREMENT
 70
     0
  9
$CELWEIGHT
370
    -1
  9
$ENDCAPS
280
     0
  9
$JOINSTYLE
280
     0
  9
$LWDISPLAY
290
     0
  9
$INSUNITS
 70
     0
  9
$HYPERLINKBASE
  1

  9
$STYLESHEET
  1

  9
$XEDIT
290
     1
  9
$CEPSNTYPE
380
     0
  9
$PSTYLEMODE
290
     1
  9
$FINGERPRINTGUID
  2
{FCDB1672-8F25-4623-BC1B-E3AD519CD03A}
  9
$VERSIONGUID
  2
{22991E38-52CB-430B-B8DA-275E9C83CEB8}
  9
$EXTNAMES
290
     1
  9
$PSVPSCALE
 40
0.0
  9
$OLESTARTUP
290
     0
  0
ENDSEC
  0
SECTION
  2
CLASSES
  0
CLASS
  1
DICTIONARYVAR
  2
AcDbDictionaryVar
  3
AutoCAD 2000
 90
        0
280
     0
281
     0
  0
CLASS
  1
ACDBDICTIONARYWDFLT
  2
AcDbDictionaryWithDefault
  3
AutoCAD 2000
 90
        0
280
     0
281
     0
  0
CLASS
  1
ACDBPLACEHOLDER
  2
AcDbPlaceHolder
  3
AutoCAD 2000
 90
        0
280
     0
281
     0
  0
CLASS
  1
LAYOUT
  2
AcDbLayout
  3
AutoCAD 2000
 90
        0
280
     0
281
     0
  0
CLASS
  1
AMGSETTINGSOBJ
  2
AmgSettingsObj
  3
"AcadM|Product Description: AutoCAD Mechanical 2000|Company: Autodesk"
 90
        0
280
     0
281
     0
  0
CLASS
  1
ACME_DOCUMENT
  2
AcMeDbDoc
  3
AcMeServices
 90
        0
280
     0
281
     0
  0
CLASS
  1
ACMESCOPE
  2
AcMeScope
  3
AcMeServices
 90
        0
280
     0
281
     0
  0
CLASS
  1
ACMECOMMANDHISTORY
  2
AcMeCommandHistory
  3
AcMeServices
 90
        0
280
     0
281
     0
  0
CLASS
  1
ACIMSYSVARMAN
  2
AcImSysVarManager
  3
AcMeServices
 90
        0
280
     0
281
     0
  0
CLASS
  1
ACIMREALSYSVAR
  2
AcImRealSysVar
  3
AcMeServices
 90
        0
280
     0
281
     0
  0
CLASS
  1
ACIMINTSYSVAR
  2
AcImIntSysVar
  3
AcMeServices
 90
        0
280
     0
281
     0
  0
CLASS
  1
ACMEDRAWINGMAN
  2
AcMeDrawingMan
  3
AcMeServices
 90
        0
280
     0
281
     0
  0
CLASS
  1
ACMEVIEW
  2
AcMeView
  3
AcMeServices
 90
        0
280
     0
281
     0
  0
CLASS
  1
ACDBENTITYCACHE
  2
AcMeEntityCache
  3
AcMeServices
 90
        0
280
     0
281
     0
  0
CLASS
  1
GSMANAGER
  2
AcMeGSManager
  3
AcMeServices
 90
        0
280
     0
281
     0
  0
CLASS
  1
AMDTINTERNALREACTOR
  2
AmdtInternalReactor
  3
AcMeServices
 90
        0
280
     0
281
     0
  0
CLASS
  1
ACMESTATEMGR
  2
AcMeStateMgr
  3
AcMeServices
 90
        0
280
     0
281
     0
  0
CLASS
  1
ACGREFMASTER
  2
AcGrefMaster
  3
AcAttribServices
 90
        0
280
     0
281
     0
  0
CLASS
  1
AM_DRAWING_MGR
  2
AcDmDwgMgr
  3
AcMechDwgViewMgmt
 90
        0
280
     0
281
     0
  0
CLASS
  1
AM_DWG_DOCUMENT
  2
AcDmDwgDocument
  3
AcMechDwgViewMgmt
 90
        0
280
     0
281
     0
  0
CLASS
  1
AM_DWG_SHEET
  2
AcDmSheet
  3
AcMechDwgViewMgmt
 90
        0
280
     0
281
     0
  0
CLASS
  1
AM_VIEWDIMPARMAP
  2
AcDmViewDimParMap
  3
AcMechDwgViewMgmt
 90
        0
280
     0
281
     0
  0
CLASS
  1
AM_DWGMGR_NAME
  2
AcDmDwgMgrName
  3
AcMechDwgViewMgmt
 90
        0
280
     0
281
     0
  0
CLASS
  1
ACME_DATABASE
  2
AcMeDbDatabase
  3
AcMeServices
 90
        0
280
     0
281
     0
  0
CLASS
  1
ACRFINSADJUSTERMGR
  2
AcRfInsAdjusterMgr
  3
AcMeServices
 90
        0
280
     0
281
     0
  0
CLASS
  1
ACGREFACADMASTER
  2
AcGrefacadMaster
  3
AcGrefServices
 90
        0
280
     0
281
     0
  0
CLASS
  1
AMDTMENUSTATEMGR
  2
AmdtMenuStateMgr
  3
McadcomServices
 90
        0
280
     0
281
     0
  0
CLASS
  1
AMDTMCOMMENUSTATE
  2
AmdtMcomMenuState
  3
McadcomServices
 90
        0
280
     0
281
     0
  0
CLASS
  1
AMIMASTER
  2
AmiMaster
  3
AmiServices
 90
        0
280
     0
281
     0
  0
CLASS
  1
ASAPP
  2
AcAsAppObject
  3
AutoSurfServices
 90
        0
280
     0
281
     0
  0
CLASS
  1
IM_STATIC_MAN
  2
AcImStaticVarManager
  3
AcMeServices
 90
        0
280
     0
281
     0
  0
CLASS
  1
ACIMSTRSYSVAR
  2
AcImStrSysVar
  3
AcMeServices
 90
        0
280
     0
281
     0
  0
CLASS
  1
ACIMDBLSTATICVAR
  2
AcImDblStaticVar
  3
AcMeServices
 90
        0
280
     0
281
     0
  0
CLASS
  1
ACIMSTRSTATICVAR
  2
AcImStrStaticVar
  3
AcMeServices
 90
        0
280
     0
281
     0
  0
CLASS
  1
ACIMINTSTATICVAR
  2
AcImIntStaticVar
  3
AcMeServices
 90
        0
280
     0
281
     0
  0
CLASS
  1
ACASGREFMASTER
  2
AcAsGrefMaster
  3
AutoSurfResolverServices
 90
        0
280
     0
281
     0
  0
CLASS
  1
ACADGREFMODULE
  2
AcAdGrefModule
  3
AdGrefServices
 90
        0
280
     0
281
     0
  0
CLASS
  1
AMDTMAPISURFMOUDULE
  2
AmdtMApiSurfModule
  3
MApiSurfServices
 90
        0
280
     0
281
     0
  0
CLASS
  1
MAPIAMMOUDLE
  2
MApiAmModule
  3
MApiAmServices
 90
        0
280
     0
281
     0
  0
CLASS
  1
AMDTADMENUSTATE
  2
AmdtAdMenuState
  3
DesignerServices
 90
        0
280
     0
281
     0
  0
CLASS
  1
ADAPPL
  2
AcAdAppl
  3
DesignerServices
 90
        0
280
     0
281
     0
  0
CLASS
  1
DEPMGR
  2
AcAdDepMgr
  3
DesignerServices
 90
        0
280
     0
281
     0
  0
CLASS
  1
PARAMMGR
  2
AcAdParamMgr
  3
DesignerServices
 90
        0
280
     0
281
     0
  0
CLASS
  1
PARAMSCOPE
  2
AcAdParamScope
  3
DesignerServices
 90
        0
280
     0
281
     0
  0
CLASS
  1
NAMEDAPPL
  2
AcAdNamedAppl
  3
DesignerServices
 90
        0
280
     0
281
     0
  0
CLASS
  1
AMDTDMMENUSTATE
  2
AmdtDmMenuState
  3
AcMechDwgViewMgmt
 90
        0
280
     0
281
     0
  0
CLASS
  1
MAPIADMODULE
  2
MApiAdModule
  3
MApiAdServices
 90
        0
280
     0
281
     0
  0
CLASS
  1
AMDTAMMENUSTATE
  2
AmdtAmMenuState
  3
DesignerAssemblies
 90
        0
280
     0
281
     0
  0
CLASS
  1
ACAMPROJECT
  2
AcAmProject
  3
DesignerAssemblies
 90
        0
280
     0
281
     0
  0
CLASS
  1
ACAMGRCOMPDEF
  2
AcAmGrCompDef
  3
DesignerAssemblies
 90
        0
280
     0
281
     0
  0
CLASS
  1
ACCMCONTEXT
  2
AcCmContext
  3
DesignerAssemblies
 90
        0
280
     0
281
     0
  0
CLASS
  1
ACAMCOMPDEF
  2
AcAmCompDef
  3
DesignerAssemblies
 90
        0
280
     0
281
     0
  0
CLASS
  1
ACAMCOMPDEFMGR
  2
AcAmCompDefMgr
  3
DesignerAssemblies
 90
        0
280
     0
281
     0
  0
CLASS
  1
AMCONTEXTMGR
  2
AcAmContextMgr
  3
DesignerAssemblies
 90
        0
280
     0
281
     0
  0
CLASS
  1
ACAMCONTEXTMODELER
  2
AcAmContextModeler
  3
DesignerAssemblies
 90
        0
280
     0
281
     0
  0
CLASS
  1
ACMDATADICTIONARY
  2
AcmDataDictionary
  3
"AcmSymBB|Product Description: AutoCAD Mechanical 2000|Company: Autodesk"
 90
        0
280
     0
281
     0
  0
CLASS
  1
ACMDATAENTRYBLOCK
  2
AcmDataEntryBlock
  3
"AcmSymBB|Product Description: AutoCAD Mechanical 2000|Company: Autodesk"
 90
        0
280
     0
281
     0
  0
CLASS
  1
CATALOGSTATE
  2
AcAmCatalogState
  3
DesignerAssemblies
 90
        0
280
     0
281
     0
  0
CLASS
  1
ACAMGRCOMPDEFSET
  2
AcAmGrCompDefSet
  3
DesignerAssemblies
 90
        0
280
     0
281
     0
  0
CLASS
  1
AMDTBROWSERDBTAB
  2
AmdtBrowserDbTab
  3
McadcomServices
 90
        0
280
     0
281
     0
  0
CLASS
  1
CBROWSERAPPOBJECT
  2
CBrowserAppObject
  3
McadcomServices
 90
        0
280
     0
281
     0
  0
CLASS
  1
DM_PLACEHOLDER
  2
AcDmSelsetPlaceholder
  3
AcMechDwgViewMgmt
 90
        0
280
     0
281
     0
  0
CLASS
  1
AMGOBJPROPCFG
  2
AmgObjPropCfg
  3
"AmgLay|Product Description: AutoCAD Mechanical 2000|Company: Autodesk"
 90
        1
280
     0
281
     0
  0
CLASS
  1
ACAMGFILTERDAT
  2
AcAmgFilterDat
  3
"AcadM|Product Description: AutoCAD Mechanical 2000|Company: Autodesk"
 90
        0
280
     0
281
     0
  0
CLASS
  1
LAYER_INDEX
  2
AcDbLayerIndex
  3
AutoCAD 2000
 90
        0
280
     0
281
     0
  0
CLASS
  1
IDBUFFER
  2
AcDbIdBuffer
  3
AutoCAD 2000
 90
        0
280
     0
281
     0
  0
ENDSEC
  0
SECTION
  2
TABLES
  0
TABLE
  2
VPORT
  5
EC
330
0
100
AcDbSymbolTable
 70
     3
  0
VPORT
  5
27E
330
EC
100
AcDbSymbolTableRecord
100
AcDbViewportTableRecord
  2
*Active
 70
     0
 10
0.0
 20
0.0
 11
1.0
 21
1.0
 12
0.0
 22
0.0
 13
0.0
 23
0.0
 14
5.0
 24
5.0
 15
10.0
 25
10.0
 16
0.0
 26
0.0
 36
1.0
 17
151.8184322128203
 27
98.881727
 37
0.0
 40
197.7634529999999
 41
1.535353535353535
 42
50.0
 43
0.0
 44
0.0
 50
0.0
 51
0.0
 71
     0
 72
   100
 73
     1
 74
     1
 75
     0
 76
     0
 77
     0
 78
     0
281
     0
 65
     0
110
0.0
120
0.0
130
0.0
111
1.0
121
0.0
131
0.0
112
0.0
122
1.0
132
0.0
 79
     0
146
0.0
  0
ENDTAB
  0
TABLE
  2
LTYPE
  5
E9
330
0
100
AcDbSymbolTable
 70
    19
  0
LTYPE
  5
F5
330
E9
100
AcDbSymbolTableRecord
100
AcDbLinetypeTableRecord
  2
BYBLOCK
 70
     0
  3

 72
    65
 73
     0
 40
0.0
  0
LTYPE
  5
F6
330
E9
100
AcDbSymbolTableRecord
100
AcDbLinetypeTableRecord
  2
BYLAYER
 70
     0
  3

 72
    65
 73
     0
 40
0.0
  0
LTYPE
  5
F7
330
E9
100
AcDbSymbolTableRecord
100
AcDbLinetypeTableRecord
  2
CONTINUOUS
 70
     0
  3
Solid line
 72
    65
 73
     0
 40
0.0
  0
LTYPE
  5
102
330
E9
100
AcDbSymbolTableRecord
100
AcDbLinetypeTableRecord
  2
TENSEN1
 70
     0
  3

 72
    65
 73
     2
 40
0.4
 49
0.3
 74
     0
 49
-0.1
 74
     0
  0
LTYPE
  5
103
330
E9
100
AcDbSymbolTableRecord
100
AcDbLinetypeTableRecord
  2
ITTEN1
 70
     0
  3

 72
    65
 73
     4
 40
8.199999999999999
 49
5.0
 74
     0
 49
-1.0
 74
     0
 49
1.199999999999999
 74
     0
 49
-1.0
 74
     0
  0
LTYPE
  5
104
330
E9
100
AcDbSymbolTableRecord
100
AcDbLinetypeTableRecord
  2
TENSEN2
 70
     0
  3

 72
    65
 73
     2
 40
2.1
 49
1.5
 74
     0
 49
-0.6
 74
     0
  0
LTYPE
  5
14C
330
E9
100
AcDbSymbolTableRecord
100
AcDbLinetypeTableRecord
  2
HIDDEN
 70
     0
  3
Hidden __ __ __ __ __ __ __ __ __ __ __ __ __ _
 72
    65
 73
     2
 40
0.375
 49
0.25
 74
     0
 49
-0.125
 74
     0
  0
LTYPE
  5
14D
330
E9
100
AcDbSymbolTableRecord
100
AcDbLinetypeTableRecord
  2
PHANTOM2
 70
     0
  3
Phantom (.5x) ___ _ _ ___ _ _ ___ _ _ ___ _ _
 72
    65
 73
     6
 40
1.25
 49
0.625
 74
     0
 49
-0.125
 74
     0
 49
0.125
 74
     0
 49
-0.125
 74
     0
 49
0.125
 74
     0
 49
-0.125
 74
     0
  0
LTYPE
  5
14E
330
E9
100
AcDbSymbolTableRecord
100
AcDbLinetypeTableRecord
  2
CENTER
 70
     0
  3
Center ____ _ ____ _ ____ _ ____ _ ____ _ ____
 72
    65
 73
     4
 40
2.0
 49
1.25
 74
     0
 49
-0.25
 74
     0
 49
0.25
 74
     0
 49
-0.25
 74
     0
  0
LTYPE
  5
1B0
330
E9
100
AcDbSymbolTableRecord
100
AcDbLinetypeTableRecord
  2
ASULTYPE
 70
     0
  3
実線
 72
    65
 73
     2
 40
3.0
 49
2.5
 74
     0
 49
0.5
 74
     0
  0
LTYPE
  5
1B1
330
E9
100
AcDbSymbolTableRecord
100
AcDbLinetypeTableRecord
  2
ASVLTYPE
 70
     0
  3
__ __ __ __ __ __ __ __ __ __ __ __ __ __ __ __ __ __ __ __ __
 72
    65
 73
     2
 40
0.75
 49
0.5
 74
     0
 49
-0.25
 74
     0
  0
LTYPE
  5
1F2
330
E9
100
AcDbSymbolTableRecord
100
AcDbLinetypeTableRecord
  2
AM_ISO02W050
 70
     0
  3
__ __ __ __ __ __ __ __ __ __ __ __ __ __ __
 72
    65
 73
     2
 40
7.5
 49
6.0
 74
     0
 49
-1.5
 74
     0
  0
LTYPE
  5
1F3
330
E9
100
AcDbSymbolTableRecord
100
AcDbLinetypeTableRecord
  2
AM_ISO08W050
 70
     0
  3
____ . ____ . ____ . ____ . ____ . ____ . ____
 72
    65
 73
     4
 40
18.0
 49
12.0
 74
     0
 49
-1.5
 74
     0
 49
3.0
 74
     0
 49
-1.5
 74
     0
  0
LTYPE
  5
1F4
330
E9
100
AcDbSymbolTableRecord
100
AcDbLinetypeTableRecord
  2
AM_ISO09W050
 70
     0
  3
_____ . . _____ . . _____ . . ____ .. ____
 72
    65
 73
     6
 40
22.5
 49
12.0
 74
     0
 49
-1.5
 74
     0
 49
3.0
 74
     0
 49
-1.5
 74
     0
 49
3.0
 74
     0
 49
-1.5
 74
     0
  0
LTYPE
  5
1F5
330
E9
100
AcDbSymbolTableRecord
100
AcDbLinetypeTableRecord
  2
Amconstr
 70
     0
  3
_______________________
 72
    65
 73
     2
 40
9999.0
 49
9999.0
 74
     0
 49
0.0
 74
     0
  0
LTYPE
  5
1F6
330
E9
100
AcDbSymbolTableRecord
100
AcDbLinetypeTableRecord
  2
AM_ISO08W050x2
 70
     0
  3
__ . __ . __ . __ . __ . __
 72
    65
 73
     4
 40
9.0
 49
6.0
 74
     0
 49
-0.75
 74
     0
 49
1.5
 74
     0
 49
-0.75
 74
     0
  0
LTYPE
  5
1F7
330
E9
100
AcDbSymbolTableRecord
100
AcDbLinetypeTableRecord
  2
AM_ISO02W050x2
 70
     0
  3
 _ _ _ _ _ _ _ _ _ _ _ _
 72
    65
 73
     2
 40
3.75
 49
3.0
 74
     0
 49
-0.75
 74
     0
  0
LTYPE
  5
1FA
330
E9
100
AcDbSymbolTableRecord
100
AcDbLinetypeTableRecord
  2
Amzigzag
 70
     0
  3
/\/-/\/-/\/-/\/-/\/-/\/
 72
    65
 73
     2
 40
11.00009999999999
 49
0.0001
 74
     4
 75
   135
340
1F9
 46
0.04
 50
0.0
 44
0.0
 45
0.0
 49
-11.0
 74
     0
  0
LTYPE
  5
1FB
330
E9
100
AcDbSymbolTableRecord
100
AcDbLinetypeTableRecord
  2
CENTER2
 70
     0
  3
Center (.5x) ___ _ ___ _ ___ _ ___ _ ___ _ ___
 72
    65
 73
     4
 40
1.125
 49
0.75
 74
     0
 49
-0.125
 74
     0
 49
0.125
 74
     0
 49
-0.125
 74
     0
  0
LTYPE
  5
1FC
330
E9
100
AcDbSymbolTableRecord
100
AcDbLinetypeTableRecord
  2
HIDDEN2
 70
     0
  3
Hidden (.5x) _ _ _ _ _ _ _ _ _ _ _ _ _ _ _ _ _
 72
    65
 73
     2
 40
0.1875
 49
0.125
 74
     0
 49
-0.0625
 74
     0
  0
LTYPE
  5
1FD
330
E9
100
AcDbSymbolTableRecord
100
AcDbLinetypeTableRecord
  2
Amzigzag2
 70
     0
  3
/\/-/\/-/\/-/\/-/\/-/\/
 72
    65
 73
     2
 40
0.4401
 49
0.0001
 74
     4
 75
   135
340
1F9
 46
0.0016
 50
0.0
 44
0.0
 45
0.0
 49
-0.4400000000000001
 74
     0
  0
ENDTAB
  0
TABLE
  2
LAYER
  5
E6
330
0
100
AcDbSymbolTable
 70
     5
  0
LAYER
  5
F2
330
E6
100
AcDbSymbolTableRecord
100
AcDbLayerTableRecord
  2
0
 70
     0
 62
     7
  6
CONTINUOUS
370
    -3
390
11F
  0
LAYER
  5
108
330
E6
100
AcDbSymbolTableRecord
100
AcDbLayerTableRecord
  2
1
 70
     0
 62
     1
  6
ITTEN1
370
    -3
390
11F
  0
LAYER
  5
109
330
E6
100
AcDbSymbolTableRecord
100
AcDbLayerTableRecord
  2
2
 70
     0
 62
     2
  6
TENSEN2
370
    -3
390
11F
  0
LAYER
  5
10A
330
E6
100
AcDbSymbolTableRecord
100
AcDbLayerTableRecord
  2
3
 70
     0
 62
     3
  6
CONTINUOUS
370
    -3
390
11F
  0
LAYER
  5
21B
330
E6
100
AcDbSymbolTableRecord
100
AcDbLayerTableRecord
  2
Defpoints
 70
     0
 62
     7
  6
CONTINUOUS
290
     0
370
    -3
390
11F
  0
ENDTAB
  0
TABLE
  2
STYLE
  5
E7
330
0
100
AcDbSymbolTable
 70
     4
  0
STYLE
  5
F3
330
E7
100
AcDbSymbolTableRecord
100
AcDbTextStyleTableRecord
  2
STANDARD
 70
     0
 40
0.0
 41
1.0
 50
0.0
 71
     0
 42
0.2
  3
txt
  4

  0
STYLE
  5
100
330
E7
100
AcDbSymbolTableRecord
100
AcDbTextStyleTableRecord
  2
BIGFONT
 70
     0
 40
5.0
 41
1.0
 50
0.0
 71
     0
 42
5.0
  3

  4
bigfont
  0
STYLE
  5
101
330
E7
100
AcDbSymbolTableRecord
100
AcDbTextStyleTableRecord
  2
EXTFONT
 70
     0
 40
7.0
 41
0.8
 50
0.0
 71
     0
 42
7.0
  3
txt.shx
  4
extfont.shx
  0
STYLE
  5
1F9
330
E7
100
AcDbSymbolTableRecord
100
AcDbTextStyleTableRecord
  2

 70
     1
 40
0.0
 41
1.0
 50
0.0
 71
     0
 42
7.0
  3
ltypeshp.shx
  4

  0
ENDTAB
  0
TABLE
  2
VIEW
  5
EA
330
0
100
AcDbSymbolTable
 70
     0
  0
ENDTAB
  0
TABLE
  2
UCS
  5
EB
330
0
100
AcDbSymbolTable
 70
     0
  0
ENDTAB
  0
TABLE
  2
APPID
  5
ED
330
0
100
AcDbSymbolTable
 70
    12
  0
APPID
  5
F4
330
ED
100
AcDbSymbolTableRecord
100
AcDbRegAppTableRecord
  2
ACAD
 70
     0
  0
APPID
  5
12B
330
ED
100
AcDbSymbolTableRecord
100
AcDbRegAppTableRecord
  2
GENIUS_GENDIM_13
 70
     0
  0
APPID
  5
12C
330
ED
100
AcDbSymbolTableRecord
100
AcDbRegAppTableRecord
  2
GENIUS_GENDTOL_13
 70
     0
  0
APPID
  5
12D
330
ED
100
AcDbSymbolTableRecord
100
AcDbRegAppTableRecord
  2
GENIUS_GE3DTOL_13
 70
     0
  0
APPID
  5
12F
330
ED
100
AcDbSymbolTableRecord
100
AcDbRegAppTableRecord
  2
MCAD_NO_VIS
 70
     0
  0
APPID
  5
130
330
ED
100
AcDbSymbolTableRecord
100
AcDbRegAppTableRecord
  2
ACAD_TEMP_GRAPHIC
 70
     0
  0
APPID
  5
163
330
ED
100
AcDbSymbolTableRecord
100
AcDbRegAppTableRecord
  2
AD_DRAW
 70
     0
  0
APPID
  5
166
330
ED
100
AcDbSymbolTableRecord
100
AcDbRegAppTableRecord
  2
ACATTRIBSERVICES
 70
     0
  0
APPID
  5
1B2
330
ED
100
AcDbSymbolTableRecord
100
AcDbRegAppTableRecord
  2
ASURF_PCURVE_APPNAME
 70
     0
  0
APPID
  5
1E1
330
ED
100
AcDbSymbolTableRecord
100
AcDbRegAppTableRecord
  2
DESIGNERASSEMBLIES
 70
     0
  0
APPID
  5
1E9
330
ED
100
AcDbSymbolTableRecord
100
AcDbRegAppTableRecord
  2
ACADM_DIM_EDIT
 70
     0
  0
APPID
  5
1EA
330
ED
100
AcDbSymbolTableRecord
100
AcDbRegAppTableRecord
  2
AMDT_DM_ADJ
 70
     0
  0
ENDTAB
  0
TABLE
  2
DIMSTYLE
  5
EE
330
0
100
AcDbSymbolTable
 70
     1
100
AcDbDimStyleTable
 71
     1
340
107
  0
DIMSTYLE
105
107
330
EE
100
AcDbSymbolTableRecord
100
AcDbDimStyleTableRecord
  2
STANDARD
 70
     0
340
101
  0
ENDTAB
  0
TABLE
  2
BLOCK_RECORD
  5
E5
330
0
100
AcDbSymbolTable
 70
     7
  0
BLOCK_RECORD
  5
FB
102
{ACAD_XDICTIONARY
360
274
102
}
330
E5
100
AcDbSymbolTableRecord
100
AcDbBlockTableRecord
  2
*MODEL_SPACE
340
122
  0
BLOCK_RECORD
  5
F8
330
E5
100
AcDbSymbolTableRecord
100
AcDbBlockTableRecord
  2
*PAPER_SPACE
340
123
  0
BLOCK_RECORD
  5
1D8
330
E5
100
AcDbSymbolTableRecord
100
AcDbBlockTableRecord
  2
*U0
340
0
  0
BLOCK_RECORD
  5
21C
330
E5
100
AcDbSymbolTableRecord
100
AcDbBlockTableRecord
  2
*D1
340
0
  0
BLOCK_RECORD
  5
228
330
E5
100
AcDbSymbolTableRecord
100
AcDbBlockTableRecord
  2
*D2
340
0
  0
BLOCK_RECORD
  5
236
330
E5
100
AcDbSymbolTableRecord
100
AcDbBlockTableRecord
  2
*D3
340
0
  0
BLOCK_RECORD
  5
244
330
E5
100
AcDbSymbolTableRecord
100
AcDbBlockTableRecord
  2
*D4
340
0
  0
BLOCK_RECORD
  5
252
330
E5
100
AcDbSymbolTableRecord
100
AcDbBlockTableRecord
  2
*D5
340
0
  0
BLOCK_RECORD
  5
260
330
E5
100
AcDbSymbolTableRecord
100
AcDbBlockTableRecord
  2
*D6
340
0
  0
ENDTAB
  0
ENDSEC
  0
SECTION
  2
BLOCKS
  0
BLOCK
  5
10D
330
FB
100
AcDbEntity
  8
0
100
AcDbBlockBegin
  2
*MODEL_SPACE
 70
     0
 10
0.0
 20
0.0
 30
0.0
  3
*MODEL_SPACE
  1

  0
ENDBLK
  5
10E
330
FB
100
AcDbEntity
  8
0
100
AcDbBlockEnd
  0
BLOCK
  5
10B
330
F8
100
AcDbEntity
 67
     1
  8
0
100
AcDbBlockBegin
  2
*PAPER_SPACE
 70
     0
 10
0.0
 20
0.0
 30
0.0
  3
*PAPER_SPACE
  1

  0
ENDBLK
  5
10C
330
F8
100
AcDbEntity
 67
     1
  8
0
100
AcDbBlockEnd
  0
BLOCK
  5
1D9
330
1D8
100
AcDbEntity
  8
0
100
AcDbBlockBegin
  2
*U0
 70
     1
 10
0.0
 20
0.0
 30
0.0
  3
*U0
  1

  0
ENDBLK
  5
1DA
330
1D8
100
AcDbEntity
  8
0
100
AcDbBlockEnd
  0
BLOCK
  5
225
330
21C
100
AcDbEntity
  8
0
100
AcDbBlockBegin
  2
*D1
 70
     1
 10
0.0
 20
0.0
 30
0.0
  3
*D1
  1

  0
LINE
  5
21D
330
21C
100
AcDbEntity
  8
0
 62
     0
370
    -2
100
AcDbLine
 10
223.0624999999999
 20
66.0
 30
0.0
 11
251.2979010238848
 21
65.99999999999998
 31
0.0
  0
LINE
  5
21E
330
21C
100
AcDbEntity
  8
0
 62
     0
370
    -2
100
AcDbLine
 10
148.5624999999999
 20
22.0
 30
0.0
 11
251.2979010238848
 21
21.99999999999997
 31
0.0
  0
LINE
  5
21F
330
21C
100
AcDbEntity
  8
0
 62
     0
370
    -2
100
AcDbLine
 10
251.1179010238848
 20
65.81999999999998
 30
0.0
 11
251.1179010238847
 21
22.17999999999996
 31
0.0
  0
SOLID
  5
220
330
21C
100
AcDbEntity
  8
0
 62
     0
100
AcDbTrace
 10
251.0879010238848
 20
65.81999999999998
 30
0.0
 11
251.1479010238848
 21
65.81999999999998
 31
0.0
 12
251.1179010238848
 22
65.99999999999998
 32
0.0
 13
251.1179010238848
 23
65.99999999999998
 33
0.0
  0
SOLID
  5
221
330
21C
100
AcDbEntity
  8
0
 62
     0
100
AcDbTrace
 10
251.0879010238848
 20
22.17999999999996
 30
0.0
 11
251.1479010238848
 21
22.17999999999996
 31
0.0
 12
251.1179010238847
 22
21.99999999999997
 32
0.0
 13
251.1179010238847
 23
21.99999999999997
 33
0.0
  0
POINT
  5
222
330
21C
100
AcDbEntity
  8
Defpoints
 62
     0
100
AcDbPoint
 10
223.0
 20
66.0
 30
0.0
  0
POINT
  5
223
330
21C
100
AcDbEntity
  8
Defpoints
 62
     0
100
AcDbPoint
 10
148.5
 20
22.0
 30
0.0
  0
POINT
  5
224
330
21C
100
AcDbEntity
  8
Defpoints
 62
     0
100
AcDbPoint
 10
251.1179010238847
 20
21.99999999999997
 30
0.0
  0
ENDBLK
  5
226
330
21C
100
AcDbEntity
  8
0
100
AcDbBlockEnd
  0
BLOCK
  5
233
330
228
100
AcDbEntity
  8
0
100
AcDbBlockBegin
  2
*D2
 70
     1
 10
0.0
 20
0.0
 30
0.0
  3
*D2
  1

  0
LINE
  5
229
330
228
100
AcDbEntity
  8
0
 62
     0
370
    -2
100
AcDbLine
 10
223.0624999999999
 20
66.0
 30
0.0
 11
273.7525547342761
 21
65.99999999999998
 31
0.0
  0
LINE
  5
22A
330
228
100
AcDbEntity
  8
0
 62
     0
370
    -2
100
AcDbLine
 10
148.5624999999999
 20
22.0
 30
0.0
 11
273.7525547342761
 21
21.99999999999996
 31
0.0
  0
LINE
  5
22B
330
228
100
AcDbEntity
  8
0
 62
     0
370
    -2
100
AcDbLine
 10
273.572554734276
 20
65.81999999999998
 30
0.0
 11
273.572554734276
 21
47.58999999999996
 31
0.0
  0
LINE
  5
22C
330
228
100
AcDbEntity
  8
0
 62
     0
370
    -2
100
AcDbLine
 10
273.572554734276
 20
22.17999999999996
 30
0.0
 11
273.572554734276
 21
40.40999999999995
 31
0.0
  0
SOLID
  5
22D
330
228
100
AcDbEntity
  8
0
 62
     0
100
AcDbTrace
 10
273.5425547342761
 20
65.81999999999998
 30
0.0
 11
273.602554734276
 21
65.81999999999998
 31
0.0
 12
273.572554734276
 22
65.99999999999998
 32
0.0
 13
273.572554734276
 23
65.99999999999998
 33
0.0
  0
SOLID
  5
22E
330
228
100
AcDbEntity
  8
0
 62
     0
100
AcDbTrace
 10
273.5425547342761
 20
22.17999999999996
 30
0.0
 11
273.602554734276
 21
22.17999999999996
 31
0.0
 12
273.572554734276
 22
21.99999999999996
 32
0.0
 13
273.572554734276
 23
21.99999999999996
 33
0.0
  0
MTEXT
  5
22F
330
228
100
AcDbEntity
  8
0
 62
     0
100
AcDbMText
 10
273.572554734276
 20
44.00000000000001
 30
0.0
 40
7.0
 41
0.0
 71
     5
 72
     1
  1
\A1;44.0000
  7
EXTFONT
 73
     1
 44
1.0
  0
POINT
  5
230
330
228
100
AcDbEntity
  8
Defpoints
 62
     0
100
AcDbPoint
 10
223.0
 20
66.0
 30
0.0
  0
POINT
  5
231
330
228
100
AcDbEntity
  8
Defpoints
 62
     0
100
AcDbPoint
 10
148.5
 20
22.0
 30
0.0
  0
POINT
  5
232
330
228
100
AcDbEntity
  8
Defpoints
 62
     0
100
AcDbPoint
 10
273.572554734276
 20
21.99999999999996
 30
0.0
  0
ENDBLK
  5
234
330
228
100
AcDbEntity
  8
0
100
AcDbBlockEnd
  0
BLOCK
  5
241
330
236
100
AcDbEntity
  8
0
100
AcDbBlockBegin
  2
*D3
 70
     1
 10
0.0
 20
0.0
 30
0.0
  3
*D3
  1

  0
LINE
  5
237
330
236
100
AcDbEntity
  8
0
 62
     0
370
    -2
100
AcDbLine
 10
148.5
 20
21.9375
 30
0.0
 11
148.5
 21
11.16708393603311
 31
0.0
  0
LINE
  5
238
330
236
100
AcDbEntity
  8
0
 62
     0
370
    -2
100
AcDbLine
 10
122.5
 20
21.9375
 30
0.0
 11
122.5
 21
11.16708393603311
 31
0.0
  0
LINE
  5
239
330
236
100
AcDbEntity
  8
0
 62
     0
370
    -2
100
AcDbLine
 10
148.3199999999999
 20
11.34708393603311
 30
0.0
 11
122.68
 21
11.34708393603311
 31
0.0
  0
LINE
  5
23A
330
236
100
AcDbEntity
  8
0
 62
     0
370
    -2
100
AcDbLine
 10
122.5
 20
11.34708393603311
 30
0.0
 11
122.32
 21
11.34708393603311
 31
0.0
  0
SOLID
  5
23B
330
236
100
AcDbEntity
  8
0
 62
     0
100
AcDbTrace
 10
148.3199999999999
 20
11.37708393603311
 30
0.0
 11
148.3199999999999
 21
11.31708393603311
 31
0.0
 12
148.5
 22
11.34708393603311
 32
0.0
 13
148.5
 23
11.34708393603311
 33
0.0
  0
SOLID
  5
23C
330
236
100
AcDbEntity
  8
0
 62
     0
100
AcDbTrace
 10
122.68
 20
11.37708393603311
 30
0.0
 11
122.68
 21
11.31708393603311
 31
0.0
 12
122.5
 22
11.34708393603311
 32
0.0
 13
122.5
 23
11.34708393603311
 33
0.0
  0
MTEXT
  5
23D
330
236
100
AcDbEntity
  8
0
 62
     0
100
AcDbMText
 10
107.2966666666666
 20
11.34708393603311
 30
0.0
 40
7.0
 41
0.0
 71
     5
 72
     1
  1
\A1;26.0000
  7
EXTFONT
 73
     1
 44
1.0
  0
POINT
  5
23E
330
236
100
AcDbEntity
  8
Defpoints
 62
     0
100
AcDbPoint
 10
148.5
 20
22.0
 30
0.0
  0
POINT
  5
23F
330
236
100
AcDbEntity
  8
Defpoints
 62
     0
100
AcDbPoint
 10
122.5
 20
22.0
 30
0.0
  0
POINT
  5
240
330
236
100
AcDbEntity
  8
Defpoints
 62
     0
100
AcDbPoint
 10
122.5
 20
11.34708393603311
 30
0.0
  0
ENDBLK
  5
242
330
236
100
AcDbEntity
  8
0
100
AcDbBlockEnd
  0
BLOCK
  5
24F
330
244
100
AcDbEntity
  8
0
100
AcDbBlockBegin
  2
*D4
 70
     1
 10
0.0
 20
0.0
 30
0.0
  3
*D4
  1

  0
LINE
  5
245
330
244
100
AcDbEntity
  8
0
 62
     0
370
    -2
100
AcDbLine
 10
122.4374999999999
 20
47.0
 30
0.0
 11
96.2502864174205
 21
47.00000000000001
 31
0.0
  0
LINE
  5
246
330
244
100
AcDbEntity
  8
0
 62
     0
370
    -2
100
AcDbLine
 10
122.4374999999999
 20
22.0
 30
0.0
 11
96.25028641742048
 21
22.0
 31
0.0
  0
LINE
  5
247
330
244
100
AcDbEntity
  8
0
 62
     0
370
    -2
100
AcDbLine
 10
96.43028641742048
 20
46.82000000000001
 30
0.0
 11
96.43028641742048
 21
38.09000000000001
 31
0.0
  0
LINE
  5
248
330
244
100
AcDbEntity
  8
0
 62
     0
370
    -2
100
AcDbLine
 10
96.43028641742048
 20
22.18
 30
0.0
 11
96.43028641742048
 21
30.91000000000001
 31
0.0
  0
SOLID
  5
249
330
244
100
AcDbEntity
  8
0
 62
     0
100
AcDbTrace
 10
96.40028641742048
 20
46.82000000000001
 30
0.0
 11
96.46028641742049
 21
46.82000000000001
 31
0.0
 12
96.43028641742048
 22
47.00000000000001
 32
0.0
 13
96.43028641742048
 23
47.00000000000001
 33
0.0
  0
SOLID
  5
24A
330
244
100
AcDbEntity
  8
0
 62
     0
100
AcDbTrace
 10
96.40028641742048
 20
22.18
 30
0.0
 11
96.46028641742049
 21
22.18
 31
0.0
 12
96.43028641742048
 22
22.0
 32
0.0
 13
96.43028641742048
 23
22.0
 33
0.0
  0
MTEXT
  5
24B
330
244
100
AcDbEntity
  8
0
 62
     0
100
AcDbMText
 10
96.43028641742048
 20
34.50000000000002
 30
0.0
 40
7.0
 41
0.0
 71
     5
 72
     1
  1
\A1;25.0000
  7
EXTFONT
 73
     1
 44
1.0
  0
POINT
  5
24C
330
244
100
AcDbEntity
  8
Defpoints
 62
     0
100
AcDbPoint
 10
122.5
 20
47.0
 30
0.0
  0
POINT
  5
24D
330
244
100
AcDbEntity
  8
Defpoints
 62
     0
100
AcDbPoint
 10
122.5
 20
22.0
 30
0.0
  0
POINT
  5
24E
330
244
100
AcDbEntity
  8
Defpoints
 62
     0
100
AcDbPoint
 10
96.43028641742048
 20
22.0
 30
0.0
  0
ENDBLK
  5
250
330
244
100
AcDbEntity
  8
0
100
AcDbBlockEnd
  0
BLOCK
  5
25D
330
252
100
AcDbEntity
  8
0
100
AcDbBlockBegin
  2
*D5
 70
     1
 10
0.0
 20
0.0
 30
0.0
  3
*D5
  1

  0
LINE
  5
253
330
252
100
AcDbEntity
  8
0
 62
     0
370
    -2
100
AcDbLine
 10
223.0624999999999
 20
66.0
 30
0.0
 11
250.798908467846
 21
65.99999999999998
 31
0.0
  0
LINE
  5
254
330
252
100
AcDbEntity
  8
0
 62
     0
370
    -2
100
AcDbLine
 10
223.0624999999999
 20
52.0
 30
0.0
 11
250.798908467846
 21
51.99999999999999
 31
0.0
  0
LINE
  5
255
330
252
100
AcDbEntity
  8
0
 62
     0
370
    -2
100
AcDbLine
 10
250.6189084678461
 20
65.81999999999998
 30
0.0
 11
250.618908467846
 21
62.58999999999999
 31
0.0
  0
LINE
  5
256
330
252
100
AcDbEntity
  8
0
 62
     0
370
    -2
100
AcDbLine
 10
250.618908467846
 20
52.17999999999999
 30
0.0
 11
250.618908467846
 21
55.40999999999998
 31
0.0
  0
SOLID
  5
257
330
252
100
AcDbEntity
  8
0
 62
     0
100
AcDbTrace
 10
250.588908467846
 20
65.81999999999998
 30
0.0
 11
250.648908467846
 21
65.81999999999998
 31
0.0
 12
250.6189084678461
 22
65.99999999999998
 32
0.0
 13
250.6189084678461
 23
65.99999999999998
 33
0.0
  0
SOLID
  5
258
330
252
100
AcDbEntity
  8
0
 62
     0
100
AcDbTrace
 10
250.588908467846
 20
52.17999999999999
 30
0.0
 11
250.648908467846
 21
52.17999999999999
 31
0.0
 12
250.618908467846
 22
51.99999999999999
 32
0.0
 13
250.618908467846
 23
51.99999999999999
 33
0.0
  0
MTEXT
  5
259
330
252
100
AcDbEntity
  8
0
 62
     0
100
AcDbMText
 10
250.618908467846
 20
59.00000000000003
 30
0.0
 40
7.0
 41
0.0
 71
     5
 72
     1
  1
\A1;14.0000
  7
EXTFONT
 73
     1
 44
1.0
  0
POINT
  5
25A
330
252
100
AcDbEntity
  8
Defpoints
 62
     0
100
AcDbPoint
 10
223.0
 20
66.0
 30
0.0
  0
POINT
  5
25B
330
252
100
AcDbEntity
  8
Defpoints
 62
     0
100
AcDbPoint
 10
223.0
 20
52.0
 30
0.0
  0
POINT
  5
25C
330
252
100
AcDbEntity
  8
Defpoints
 62
     0
100
AcDbPoint
 10
250.618908467846
 20
51.99999999999999
 30
0.0
  0
ENDBLK
  5
25E
330
252
100
AcDbEntity
  8
0
100
AcDbBlockEnd
  0
BLOCK
  5
26B
330
260
100
AcDbEntity
  8
0
100
AcDbBlockBegin
  2
*D6
 70
     1
 10
0.0
 20
0.0
 30
0.0
  3
*D6
  1

  0
LINE
  5
261
330
260
100
AcDbEntity
  8
0
 62
     0
370
    -2
100
AcDbLine
 10
135.4999999999999
 20
55.5625
 30
0.0
 11
135.4999999999999
 21
95.81970340451604
 31
0.0
  0
LINE
  5
262
330
260
100
AcDbEntity
  8
0
 62
     0
370
    -2
100
AcDbLine
 10
121.5
 20
44.0625
 30
0.0
 11
121.5
 21
95.81970340451604
 31
0.0
  0
LINE
  5
263
330
260
100
AcDbEntity
  8
0
 62
     0
370
    -2
100
AcDbLine
 10
135.3199999999999
 20
95.63970340451605
 30
0.0
 11
121.68
 21
95.63970340451605
 31
0.0
  0
LINE
  5
264
330
260
100
AcDbEntity
  8
0
 62
     0
370
    -2
100
AcDbLine
 10
121.5
 20
95.63970340451605
 30
0.0
 11
121.32
 21
95.63970340451605
 31
0.0
  0
SOLID
  5
265
330
260
100
AcDbEntity
  8
0
 62
     0
100
AcDbTrace
 10
135.3199999999999
 20
95.66970340451605
 30
0.0
 11
135.3199999999999
 21
95.60970340451605
 31
0.0
 12
135.4999999999999
 22
95.63970340451605
 32
0.0
 13
135.4999999999999
 23
95.63970340451605
 33
0.0
  0
SOLID
  5
266
330
260
100
AcDbEntity
  8
0
 62
     0
100
AcDbTrace
 10
121.68
 20
95.66970340451605
 30
0.0
 11
121.68
 21
95.60970340451605
 31
0.0
 12
121.5
 22
95.63970340451605
 32
0.0
 13
121.5
 23
95.63970340451605
 33
0.0
  0
MTEXT
  5
267
330
260
100
AcDbEntity
  8
0
 62
     0
100
AcDbMText
 10
107.23
 20
95.63970340451605
 30
0.0
 40
7.0
 41
0.0
 71
     5
 72
     1
  1
\A1;14.0000
  7
EXTFONT
 73
     1
 44
1.0
  0
POINT
  5
268
330
260
100
AcDbEntity
  8
Defpoints
 62
     0
100
AcDbPoint
 10
135.4999999999999
 20
55.5
 30
0.0
  0
POINT
  5
269
330
260
100
AcDbEntity
  8
Defpoints
 62
     0
100
AcDbPoint
 10
121.5
 20
44.0
 30
0.0
  0
POINT
  5
26A
330
260
100
AcDbEntity
  8
Defpoints
 62
     0
100
AcDbPoint
 10
121.5
 20
95.63970340451605
 30
0.0
  0
ENDBLK
  5
26C
330
260
100
AcDbEntity
  8
0
100
AcDbBlockEnd
  0
ENDSEC
  0
SECTION
  2
ENTITIES
  0
LINE
  5
3E
330
FB
100
AcDbEntity
  8
1
100
AcDbLine
 10
215.5
 20
74.220754
 30
0.0
 11
215.5
 21
40.0
 31
0.0
  0
LINE
  5
3F
330
FB
100
AcDbEntity
  8
0
100
AcDbLine
 10
215.5
 20
63.0
 30
0.0
 11
223.0
 21
63.0
 31
0.0
  0
LINE
  5
40
330
FB
100
AcDbEntity
  8
0
100
AcDbLine
 10
223.0
 20
63.0
 30
0.0
 11
223.0
 21
49.0
 31
0.0
  0
LINE
  5
41
330
FB
100
AcDbEntity
  8
0
100
AcDbLine
 10
223.0
 20
49.0
 30
0.0
 11
208.0
 21
49.0
 31
0.0
  0
LINE
  5
42
330
FB
100
AcDbEntity
  8
0
100
AcDbLine
 10
208.0
 20
63.0
 30
0.0
 11
215.5
 21
63.0
 31
0.0
  0
LINE
  5
43
330
FB
100
AcDbEntity
  8
1
100
AcDbLine
 10
230.0
 20
52.0
 30
0.0
 11
203.5
 21
52.0
 31
0.0
  0
LINE
  5
4C
330
FB
100
AcDbEntity
  8
0
100
AcDbLine
 10
208.0
 20
55.0
 30
0.0
 11
176.959435
 21
55.0
 31
0.0
  0
LINE
  5
4D
330
FB
100
AcDbEntity
  8
0
100
AcDbLine
 10
208.0
 20
49.0
 30
0.0
 11
178.767278
 21
49.0
 31
0.0
  0
LINE
  5
54
330
FB
100
AcDbEntity
  8
1
100
AcDbLine
 10
135.4999999999999
 20
55.5
 30
0.0
 11
135.4999999999999
 21
14.5
 31
0.0
  0
LINE
  5
55
330
FB
100
AcDbEntity
  8
0
100
AcDbLine
 10
208.0
 20
55.0
 30
0.0
 11
208.0
 21
63.0
 31
0.0
  0
LINE
  5
75
330
FB
100
AcDbEntity
  8
1
100
AcDbLine
 10
118.0
 20
44.0
 30
0.0
 11
152.5
 21
44.0
 31
0.0
  0
ARC
  5
76
330
FB
100
AcDbEntity
  8
0
100
AcDbCircle
 10
148.5
 20
62.0
 30
0.0
 40
15.0
100
AcDbArc
 50
270.057954
 51
312.927274
  0
ARC
  5
77
330
FB
100
AcDbEntity
  8
0
100
AcDbCircle
 10
173.0276718983176
 20
26.43691901956596
 30
0.0
 40
23.12434457169616
100
AcDbArc
 50
77.34870829531084
 51
112.8299331567319
  0
ARC
  5
78
330
FB
100
AcDbEntity
  8
0
100
AcDbCircle
 10
148.5
 20
62.0
 30
0.0
 40
21.0
100
AcDbArc
 50
270.042112
 51
313.938754
  0
LINE
  5
79
330
FB
100
AcDbEntity
  8
0
100
AcDbLine
 10
135.4999999999999
 20
47.0
 30
0.0
 11
148.5
 21
47.0
 31
0.0
  0
LINE
  5
7A
330
FB
100
AcDbEntity
  8
0
100
AcDbLine
 10
135.4999999999999
 20
41.0
 30
0.0
 11
148.5
 21
41.0
 31
0.0
  0
LINE
  5
7B
330
FB
100
AcDbEntity
  8
0
100
AcDbLine
 10
158.701907
 20
51.012503
 30
0.0
 11
159.023525
 21
51.33389799999999
 31
0.0
  0
ARC
  5
7C
330
FB
100
AcDbEntity
  8
0
100
AcDbCircle
 10
178.0
 20
27.0
 30
0.0
 40
25.0
100
AcDbArc
 50
126.0380159999999
 51
126.0452839999999
  0
LINE
  5
7D
330
FB
100
AcDbEntity
  8
0
100
AcDbLine
 10
163.072186
 20
46.878165
 30
0.0
 11
164.0541279999999
 21
47.749171
 31
0.0
  0
ARC
  5
7E
330
FB
100
AcDbEntity
  8
0
100
AcDbCircle
 10
172.4224213571829
 20
26.99371096230919
 30
0.0
 40
27.78302472644889
100
AcDbArc
 50
85.27996546501983
 51
118.8513085439526
  0
LINE
  5
7F
330
FB
100
AcDbEntity
  8
0
100
AcDbLine
 10
174.712242
 20
54.683238
 30
0.0
 11
176.966134
 21
55.003761
 31
0.0
  0
LINE
  5
80
330
FB
100
AcDbEntity
  8
0
100
AcDbLine
 10
178.084412
 20
49.00044000000001
 30
0.0
 11
178.770037
 21
49.00044000000001
 31
0.0
  0
ARC
  5
95
330
FB
100
AcDbEntity
  8
0
100
AcDbCircle
 10
59.53035074887473
 20
46.54525415742332
 30
0.0
 40
23.59701413998378
100
AcDbArc
 50
159.0043381517209
 51
178.8937085952965
  0
LINE
  5
96
330
FB
100
AcDbEntity
  8
1
100
AcDbLine
 10
45.0
 20
55.5
 30
0.0
 11
45.0
 21
14.5
 31
0.0
  0
LINE
  5
97
330
FB
100
AcDbEntity
  8
1
100
AcDbLine
 10
45.0
 20
26.0
 30
0.0
 11
45.0
 21
73.241727
 31
0.0
  0
LINE
  5
98
330
FB
100
AcDbEntity
  8
0
100
AcDbLine
 10
36.0
 20
47.0
 30
0.0
 11
30.0
 21
47.0
 31
0.0
  0
LINE
  5
99
330
FB
100
AcDbEntity
  8
0
100
AcDbLine
 10
31.0
 20
22.0
 30
0.0
 11
59.0
 21
22.0
 31
0.0
  0
LINE
  5
9A
330
FB
100
AcDbEntity
  8
0
100
AcDbLine
 10
45.0
 20
41.0
 30
0.0
 11
30.0
 21
41.0
 31
0.0
  0
LINE
  5
9B
330
FB
100
AcDbEntity
  8
1
100
AcDbLine
 10
25.5
 20
44.0
 30
0.0
 11
64.0
 21
44.0
 31
0.0
  0
LINE
  5
9C
330
FB
100
AcDbEntity
  8
0
100
AcDbLine
 10
31.0
 20
41.0
 30
0.0
 11
31.0
 21
22.0
 31
0.0
  0
ARC
  5
9D
330
FB
100
AcDbEntity
  8
0
100
AcDbCircle
 10
34.0
 20
44.0
 30
0.0
 40
5.0
100
AcDbArc
 50
143.130102
 51
216.869898
  0
LINE
  5
9E
330
FB
100
AcDbEntity
  8
0
100
AcDbLine
 10
45.0
 20
41.0
 30
0.0
 11
60.0
 21
41.0
 31
0.0
  0
LINE
  5
9F
330
FB
100
AcDbEntity
  8
0
100
AcDbLine
 10
59.0
 20
22.0
 30
0.0
 11
59.0
 21
41.0
 31
0.0
  0
LINE
  5
A0
330
FB
100
AcDbEntity
  8
0
100
AcDbLine
 10
54.0
 20
47.0
 30
0.0
 11
60.0
 21
47.0
 31
0.0
  0
ARC
  5
A1
330
FB
100
AcDbEntity
  8
0
100
AcDbCircle
 10
56.0
 20
44.0
 30
0.0
 40
5.0
100
AcDbArc
 50
323.130102
 51
36.869898
  0
LINE
  5
A6
330
FB
100
AcDbEntity
  8
0
100
AcDbLine
 10
37.5
 20
63.0
 30
0.0
 11
37.5
 21
55.0
 31
0.0
  0
LINE
  5
A7
330
FB
100
AcDbEntity
  8
0
100
AcDbLine
 10
37.5
 20
63.0
 30
0.0
 11
45.0
 21
63.0
 31
0.0
  0
LINE
  5
AB
330
FB
100
AcDbEntity
  8
0
100
AcDbLine
 10
45.0
 20
63.0
 30
0.0
 11
52.5
 21
63.0
 31
0.0
  0
LINE
  5
AD
330
FB
100
AcDbEntity
  8
0
100
AcDbLine
 10
52.5
 20
55.0
 30
0.0
 11
37.5
 21
55.0
 31
0.0
  0
LINE
  5
AE
330
FB
100
AcDbEntity
  8
0
100
AcDbLine
 10
36.0
 20
47.0
 30
0.0
 11
54.0
 21
47.0
 31
0.0
  0
LINE
  5
AF
330
FB
100
AcDbEntity
  8
0
100
AcDbLine
 10
52.5
 20
63.0
 30
0.0
 11
52.5
 21
55.0
 31
0.0
  0
ARC
  5
B0
330
FB
100
AcDbEntity
  8
0
100
AcDbCircle
 10
30.47991401536027
 20
46.54714315502308
 30
0.0
 40
23.58675413352616
100
AcDbArc
 50
1.118930147348179
 51
21.00031186085229
  0
LINE
  5
B2
330
FB
100
AcDbEntity
  8
0
100
AcDbLine
 10
145.0
 20
41.0
 30
0.0
 11
145.0
 21
46.5
 31
0.0
  0
LINE
  5
116
330
FB
100
AcDbEntity
  8
2
100
AcDbLine
 10
219.4999999999999
 20
63.0
 30
0.0
 11
219.4999999999999
 21
49.0
 31
0.0
  0
LINE
  5
118
330
FB
100
AcDbEntity
  8
2
100
AcDbLine
 10
218.6999999999999
 20
49.0
 30
0.0
 11
218.6999999999999
 21
63.0
 31
0.0
  0
LINE
  5
119
330
FB
100
AcDbEntity
  8
2
100
AcDbLine
 10
212.3
 20
49.0
 30
0.0
 11
212.3
 21
63.0
 31
0.0
  0
LINE
  5
11A
330
FB
100
AcDbEntity
  8
2
100
AcDbLine
 10
211.5
 20
63.0
 30
0.0
 11
211.5
 21
49.0
 31
0.0
  0
LINE
  5
26D
330
FB
100
AcDbEntity
  8
0
100
AcDbLine
 10
121.5
 20
41.0
 30
0.0
 11
121.5
 21
22.0
 31
0.0
  0
ARC
  5
26E
330
FB
100
AcDbEntity
  8
0
100
AcDbCircle
 10
124.5
 20
44.0
 30
0.0
 40
5.0
100
AcDbArc
 50
143.130102
 51
216.869898
  0
LINE
  5
26F
330
FB
100
AcDbEntity
  8
0
100
AcDbLine
 10
135.4999999999999
 20
41.0
 30
0.0
 11
120.5
 21
41.0
 31
0.0
  0
LINE
  5
270
330
FB
100
AcDbEntity
  8
0
100
AcDbLine
 10
126.5
 20
47.0
 30
0.0
 11
120.5
 21
47.0
 31
0.0
  0
LINE
  5
271
330
FB
100
AcDbEntity
  8
0
100
AcDbLine
 10
121.5
 20
22.0
 30
0.0
 11
149.5
 21
22.0
 31
0.0
  0
LINE
  5
272
330
FB
100
AcDbEntity
  8
0
100
AcDbLine
 10
149.5
 20
22.0
 30
0.0
 11
149.5
 21
41.0
 31
0.0
  0
LINE
  5
273
330
FB
100
AcDbEntity
  8
0
100
AcDbLine
 10
126.5
 20
47.0
 30
0.0
 11
135.4999999999999
 21
47.0
 31
0.0
  0
ENDSEC
  0
SECTION
  2
OBJECTS
  0
DICTIONARY
  5
F0
330
0
100
AcDbDictionary
281
     1
  3
ACAD_GROUP
350
F1
  3
ACAD_LAYOUT
350
120
  3
ACAD_MLINESTYLE
350
FE
  3
ACAD_PLOTSETTINGS
350
121
  3
ACAD_PLOTSTYLENAME
350
11E
  3
ACDBVARIABLEDICTIONARY
350
10F
  3
AcmDictionary
350
1E2
  3
AMG
350
128
  3
AMGSNAPSETTINGS
350
213
  3
DWGPROPS
350
1E5
  3
MAPISURF_MODULE
350
1B5
  0
DICTIONARY
  5
274
330
FB
100
AcDbDictionary
280
     1
281
     1
  3
ACAD_INDEX
360
275
  0
DICTIONARY
  5
F1
102
{ACAD_REACTORS
330
F0
102
}
330
F0
100
AcDbDictionary
281
     1
  0
DICTIONARY
  5
120
102
{ACAD_REACTORS
330
F0
102
}
330
F0
100
AcDbDictionary
281
     1
  3
Model
350
122
  3
ﾚｲｱｳﾄ1
350
123
  0
DICTIONARY
  5
FE
102
{ACAD_REACTORS
330
F0
102
}
330
F0
100
AcDbDictionary
281
     1
  3
STANDARD
350
FF
  0
DICTIONARY
  5
121
102
{ACAD_REACTORS
330
F0
102
}
330
F0
100
AcDbDictionary
281
     1
  0
ACDBDICTIONARYWDFLT
  5
11E
102
{ACAD_REACTORS
330
F0
102
}
330
F0
100
AcDbDictionary
281
     1
  3
Normal
350
11F
100
AcDbDictionaryWithDefault
340
11F
  0
DICTIONARY
  5
10F
102
{ACAD_REACTORS
330
F0
102
}
330
F0
100
AcDbDictionary
281
     1
  3
DIMADEC
350
110
  3
DIMASSOC
350
27D
  3
INDEXCTL
350
27C
  0
DICTIONARY
  5
1E2
102
{ACAD_REACTORS
330
F0
102
}
330
F0
100
AcDbDictionary
281
     1
  3
AcmBOMDATA
350
1E3
  0
DICTIONARY
  5
128
102
{ACAD_REACTORS
330
F0
102
}
330
F0
100
AcDbDictionary
281
     1
  3
AcMgSettings
350
129
  3
AMGLAYCFG
350
1EF
  0
DICTIONARY
  5
213
102
{ACAD_REACTORS
330
F0
102
}
330
F0
100
AcDbDictionary
281
     1
  3
DIMENSION
350
218
  3
FEA
350
217
  3
HATCH (1)
350
214
  3
HATCH (2)
350
215
  3
SIMPLE WELD
350
219
  3
SYMBOLS
350
216
  0
XRECORD
  5
1E5
102
{ACAD_REACTORS
330
F0
102
}
330
F0
100
AcDbXrecord
280
     1
  1
DWGPROPS COOKIE
  2

  3

  4

  6

  7

  8

  9

300
AmdtFileType=84
301
=
302
=
303
=
304
=
305
=
306
=
307
=
308
=
309
=
 40
0.0009322569444444
 41
2450867.136282175
 42
2453551.587422048
  1

 90
        1
  0
DICTIONARY
  5
275
102
{ACAD_REACTORS
330
274
102
}
330
274
100
AcDbDictionary
281
     1
  3
*A1
350
276
  0
LAYOUT
  5
122
102
{ACAD_REACTORS
330
120
102
}
330
120
100
AcDbPlotSettings
  1

  2
\\KONISHIDENXP\SHARP MX-2700FG
  4

  6

 40
0.0
 41
0.0
 42
0.0
 43
0.0
 44
0.0
 45
0.0
 46
0.0
 47
0.0
 48
0.0
 49
0.0
140
0.0
141
0.0
142
1.0
143
1.0
 70
  1712
 72
     0
 73
     0
 74
     0
  7

 75
     0
147
1.0
148
0.0
149
0.0
100
AcDbLayout
  1
Model
 70
     1
 71
     0
 10
0.0
 20
0.0
 11
12.0
 21
9.0
 12
0.0
 22
0.0
 32
0.0
 14
0.0
 24
0.0
 34
0.0
 15
0.0
 25
0.0
 35
0.0
146
0.0
 13
0.0
 23
0.0
 33
0.0
 16
1.0
 26
0.0
 36
0.0
 17
0.0
 27
1.0
 37
0.0
 76
     0
330
FB
  0
LAYOUT
  5
123
102
{ACAD_REACTORS
330
120
102
}
330
120
100
AcDbPlotSettings
  1

  2
\\KONISHIDENXP\SHARP MX-2700FG
  4

  6

 40
0.0
 41
0.0
 42
0.0
 43
0.0
 44
0.0
 45
0.0
 46
0.0
 47
0.0
 48
0.0
 49
0.0
140
0.0
141
0.0
142
1.0
143
1.0
 70
   688
 72
     0
 73
     0
 74
     5
  7

 75
    16
147
1.0
148
0.0
149
0.0
100
AcDbLayout
  1
ﾚｲｱｳﾄ1
 70
     1
 71
     1
 10
0.0
 20
0.0
 11
12.0
 21
9.0
 12
0.0
 22
0.0
 32
0.0
 14
1.000000000000000E+20
 24
1.000000000000000E+20
 34
1.000000000000000E+20
 15
-1.000000000000000E+20
 25
-1.000000000000000E+20
 35
-1.000000000000000E+20
146
0.0
 13
0.0
 23
0.0
 33
0.0
 16
1.0
 26
0.0
 36
0.0
 17
0.0
 27
1.0
 37
0.0
 76
     0
330
F8
  0
MLINESTYLE
  5
FF
102
{ACAD_REACTORS
330
FE
102
}
330
FE
100
AcDbMlineStyle
  2
STANDARD
 70
     0
  3

 62
   256
 51
90.0
 52
90.0
 71
     2
 49
0.5
 62
   256
  6
BYLAYER
 49
-0.5
 62
   256
  6
BYLAYER
  0
ACDBPLACEHOLDER
  5
11F
102
{ACAD_REACTORS
330
11E
102
}
330
11E
  0
DICTIONARYVAR
  5
110
102
{ACAD_REACTORS
330
10F
102
}
330
10F
100
DictionaryVariables
280
     0
  1
0
  0
DICTIONARYVAR
  5
27D
102
{ACAD_REACTORS
330
10F
102
}
330
10F
100
DictionaryVariables
280
     0
  1
1
  0
DICTIONARYVAR
  5
27C
102
{ACAD_REACTORS
330
10F
102
}
330
10F
100
DictionaryVariables
280
     0
  1
1
  0
ACMDATADICTIONARY
  5
1E3
102
{ACAD_REACTORS
330
1E2
102
}
330
1E2
100
AcDbDictionary
281
     1
  3
*A1
350
1E4
100
AcmDataDictionary
  0
DICTIONARY
  5
129
102
{ACAD_REACTORS
330
128
102
}
330
128
100
AcDbDictionary
281
     1
  3
DWGSETTINGS
350
12A
  0
ACAMGFILTERDAT
  5
218
102
{ACAD_REACTORS
330
213
102
}
330
213
100
AcAmgFilterDat
 70
    15
  1
DIMENSION,AMDT_*_DIM
  2
*
  3
*
  4
*
  5
*
290
     1
  0
ACAMGFILTERDAT
  5
217
102
{ACAD_REACTORS
330
213
102
}
330
213
100
AcAmgFilterDat
 70
    15
  1
*
  2
AM_FEA-AM_*
  3
*
  4
*
  5
*
290
     1
  0
ACAMGFILTERDAT
  5
214
102
{ACAD_REACTORS
330
213
102
}
330
213
100
AcAmgFilterDat
 70
    15
  1
HATCH
  2
*
  3
*
  4
*
  5
*
290
     1
  0
ACAMGFILTERDAT
  5
215
102
{ACAD_REACTORS
330
213
102
}
330
213
100
AcAmgFilterDat
 70
    15
  1
LINE
  2
8,8N,*-8,*-8N,AM_8,AM_8N,*-AM_8,*-AM_8N
  3
*
  4
*
  5
INSERT,STDPART2D
290
     1
  0
ACAMGFILTERDAT
  5
219
102
{ACAD_REACTORS
330
213
102
}
330
213
100
AcAmgFilterDat
 70
    15
  1
ARC
  2
AM_5
  3
*
  4
2
  5
INSERT
290
     0
  0
ACAMGFILTERDAT
  5
216
102
{ACAD_REACTORS
330
213
102
}
330
213
100
AcAmgFilterDat
 70
    15
  1
ACMFCFRAME,ACMDATUMTARGET,ACMDATUMID,ACMWELDSYM,ACMSURFSYM,ACMFEATID,ACMPARTREF,ACMBALLOON,AMDTEDGESYM,AMGSCREWCALCTABLE
  2
*
  3
*
  4
*
  5
*
290
     1
  0
LAYER_INDEX
  5
276
102
{ACAD_REACTORS
330
275
102
}
330
275
100
AcDbIndex
 40
2456709.63252875
100
AcDbLayerIndex
  8
0
360
277
 90
       43
  8
1
360
278
 90
        7
  8
2
360
279
 90
        4
  8
3
360
27A
 90
        0
  8
Defpoints
360
27B
 90
        0
  0
ACMDATAENTRYBLOCK
  5
1E4
102
{ACAD_REACTORS
330
1E3
102
}
330
1E3
100
AcmDataEntry
100
AcmDataEntryBlock
  0
IDBUFFER
  5
277
330
0
100
AcDbIdBuffer
330
7F
330
80
330
95
330
98
330
99
330
9A
330
9C
330
9D
330
9E
330
9F
330
A0
330
A1
330
A6
330
A7
330
AB
330
AD
330
AE
330
AF
330
B0
330
B2
330
26D
330
26E
330
26F
330
270
330
271
330
272
330
273
330
3F
330
40
330
41
330
42
330
4C
330
4D
330
55
330
76
330
77
330
78
330
79
330
7A
330
7B
330
7C
330
7D
330
7E
  0
IDBUFFER
  5
278
330
0
100
AcDbIdBuffer
330
3E
330
43
330
54
330
75
330
96
330
97
330
9B
  0
IDBUFFER
  5
279
330
0
100
AcDbIdBuffer
330
116
330
118
330
119
330
11A
  0
IDBUFFER
  5
27A
330
0
100
AcDbIdBuffer
  0
IDBUFFER
  5
27B
330
0
100
AcDbIdBuffer
  0
ENDSEC
  0
EOF
