  0
SECTION
  2
HEADER
  9
$ACADVER
  1
AC1014
  9
$ACADMAINTVER
 70
     0
  9
$DWGCODEPAGE
  3
ANSI_932
  9
$INSBASE
 10
0.0
 20
0.0
 30
0.0
  9
$EXTMIN
 10
40.479203
 20
50.25
 30
0.0
  9
$EXTMAX
 10
309.5
 20
208.25
 30
0.0
  9
$LIMMIN
 10
0.0
 20
0.0
  9
$LIMMAX
 10
350.0
 20
250.0
  9
$ORTHOMODE
 70
     1
  9
$REGENMODE
 70
     1
  9
$FILLMODE
 70
     1
  9
$QTEXTMODE
 70
     0
  9
$MIRRTEXT
 70
     1
  9
$DRAGMODE
 70
     2
  9
$LTSCALE
 40
1.0
  9
$OSMODE
 70
    33
  9
$ATTMODE
 70
     1
  9
$TEXTSIZE
 40
5.0
  9
$TRACEWID
 40
0.05
  9
$TEXTSTYLE
  7
BIGFONT
  9
$CLAYER
  8
2
  9
$CELTYPE
  6
BYLAYER
  9
$CECOLOR
 62
   256
  9
$CELTSCALE
 40
1.0
  9
$DELOBJ
 70
     1
  9
$DISPSILH
 70
     0
  9
$DIMSCALE
 40
1.0
  9
$DIMASZ
 40
0.18
  9
$DIMEXO
 40
0.0625
  9
$DIMDLI
 40
0.38
  9
$DIMRND
 40
0.0
  9
$DIMDLE
 40
0.0
  9
$DIMEXE
 40
0.18
  9
$DIMTP
 40
0.0
  9
$DIMTM
 40
0.0
  9
$DIMTXT
 40
0.18
  9
$DIMCEN
 40
0.09
  9
$DIMTSZ
 40
0.0
  9
$DIMTOL
 70
     0
  9
$DIMLIM
 70
     0
  9
$DIMTIH
 70
     1
  9
$DIMTOH
 70
     1
  9
$DIMSE1
 70
     0
  9
$DIMSE2
 70
     0
  9
$DIMTAD
 70
     0
  9
$DIMZIN
 70
     0
  9
$DIMBLK
  1

  9
$DIMASO
 70
     1
  9
$DIMSHO
 70
     1
  9
$DIMPOST
  1

  9
$DIMAPOST
  1

  9
$DIMALT
 70
     0
  9
$DIMALTD
 70
     2
  9
$DIMALTF
 40
25.4
  9
$DIMLFAC
 40
1.0
  9
$DIMTOFL
 70
     0
  9
$DIMTVP
 40
0.0
  9
$DIMTIX
 70
     0
  9
$DIMSOXD
 70
     0
  9
$DIMSAH
 70
     0
  9
$DIMBLK1
  1

  9
$DIMBLK2
  1

  9
$DIMSTYLE
  2
STANDARD
  9
$DIMCLRD
 70
     0
  9
$DIMCLRE
 70
     0
  9
$DIMCLRT
 70
     0
  9
$DIMTFAC
 40
1.0
  9
$DIMGAP
 40
0.09
  9
$DIMJUST
 70
     0
  9
$DIMSD1
 70
     0
  9
$DIMSD2
 70
     0
  9
$DIMTOLJ
 70
     1
  9
$DIMTZIN
 70
     0
  9
$DIMALTZ
 70
     0
  9
$DIMALTTZ
 70
     0
  9
$DIMFIT
 70
     5
  9
$DIMUPT
 70
     0
  9
$DIMUNIT
 70
     2
  9
$DIMDEC
 70
     4
  9
$DIMTDEC
 70
     4
  9
$DIMALTU
 70
     2
  9
$DIMALTTD
 70
     2
  9
$DIMTXSTY
  7
BIGFONT
  9
$DIMAUNIT
 70
     0
  9
$LUNITS
 70
     2
  9
$LUPREC
 70
     4
  9
$SKETCHINC
 40
0.1
  9
$FILLETRAD
 40
0.0
  9
$AUNITS
 70
     0
  9
$AUPREC
 70
     0
  9
$MENU
  1
acad
  9
$ELEVATION
 40
0.0
  9
$PELEVATION
 40
0.0
  9
$THICKNESS
 40
0.0
  9
$LIMCHECK
 70
     0
  9
$BLIPMODE
 70
     0
  9
$CHAMFERA
 40
0.0
  9
$CHAMFERB
 40
0.0
  9
$CHAMFERC
 40
0.0
  9
$CHAMFERD
 40
0.0
  9
$SKPOLY
 70
     0
  9
$TDCREATE
 40
2450867.138543403
  9
$TDUPDATE
 40
2453551.589731620
  9
$TDINDWG
 40
0.0008440046
  9
$TDUSRTIMER
 40
0.0008440046
  9
$USRTIMER
 70
     1
  9
$ANGBASE
 50
0.0
  9
$ANGDIR
 70
     0
  9
$PDMODE
 70
     0
  9
$PDSIZE
 40
0.0
  9
$PLINEWID
 40
0.0
  9
$COORDS
 70
     2
  9
$SPLFRAME
 70
     0
  9
$SPLINETYPE
 70
     6
  9
$SPLINESEGS
 70
     8
  9
$ATTDIA
 70
     0
  9
$ATTREQ
 70
     1
  9
$HANDLING
 70
     1
  9
$HANDSEED
  5
111
  9
$SURFTAB1
 70
     6
  9
$SURFTAB2
 70
     6
  9
$SURFTYPE
 70
     6
  9
$SURFU
 70
     6
  9
$SURFV
 70
     6
  9
$UCSNAME
  2

  9
$UCSORG
 10
0.0
 20
0.0
 30
0.0
  9
$UCSXDIR
 10
1.0
 20
0.0
 30
0.0
  9
$UCSYDIR
 10
0.0
 20
1.0
 30
0.0
  9
$PUCSNAME
  2

  9
$PUCSORG
 10
0.0
 20
0.0
 30
0.0
  9
$PUCSXDIR
 10
1.0
 20
0.0
 30
0.0
  9
$PUCSYDIR
 10
0.0
 20
1.0
 30
0.0
  9
$USERI1
 70
     0
  9
$USERI2
 70
     0
  9
$USERI3
 70
     0
  9
$USERI4
 70
     0
  9
$USERI5
 70
     0
  9
$USERR1
 40
0.0
  9
$USERR2
 40
0.0
  9
$USERR3
 40
0.0
  9
$USERR4
 40
0.0
  9
$USERR5
 40
0.0
  9
$WORLDVIEW
 70
     1
  9
$SHADEDGE
 70
     3
  9
$SHADEDIF
 70
    70
  9
$TILEMODE
 70
     1
  9
$MAXACTVP
 70
    16
  9
$PINSBASE
 10
0.0
 20
0.0
 30
0.0
  9
$PLIMCHECK
 70
     0
  9
$PEXTMIN
 10
1.000000E+20
 20
1.000000E+20
 30
1.000000E+20
  9
$PEXTMAX
 10
-1.000000E+20
 20
-1.000000E+20
 30
-1.000000E+20
  9
$PLIMMIN
 10
0.0
 20
0.0
  9
$PLIMMAX
 10
12.0
 20
9.0
  9
$UNITMODE
 70
     0
  9
$VISRETAIN
 70
     0
  9
$PLINEGEN
 70
     0
  9
$PSLTSCALE
 70
     1
  9
$TREEDEPTH
 70
  3020
  9
$PICKSTYLE
 70
     1
  9
$CMLSTYLE
  2
STANDARD
  9
$CMLJUST
 70
     0
  9
$CMLSCALE
 40
1.0
  9
$PROXYGRAPHICS
 70
     1
  9
$MEASUREMENT
 70
     0
  0
ENDSEC
  0
SECTION
  2
CLASSES
  0
CLASS
  1
DICTIONARYVAR
  2
AcDbDictionaryVar
  3
"AutoCAD"
 90
        0
280
     0
281
     0
  0
ENDSEC
  0
SECTION
  2
TABLES
  0
TABLE
  2
VPORT
  5
E1
100
AcDbSymbolTable
 70
     3
  0
VPORT
  5
110
100
AcDbSymbolTableRecord
100
AcDbViewportTableRecord
  2
*ACTIVE
 70
     0
 10
0.0
 20
0.0
 11
1.0
 21
1.0
 12
221.702756
 22
154.502698
 13
0.0
 23
0.0
 14
5.0
 24
5.0
 15
10.0
 25
10.0
 16
0.0
 26
0.0
 36
1.0
 17
0.0
 27
0.0
 37
0.0
 40
309.005396
 41
1.434944
 42
50.0
 43
0.0
 44
0.0
 50
0.0
 51
0.0
 71
     0
 72
   100
 73
     1
 74
     1
 75
     0
 76
     0
 77
     0
 78
     0
  0
ENDTAB
  0
TABLE
  2
LTYPE
  5
DE
100
AcDbSymbolTable
 70
     4
  0
LTYPE
  5
EA
100
AcDbSymbolTableRecord
100
AcDbLinetypeTableRecord
  2
BYBLOCK
 70
     0
  3

 72
    65
 73
     0
 40
0.0
  0
LTYPE
  5
EB
100
AcDbSymbolTableRecord
100
AcDbLinetypeTableRecord
  2
BYLAYER
 70
     0
  3

 72
    65
 73
     0
 40
0.0
  0
LTYPE
  5
EC
100
AcDbSymbolTableRecord
100
AcDbLinetypeTableRecord
  2
CONTINUOUS
 70
     0
  3
Solid line
 72
    65
 73
     0
 40
0.0
  0
LTYPE
  5
F7
100
AcDbSymbolTableRecord
100
AcDbLinetypeTableRecord
  2
TENSEN1
 70
     0
  3

 72
    65
 73
     2
 40
0.4
 49
0.3
 74
     0
 49
-0.1
 74
     0
  0
LTYPE
  5
F8
100
AcDbSymbolTableRecord
100
AcDbLinetypeTableRecord
  2
ITTEN1
 70
     0
  3

 72
    65
 73
     4
 40
8.2
 49
5.0
 74
     0
 49
-1.0
 74
     0
 49
1.2
 74
     0
 49
-1.0
 74
     0
  0
LTYPE
  5
F9
100
AcDbSymbolTableRecord
100
AcDbLinetypeTableRecord
  2
TENSEN2
 70
     0
  3

 72
    65
 73
     2
 40
2.1
 49
1.5
 74
     0
 49
-0.6
 74
     0
  0
ENDTAB
  0
TABLE
  2
LAYER
  5
DB
100
AcDbSymbolTable
 70
     4
  0
LAYER
  5
E7
100
AcDbSymbolTableRecord
100
AcDbLayerTableRecord
  2
0
 70
     0
 62
     7
  6
CONTINUOUS
  0
LAYER
  5
FD
100
AcDbSymbolTableRecord
100
AcDbLayerTableRecord
  2
1
 70
     0
 62
     1
  6
ITTEN1
  0
LAYER
  5
FE
100
AcDbSymbolTableRecord
100
AcDbLayerTableRecord
  2
2
 70
     0
 62
     2
  6
TENSEN2
  0
LAYER
  5
FF
100
AcDbSymbolTableRecord
100
AcDbLayerTableRecord
  2
3
 70
     0
 62
     3
  6
CONTINUOUS
  0
ENDTAB
  0
TABLE
  2
STYLE
  5
DC
100
AcDbSymbolTable
 70
     3
  0
STYLE
  5
E8
100
AcDbSymbolTableRecord
100
AcDbTextStyleTableRecord
  2
STANDARD
 70
     0
 40
0.0
 41
1.0
 50
0.0
 71
     0
 42
0.2
  3
txt
  4

  0
STYLE
  5
F5
100
AcDbSymbolTableRecord
100
AcDbTextStyleTableRecord
  2
BIGFONT
 70
     0
 40
5.0
 41
1.0
 50
0.0
 71
     0
 42
5.0
  3

  4
bigfont
  0
STYLE
  5
F6
100
AcDbSymbolTableRecord
100
AcDbTextStyleTableRecord
  2
EXTFONT
 70
     0
 40
8.0
 41
0.8
 50
0.0
 71
     0
 42
8.0
  3

  4
extfont
  0
ENDTAB
  0
TABLE
  2
VIEW
  5
DF
100
AcDbSymbolTable
 70
     0
  0
ENDTAB
  0
TABLE
  2
UCS
  5
E0
100
AcDbSymbolTable
 70
     0
  0
ENDTAB
  0
TABLE
  2
APPID
  5
E2
100
AcDbSymbolTable
 70
     1
  0
APPID
  5
E9
100
AcDbSymbolTableRecord
100
AcDbRegAppTableRecord
  2
ACAD
 70
     0
  0
ENDTAB
  0
TABLE
  2
DIMSTYLE
  5
E3
100
AcDbSymbolTable
 70
     1
  0
DIMSTYLE
105
FC
100
AcDbSymbolTableRecord
100
AcDbDimStyleTableRecord
  2
STANDARD
 70
     0
  3

  4

  5

  6

  7

 40
1.0
 41
0.18
 42
0.0625
 43
0.38
 44
0.18
 45
0.0
 46
0.0
 47
0.0
 48
0.0
140
0.18
141
0.09
142
0.0
143
25.4
144
1.0
145
0.0
146
1.0
147
0.09
 71
     0
 72
     0
 73
     1
 74
     1
 75
     0
 76
     0
 77
     0
 78
     0
170
     0
171
     2
172
     0
173
     0
174
     0
175
     0
176
     0
177
     0
178
     0
270
     2
271
     4
272
     4
273
     2
274
     2
340
F5
275
     0
280
     0
281
     0
282
     0
283
     1
284
     0
285
     0
286
     0
287
     5
288
     0
  0
ENDTAB
  0
TABLE
  2
BLOCK_RECORD
  5
DA
100
AcDbSymbolTable
 70
     0
  0
BLOCK_RECORD
  5
F0
100
AcDbSymbolTableRecord
100
AcDbBlockTableRecord
  2
*MODEL_SPACE
  0
BLOCK_RECORD
  5
ED
100
AcDbSymbolTableRecord
100
AcDbBlockTableRecord
  2
*PAPER_SPACE
  0
ENDTAB
  0
ENDSEC
  0
SECTION
  2
BLOCKS
  0
BLOCK
  5
102
100
AcDbEntity
  8
0
100
AcDbBlockBegin
  2
*MODEL_SPACE
 70
     0
 10
0.0
 20
0.0
 30
0.0
  3
*MODEL_SPACE
  1

  0
ENDBLK
  5
103
100
AcDbEntity
  8
0
100
AcDbBlockEnd
  0
BLOCK
  5
100
100
AcDbEntity
 67
     1
  8
0
100
AcDbBlockBegin
  2
*PAPER_SPACE
 70
     0
 10
0.0
 20
0.0
 30
0.0
  3
*PAPER_SPACE
  1

  0
ENDBLK
  5
101
100
AcDbEntity
 67
     1
  8
0
100
AcDbBlockEnd
  0
ENDSEC
  0
SECTION
  2
ENTITIES
  0
LINE
  5
3E
100
AcDbEntity
  8
1
100
AcDbLine
 10
293.0
 20
135.189861
 30
0.0
 11
293.0
 21
92.75
 31
0.0
  0
LINE
  5
47
100
AcDbEntity
  8
0
100
AcDbLine
 10
293.0
 20
121.25
 30
0.0
 11
302.0
 21
121.25
 31
0.0
  0
LINE
  5
48
100
AcDbEntity
  8
0
100
AcDbLine
 10
293.0
 20
121.25
 30
0.0
 11
284.0
 21
121.25
 31
0.0
  0
LINE
  5
49
100
AcDbEntity
  8
0
100
AcDbLine
 10
302.0
 20
121.25
 30
0.0
 11
302.0
 21
104.75
 31
0.0
  0
LINE
  5
4A
100
AcDbEntity
  8
0
100
AcDbLine
 10
284.0
 20
121.25
 30
0.0
 11
284.0
 21
111.25
 31
0.0
  0
LINE
  5
4B
100
AcDbEntity
  8
1
100
AcDbLine
 10
168.0
 20
113.75
 30
0.0
 11
168.0
 21
50.25
 31
0.0
  0
LINE
  5
4C
100
AcDbEntity
  8
0
100
AcDbLine
 10
284.0
 20
111.25
 30
0.0
 11
222.0
 21
111.25
 31
0.0
  0
LINE
  5
4D
100
AcDbEntity
  8
0
100
AcDbLine
 10
168.0
 20
98.25
 30
0.0
 11
150.0
 21
98.25
 31
0.0
  0
LINE
  5
4E
100
AcDbEntity
  8
1
100
AcDbLine
 10
309.5
 20
107.75
 30
0.0
 11
271.5
 21
107.75
 31
0.0
  0
ARC
  5
4F
100
AcDbEntity
  8
0
100
AcDbCircle
 10
154.5
 20
94.25
 30
0.0
 40
6.020797
100
AcDbArc
 50
138.366461
 51
221.633539
  0
LINE
  5
50
100
AcDbEntity
  8
0
100
AcDbLine
 10
150.0
 20
90.25
 30
0.0
 11
186.0
 21
90.25
 31
0.0
  0
LINE
  5
51
100
AcDbEntity
  8
0
100
AcDbLine
 10
186.0
 20
90.25
 30
0.0
 11
186.0
 21
63.25
 31
0.0
  0
LINE
  5
52
100
AcDbEntity
  8
0
100
AcDbLine
 10
186.0
 20
63.25
 30
0.0
 11
150.0
 21
63.25
 31
0.0
  0
LINE
  5
53
100
AcDbEntity
  8
0
100
AcDbLine
 10
150.0
 20
63.25
 30
0.0
 11
150.0
 21
90.25
 31
0.0
  0
LINE
  5
54
100
AcDbEntity
  8
0
100
AcDbLine
 10
301.5
 20
104.25
 30
0.0
 11
302.0
 21
104.75
 31
0.0
  0
ARC
  5
72
100
AcDbEntity
  8
0
100
AcDbCircle
 10
282.615439
 20
105.75323
 30
0.0
 40
5.758591
100
AcDbArc
 50
344.442101
 51
75.455333
  0
ARC
  5
75
100
AcDbEntity
  8
0
100
AcDbCircle
 10
186.0
 20
119.25
 30
0.0
 40
21.0
100
AcDbArc
 50
270.0
 51
310.156
  0
ARC
  5
76
100
AcDbEntity
  8
0
100
AcDbCircle
 10
186.0
 20
119.25
 30
0.0
 40
29.0
100
AcDbArc
 50
270.0
 51
305.882137
  0
ARC
  5
77
100
AcDbEntity
  8
0
100
AcDbCircle
 10
221.0
 20
76.25
 30
0.0
 40
35.0
100
AcDbArc
 50
89.09062
 51
118.412661
  0
LINE
  5
78
100
AcDbEntity
  8
0
100
AcDbLine
 10
222.492935
 20
103.565956
 30
0.0
 11
301.5
 21
104.25
 31
0.0
  0
LINE
  5
79
100
AcDbEntity
  8
0
100
AcDbLine
 10
168.0
 20
98.25
 30
0.0
 11
186.0
 21
98.25
 31
0.0
  0
ARC
  5
7A
100
AcDbEntity
  8
0
100
AcDbCircle
 10
224.898976
 20
69.692023
 30
0.0
 40
33.99445
100
AcDbArc
 50
94.194033
 51
130.219206
  0
ARC
  5
7B
100
AcDbEntity
  8
0
100
AcDbCircle
 10
215.402612
 20
88.104686
 30
0.0
 40
21.908948
100
AcDbArc
 50
120.24278
 51
136.439582
  0
LINE
  5
7C
100
AcDbEntity
  8
0
100
AcDbLine
 10
221.555043
 20
111.245053
 30
0.0
 11
222.002429
 21
111.249834
 31
0.0
  0
LINE
  5
7D
100
AcDbEntity
  8
0
100
AcDbLine
 10
181.5
 20
89.75
 30
0.0
 11
181.5
 21
98.25
 31
0.0
  0
ARC
  5
8E
100
AcDbEntity
  8
0
100
AcDbCircle
 10
81.007813
 20
95.21875
 30
0.0
 40
34.021608
100
AcDbArc
 50
151.887268
 51
174.906463
  0
LINE
  5
8F
100
AcDbEntity
  8
0
100
AcDbLine
 10
69.0
 20
121.25
 30
0.0
 11
69.0
 21
111.25
 31
0.0
  0
LINE
  5
90
100
AcDbEntity
  8
1
100
AcDbLine
 10
60.0
 20
135.189861
 30
0.0
 11
60.0
 21
52.25
 31
0.0
  0
LINE
  5
91
100
AcDbEntity
  8
0
100
AcDbLine
 10
60.0
 20
98.25
 30
0.0
 11
42.0
 21
98.25
 31
0.0
  0
LINE
  5
92
100
AcDbEntity
  8
0
100
AcDbLine
 10
78.0
 20
63.25
 30
0.0
 11
42.0
 21
63.25
 31
0.0
  0
LINE
  5
93
100
AcDbEntity
  8
0
100
AcDbLine
 10
42.0
 20
90.25
 30
0.0
 11
78.0
 21
90.25
 31
0.0
  0
LINE
  5
94
100
AcDbEntity
  8
0
100
AcDbLine
 10
42.0
 20
63.25
 30
0.0
 11
42.0
 21
90.25
 31
0.0
  0
ARC
  5
95
100
AcDbEntity
  8
0
100
AcDbCircle
 10
46.5
 20
94.25
 30
0.0
 40
6.020797
100
AcDbArc
 50
138.366461
 51
221.633539
  0
LINE
  5
96
100
AcDbEntity
  8
0
100
AcDbLine
 10
78.0
 20
90.25
 30
0.0
 11
78.0
 21
63.25
 31
0.0
  0
LINE
  5
97
100
AcDbEntity
  8
0
100
AcDbLine
 10
60.0
 20
98.25
 30
0.0
 11
78.0
 21
98.25
 31
0.0
  0
ARC
  5
98
100
AcDbEntity
  8
0
100
AcDbCircle
 10
73.5
 20
94.25
 30
0.0
 40
6.020797
100
AcDbArc
 50
318.366461
 51
41.633539
  0
LINE
  5
9B
100
AcDbEntity
  8
0
100
AcDbLine
 10
60.0
 20
121.25
 30
0.0
 11
51.0
 21
121.25
 31
0.0
  0
LINE
  5
9E
100
AcDbEntity
  8
0
100
AcDbLine
 10
51.0
 20
121.25
 30
0.0
 11
51.0
 21
111.25
 31
0.0
  0
LINE
  5
A1
100
AcDbEntity
  8
0
100
AcDbLine
 10
60.0
 20
121.25
 30
0.0
 11
69.0
 21
121.25
 31
0.0
  0
LINE
  5
A6
100
AcDbEntity
  8
0
100
AcDbLine
 10
69.0
 20
111.25
 30
0.0
 11
51.0
 21
111.25
 31
0.0
  0
ARC
  5
A7
100
AcDbEntity
  8
0
100
AcDbCircle
 10
38.992188
 20
95.21875
 30
0.0
 40
34.021608
100
AcDbArc
 50
5.093537
 51
28.112732
  0
LINE
  5
10B
100
AcDbEntity
  8
2
100
AcDbLine
 10
298.0
 20
121.25
 30
0.0
 11
298.0
 21
104.25
 31
0.0
  0
LINE
  5
10D
100
AcDbEntity
  8
2
100
AcDbLine
 10
297.0
 20
104.25
 30
0.0
 11
297.0
 21
121.25
 31
0.0
  0
LINE
  5
10E
100
AcDbEntity
  8
2
100
AcDbLine
 10
289.0
 20
104.25
 30
0.0
 11
289.0
 21
121.25
 31
0.0
  0
LINE
  5
10F
100
AcDbEntity
  8
2
100
AcDbLine
 10
288.0
 20
121.25
 30
0.0
 11
288.0
 21
104.25
 31
0.0
  0
ENDSEC
  0
SECTION
  2
OBJECTS
  0
DICTIONARY
  5
E5
100
AcDbDictionary
  3
ACAD_GROUP
350
E6
  3
ACAD_MLINESTYLE
350
F3
  3
ACDBVARIABLEDICTIONARY
350
104
  0
DICTIONARY
  5
E6
102
{ACAD_REACTORS
330
E5
102
}
100
AcDbDictionary
  0
DICTIONARY
  5
F3
102
{ACAD_REACTORS
330
E5
102
}
100
AcDbDictionary
  3
STANDARD
350
F4
  0
DICTIONARY
  5
104
102
{ACAD_REACTORS
330
E5
102
}
100
AcDbDictionary
  3
DIMADEC
350
105
  0
MLINESTYLE
  5
F4
102
{ACAD_REACTORS
330
F3
102
}
100
AcDbMlineStyle
  2
STANDARD
 70
     0
  3

 62
   256
 51
90.0
 52
90.0
 71
     2
 49
0.5
 62
   256
  6
BYLAYER
 49
-0.5
 62
   256
  6
BYLAYER
  0
DICTIONARYVAR
  5
105
102
{ACAD_REACTORS
330
104
102
}
100
DictionaryVariables
280
     0
  1
0
  0
ENDSEC
  0
EOF
