  0
SECTION
  2
HEADER
  9
$ACADVER
  1
AC1014
  9
$ACADMAINTVER
 70
     0
  9
$DWGCODEPAGE
  3
ANSI_932
  9
$INSBASE
 10
0.0
 20
0.0
 30
0.0
  9
$EXTMIN
 10
20.0
 20
30.0
 30
0.0
  9
$EXTMAX
 10
226.485023
 20
130.0
 30
0.0
  9
$LIMMIN
 10
0.0
 20
0.0
  9
$LIMMAX
 10
250.0
 20
160.0
  9
$ORTHOMODE
 70
     1
  9
$REGENMODE
 70
     1
  9
$FILLMODE
 70
     1
  9
$QTEXTMODE
 70
     0
  9
$MIRRTEXT
 70
     1
  9
$DRAGMODE
 70
     1
  9
$LTSCALE
 40
20.0
  9
$OSMODE
 70
    32
  9
$ATTMODE
 70
     1
  9
$TEXTSIZE
 40
8.0
  9
$TRACEWID
 40
0.05
  9
$TEXTSTYLE
  7
BIGFONT
  9
$CLAYER
  8
0
  9
$CELTYPE
  6
BYLAYER
  9
$CECOLOR
 62
   256
  9
$CELTSCALE
 40
1.0
  9
$DELOBJ
 70
     1
  9
$DISPSILH
 70
     0
  9
$DIMSCALE
 40
2.0
  9
$DIMASZ
 40
3.0
  9
$DIMEXO
 40
2.0
  9
$DIMDLI
 40
0.38
  9
$DIMRND
 40
0.0
  9
$DIMDLE
 40
0.0
  9
$DIMEXE
 40
2.0
  9
$DIMTP
 40
0.0
  9
$DIMTM
 40
0.0
  9
$DIMTXT
 40
3.2
  9
$DIMCEN
 40
0.09
  9
$DIMTSZ
 40
0.0
  9
$DIMTOL
 70
     0
  9
$DIMLIM
 70
     0
  9
$DIMTIH
 70
     0
  9
$DIMTOH
 70
     0
  9
$DIMSE1
 70
     0
  9
$DIMSE2
 70
     0
  9
$DIMTAD
 70
     1
  9
$DIMZIN
 70
     0
  9
$DIMBLK
  1

  9
$DIMASO
 70
     0
  9
$DIMSHO
 70
     0
  9
$DIMPOST
  1

  9
$DIMAPOST
  1

  9
$DIMALT
 70
     0
  9
$DIMALTD
 70
     2
  9
$DIMALTF
 40
25.4
  9
$DIMLFAC
 40
1.0
  9
$DIMTOFL
 70
     0
  9
$DIMTVP
 40
1.6
  9
$DIMTIX
 70
     1
  9
$DIMSOXD
 70
     0
  9
$DIMSAH
 70
     0
  9
$DIMBLK1
  1

  9
$DIMBLK2
  1

  9
$DIMSTYLE
  2
STANDARD
  9
$DIMCLRD
 70
     0
  9
$DIMCLRE
 70
     0
  9
$DIMCLRT
 70
     0
  9
$DIMTFAC
 40
1.0
  9
$DIMGAP
 40
0.09
  9
$DIMJUST
 70
     0
  9
$DIMSD1
 70
     0
  9
$DIMSD2
 70
     0
  9
$DIMTOLJ
 70
     1
  9
$DIMTZIN
 70
     0
  9
$DIMALTZ
 70
     0
  9
$DIMALTTZ
 70
     0
  9
$DIMFIT
 70
     5
  9
$DIMUPT
 70
     0
  9
$DIMUNIT
 70
     2
  9
$DIMDEC
 70
     4
  9
$DIMTDEC
 70
     4
  9
$DIMALTU
 70
     2
  9
$DIMALTTD
 70
     2
  9
$DIMTXSTY
  7
BIGFONT
  9
$DIMAUNIT
 70
     0
  9
$LUNITS
 70
     2
  9
$LUPREC
 70
     4
  9
$SKETCHINC
 40
0.1
  9
$FILLETRAD
 40
0.0
  9
$AUNITS
 70
     0
  9
$AUPREC
 70
     0
  9
$MENU
  1
ACAD
  9
$ELEVATION
 40
0.0
  9
$PELEVATION
 40
0.0
  9
$THICKNESS
 40
0.0
  9
$LIMCHECK
 70
     0
  9
$BLIPMODE
 70
     0
  9
$CHAMFERA
 40
0.0
  9
$CHAMFERB
 40
0.0
  9
$CHAMFERC
 40
0.0
  9
$CHAMFERD
 40
0.0
  9
$SKPOLY
 70
     0
  9
$TDCREATE
 40
2450865.682769097
  9
$TDUPDATE
 40
2453089.711251447
  9
$TDINDWG
 40
0.0012087731
  9
$TDUSRTIMER
 40
0.0012087731
  9
$USRTIMER
 70
     1
  9
$ANGBASE
 50
0.0
  9
$ANGDIR
 70
     0
  9
$PDMODE
 70
     0
  9
$PDSIZE
 40
0.0
  9
$PLINEWID
 40
0.0
  9
$COORDS
 70
     2
  9
$SPLFRAME
 70
     0
  9
$SPLINETYPE
 70
     6
  9
$SPLINESEGS
 70
     8
  9
$ATTDIA
 70
     0
  9
$ATTREQ
 70
     1
  9
$HANDLING
 70
     1
  9
$HANDSEED
  5
15E
  9
$SURFTAB1
 70
     6
  9
$SURFTAB2
 70
     6
  9
$SURFTYPE
 70
     6
  9
$SURFU
 70
     6
  9
$SURFV
 70
     6
  9
$UCSNAME
  2

  9
$UCSORG
 10
0.0
 20
0.0
 30
0.0
  9
$UCSXDIR
 10
1.0
 20
0.0
 30
0.0
  9
$UCSYDIR
 10
0.0
 20
1.0
 30
0.0
  9
$PUCSNAME
  2

  9
$PUCSORG
 10
0.0
 20
0.0
 30
0.0
  9
$PUCSXDIR
 10
1.0
 20
0.0
 30
0.0
  9
$PUCSYDIR
 10
0.0
 20
1.0
 30
0.0
  9
$USERI1
 70
     0
  9
$USERI2
 70
     0
  9
$USERI3
 70
     0
  9
$USERI4
 70
     0
  9
$USERI5
 70
     0
  9
$USERR1
 40
0.0
  9
$USERR2
 40
0.0
  9
$USERR3
 40
0.0
  9
$USERR4
 40
0.0
  9
$USERR5
 40
0.0
  9
$WORLDVIEW
 70
     1
  9
$SHADEDGE
 70
     3
  9
$SHADEDIF
 70
    70
  9
$TILEMODE
 70
     1
  9
$MAXACTVP
 70
    16
  9
$PINSBASE
 10
0.0
 20
0.0
 30
0.0
  9
$PLIMCHECK
 70
     0
  9
$PEXTMIN
 10
1.000000E+20
 20
1.000000E+20
 30
1.000000E+20
  9
$PEXTMAX
 10
-1.000000E+20
 20
-1.000000E+20
 30
-1.000000E+20
  9
$PLIMMIN
 10
0.0
 20
0.0
  9
$PLIMMAX
 10
12.0
 20
9.0
  9
$UNITMODE
 70
     0
  9
$VISRETAIN
 70
     0
  9
$PLINEGEN
 70
     1
  9
$PSLTSCALE
 70
     0
  9
$TREEDEPTH
 70
  3020
  9
$PICKSTYLE
 70
     1
  9
$CMLSTYLE
  2
STANDARD
  9
$CMLJUST
 70
     0
  9
$CMLSCALE
 40
1.0
  9
$PROXYGRAPHICS
 70
     1
  9
$MEASUREMENT
 70
     0
  0
ENDSEC
  0
SECTION
  2
CLASSES
  0
CLASS
  1
DICTIONARYVAR
  2
AcDbDictionaryVar
  3
"AutoCAD"
 90
        0
280
     0
281
     0
  0
ENDSEC
  0
SECTION
  2
TABLES
  0
TABLE
  2
VPORT
  5
125
100
AcDbSymbolTable
 70
     1
  0
VPORT
  5
158
100
AcDbSymbolTableRecord
100
AcDbViewportTableRecord
  2
*ACTIVE
 70
     0
 10
0.0
 20
0.0
 11
1.0
 21
1.0
 12
141.889764
 22
89.128813
 13
0.0
 23
0.0
 14
5.0
 24
5.0
 15
10.0
 25
10.0
 16
0.0
 26
0.0
 36
1.0
 17
0.0
 27
0.0
 37
0.0
 40
178.257626
 41
1.591963
 42
50.0
 43
0.0
 44
0.0
 50
0.0
 51
0.0
 71
     0
 72
  1000
 73
     1
 74
     1
 75
     0
 76
     0
 77
     0
 78
     2
  0
ENDTAB
  0
TABLE
  2
LTYPE
  5
122
100
AcDbSymbolTable
 70
     3
  0
LTYPE
  5
12E
100
AcDbSymbolTableRecord
100
AcDbLinetypeTableRecord
  2
BYBLOCK
 70
     0
  3

 72
    65
 73
     0
 40
0.0
  0
LTYPE
  5
12F
100
AcDbSymbolTableRecord
100
AcDbLinetypeTableRecord
  2
BYLAYER
 70
     0
  3

 72
    65
 73
     0
 40
0.0
  0
LTYPE
  5
130
100
AcDbSymbolTableRecord
100
AcDbLinetypeTableRecord
  2
CONTINUOUS
 70
     0
  3
実線
 72
    65
 73
     0
 40
0.0
  0
LTYPE
  5
13F
100
AcDbSymbolTableRecord
100
AcDbLinetypeTableRecord
  2
CENTER
 70
     0
  3
____ _ ____ _ ____ _ ____ _ ____ _ ____ _ ____
 72
    65
 73
     4
 40
2.0
 49
1.25
 74
     0
 49
-0.25
 74
     0
 49
0.25
 74
     0
 49
-0.25
 74
     0
  0
LTYPE
  5
140
100
AcDbSymbolTableRecord
100
AcDbLinetypeTableRecord
  2
TENSEN1
 70
     0
  3

 72
    65
 73
     2
 40
0.4
 49
0.3
 74
     0
 49
-0.1
 74
     0
  0
ENDTAB
  0
TABLE
  2
LAYER
  5
11F
100
AcDbSymbolTable
 70
     5
  0
LAYER
  5
12B
100
AcDbSymbolTableRecord
100
AcDbLayerTableRecord
  2
0
 70
     0
 62
     7
  6
CONTINUOUS
  0
LAYER
  5
145
100
AcDbSymbolTableRecord
100
AcDbLayerTableRecord
  2
1
 70
     0
 62
     1
  6
CENTER
  0
LAYER
  5
146
100
AcDbSymbolTableRecord
100
AcDbLayerTableRecord
  2
10
 70
     0
 62
     7
  6
CONTINUOUS
  0
LAYER
  5
147
100
AcDbSymbolTableRecord
100
AcDbLayerTableRecord
  2
11
 70
     0
 62
     3
  6
CONTINUOUS
  0
LAYER
  5
148
100
AcDbSymbolTableRecord
100
AcDbLayerTableRecord
  2
2
 70
     0
 62
     2
  6
TENSEN1
  0
ENDTAB
  0
TABLE
  2
STYLE
  5
120
100
AcDbSymbolTable
 70
     5
  0
STYLE
  5
12C
100
AcDbSymbolTableRecord
100
AcDbTextStyleTableRecord
  2
STANDARD
 70
     0
 40
0.0
 41
1.0
 50
0.0
 71
     0
 42
0.2
  3
TXT
  4
BIGFONT
  0
STYLE
  5
13B
100
AcDbSymbolTableRecord
100
AcDbTextStyleTableRecord
  2
K80
 70
     0
 40
0.0
 41
0.8
 50
0.0
 71
     0
 42
0.2
  3
TXT
  4
BIGFONT
  0
STYLE
  5
13C
100
AcDbSymbolTableRecord
100
AcDbTextStyleTableRecord
  2
07500
 70
     0
 40
0.0
 41
0.75
 50
0.0
 71
     0
 42
0.2
  3
TXT
  4
BIGFONT
  0
STYLE
  5
13D
100
AcDbSymbolTableRecord
100
AcDbTextStyleTableRecord
  2
EXTFONT
 70
     0
 40
11.0
 41
1.0
 50
0.0
 71
     0
 42
11.0
  3
txt.shx
  4
extfont
  0
STYLE
  5
13E
100
AcDbSymbolTableRecord
100
AcDbTextStyleTableRecord
  2
BIGFONT
 70
     0
 40
8.0
 41
0.8
 50
0.0
 71
     0
 42
8.0
  3
txt.shx
  4
bigfont
  0
ENDTAB
  0
TABLE
  2
VIEW
  5
123
100
AcDbSymbolTable
 70
     1
  0
VIEW
  5
141
100
AcDbSymbolTableRecord
100
AcDbViewTableRecord
  2
ALL
 70
     0
 40
540.0
 10
441.983193
 20
270.0
 41
0.0
 11
0.0
 21
0.0
 31
1.0
 12
0.0
 22
0.0
 32
0.0
 42
0.0
 43
0.0
 44
0.0
 50
0.0
 71
     0
  0
ENDTAB
  0
TABLE
  2
UCS
  5
124
100
AcDbSymbolTable
 70
     0
  0
ENDTAB
  0
TABLE
  2
APPID
  5
126
100
AcDbSymbolTable
 70
     1
  0
APPID
  5
12D
100
AcDbSymbolTableRecord
100
AcDbRegAppTableRecord
  2
ACAD
 70
     0
  0
ENDTAB
  0
TABLE
  2
DIMSTYLE
  5
127
100
AcDbSymbolTable
 70
     1
  0
DIMSTYLE
105
144
100
AcDbSymbolTableRecord
100
AcDbDimStyleTableRecord
  2
STANDARD
 70
     0
  3

  4

  5

  6

  7

 40
1.0
 41
0.18
 42
0.0625
 43
0.38
 44
0.18
 45
0.0
 46
0.0
 47
0.0
 48
0.0
140
0.18
141
0.09
142
0.0
143
25.4
144
1.0
145
0.0
146
1.0
147
0.09
 71
     0
 72
     0
 73
     1
 74
     1
 75
     0
 76
     0
 77
     0
 78
     0
170
     0
171
     2
172
     0
173
     0
174
     0
175
     0
176
     0
177
     0
178
     0
270
     2
271
     4
272
     4
273
     2
274
     2
340
13E
275
     0
280
     0
281
     0
282
     0
283
     1
284
     0
285
     0
286
     0
287
     5
288
     0
  0
ENDTAB
  0
TABLE
  2
BLOCK_RECORD
  5
11E
100
AcDbSymbolTable
 70
     2
  0
BLOCK_RECORD
  5
134
100
AcDbSymbolTableRecord
100
AcDbBlockTableRecord
  2
*MODEL_SPACE
  0
BLOCK_RECORD
  5
131
100
AcDbSymbolTableRecord
100
AcDbBlockTableRecord
  2
*PAPER_SPACE
  0
BLOCK_RECORD
  5
139
100
AcDbSymbolTableRecord
100
AcDbBlockTableRecord
  2
WAKU
  0
BLOCK_RECORD
  5
13A
100
AcDbSymbolTableRecord
100
AcDbBlockTableRecord
  2
QQ
  0
ENDTAB
  0
ENDSEC
  0
SECTION
  2
BLOCKS
  0
BLOCK
  5
14B
100
AcDbEntity
  8
0
100
AcDbBlockBegin
  2
*MODEL_SPACE
 70
     0
 10
0.0
 20
0.0
 30
0.0
  3
*MODEL_SPACE
  1

  0
ENDBLK
  5
14C
100
AcDbEntity
  8
0
100
AcDbBlockEnd
  0
BLOCK
  5
149
100
AcDbEntity
 67
     1
  8
0
100
AcDbBlockBegin
  2
*PAPER_SPACE
 70
     0
 10
0.0
 20
0.0
 30
0.0
  3
*PAPER_SPACE
  1

  0
ENDBLK
  5
14A
100
AcDbEntity
 67
     1
  8
0
100
AcDbBlockEnd
  0
BLOCK
  5
2F
100
AcDbEntity
  8
0
100
AcDbBlockBegin
  2
WAKU
 70
     0
 10
549.0
 20
0.0
 30
0.0
  3
WAKU
  1

  0
LINE
  5
30
100
AcDbEntity
  8
11
100
AcDbLine
 10
452.0
 20
12.0
 30
0.0
 11
549.0
 21
12.0
 31
0.0
  0
LINE
  5
31
100
AcDbEntity
  8
11
100
AcDbLine
 10
477.0
 20
0.0
 30
0.0
 11
477.0
 21
12.0
 31
0.0
  0
LINE
  5
32
100
AcDbEntity
  8
11
100
AcDbLine
 10
452.0
 20
12.0
 30
0.0
 11
452.0
 21
0.0
 31
0.0
  0
TEXT
  5
33
100
AcDbEntity
  8
11
100
AcDbText
 10
454.0
 20
8.5
 30
0.0
 40
2.5
  1
尺度
100
AcDbText
  0
TEXT
  5
34
100
AcDbEntity
  8
11
100
AcDbText
 10
479.0
 20
8.5
 30
0.0
 40
2.5
  1
図番
100
AcDbText
  0
ENDBLK
  5
35
100
AcDbEntity
  8
0
100
AcDbBlockEnd
  0
BLOCK
  5
36
100
AcDbEntity
  8
0
100
AcDbBlockBegin
  2
QQ
 70
     0
 10
270.0
 20
0.0
 30
0.0
  3
QQ
  1

  0
LINE
  5
37
100
AcDbEntity
  8
11
100
AcDbLine
 10
173.0
 20
36.0
 30
0.0
 11
270.0
 21
36.0
 31
0.0
  0
TEXT
  5
38
100
AcDbEntity
  8
11
100
AcDbText
 10
175.0
 20
32.5
 30
0.0
 40
2.5
  1
部品名称
100
AcDbText
  0
LINE
  5
39
100
AcDbEntity
  8
11
100
AcDbLine
 10
173.0
 20
36.0
 30
0.0
 11
173.0
 21
0.0
 31
0.0
  0
LINE
  5
3A
100
AcDbEntity
  8
11
100
AcDbLine
 10
173.0
 20
24.0
 30
0.0
 11
270.0
 21
24.0
 31
0.0
  0
TEXT
  5
3B
100
AcDbEntity
  8
11
100
AcDbText
 10
175.0
 20
20.5
 30
0.0
 40
2.5
  1
品番
100
AcDbText
  0
LINE
  5
3C
100
AcDbEntity
  8
11
100
AcDbLine
 10
173.0
 20
12.0
 30
0.0
 11
270.0
 21
12.0
 31
0.0
  0
TEXT
  5
3D
100
AcDbEntity
  8
11
100
AcDbText
 10
175.0
 20
8.5
 30
0.0
 40
2.5
  1
尺度
100
AcDbText
  0
TEXT
  5
3E
100
AcDbEntity
  8
11
100
AcDbText
 10
200.0
 20
8.5
 30
0.0
 40
2.5
  1
図番
100
AcDbText
  0
LINE
  5
3F
100
AcDbEntity
  8
11
100
AcDbLine
 10
198.0
 20
0.0
 30
0.0
 11
198.0
 21
12.0
 31
0.0
  0
ENDBLK
  5
40
100
AcDbEntity
  8
0
100
AcDbBlockEnd
  0
ENDSEC
  0
SECTION
  2
ENTITIES
  0
CIRCLE
  5
42
100
AcDbEntity
  8
0
100
AcDbCircle
 10
70.0
 20
80.0
 30
0.0
 40
12.731951
  0
CIRCLE
  5
43
100
AcDbEntity
  8
0
100
AcDbCircle
 10
70.0
 20
80.0
 30
0.0
 40
40.0
  0
LINE
  5
44
100
AcDbEntity
  8
0
100
AcDbLine
 10
63.215072
 20
96.973333
 30
0.0
 11
63.02442
 21
94.780831
 31
0.0
  0
ARC
  5
45
100
AcDbEntity
  8
0
100
AcDbCircle
 10
58.060864
 20
95.416915
 30
0.0
 40
5.0
100
AcDbArc
 50
308.558061
 51
352.695364
  0
ARC
  5
46
100
AcDbEntity
  8
0
100
AcDbCircle
 10
58.23387
 20
97.406481
 30
0.0
 40
5.0
100
AcDbArc
 50
355.030259
 51
119.989925
  0
LINE
  5
47
100
AcDbEntity
  8
0
100
AcDbLine
 10
51.908199
 20
77.389253
 30
0.0
 11
53.711635
 21
78.650614
 31
0.0
  0
ARC
  5
48
100
AcDbEntity
  8
0
100
AcDbCircle
 10
50.678992
 20
82.631138
 30
0.0
 40
5.0
100
AcDbArc
 50
307.304636
 51
351.441939
  0
ARC
  5
49
100
AcDbEntity
  8
0
100
AcDbCircle
 10
49.04248
 20
81.486527
 30
0.0
 40
5.0
100
AcDbArc
 50
180.010075
 51
304.969741
  0
ARC
  5
4A
100
AcDbEntity
  8
0
100
AcDbCircle
 10
70.0
 20
110.0
 30
0.0
 40
7.0
100
AcDbArc
 50
188.67617
 51
351.32383
  0
ARC
  5
4B
100
AcDbEntity
  8
0
100
AcDbCircle
 10
70.0
 20
80.0
 30
0.0
 40
26.0
100
AcDbArc
 50
123.275683
 51
176.724317
  0
ARC
  5
4C
100
AcDbEntity
  8
0
100
AcDbCircle
 10
70.0
 20
80.0
 30
0.0
 40
14.5
100
AcDbArc
 50
127.477883
 51
172.522117
  0
ARC
  5
4D
100
AcDbEntity
  8
0
100
AcDbCircle
 10
70.0
 20
80.0
 30
0.0
 40
14.5
100
AcDbArc
 50
247.477883
 51
292.522117
  0
ARC
  5
4E
100
AcDbEntity
  8
0
100
AcDbCircle
 10
70.0
 20
80.0
 30
0.0
 40
26.0
100
AcDbArc
 50
243.275683
 51
296.724317
  0
ARC
  5
4F
100
AcDbEntity
  8
0
100
AcDbCircle
 10
79.19139
 20
61.106991
 30
0.0
 40
5.0
100
AcDbArc
 50
300.010075
 51
64.969741
  0
ARC
  5
50
100
AcDbEntity
  8
0
100
AcDbCircle
 10
77.381872
 20
61.951947
 30
0.0
 40
5.0
100
AcDbArc
 50
67.304636
 51
111.441939
  0
LINE
  5
51
100
AcDbEntity
  8
0
100
AcDbLine
 10
81.306874
 20
65.637414
 30
0.0
 11
79.312785
 21
66.568555
 31
0.0
  0
ARC
  5
52
100
AcDbEntity
  8
0
100
AcDbCircle
 10
60.80861
 20
61.106991
 30
0.0
 40
5.0
100
AcDbArc
 50
115.030259
 51
239.989925
  0
ARC
  5
53
100
AcDbEntity
  8
0
100
AcDbCircle
 10
62.618128
 20
61.951947
 30
0.0
 40
5.0
100
AcDbArc
 50
68.558061
 51
112.695364
  0
LINE
  5
54
100
AcDbEntity
  8
0
100
AcDbLine
 10
58.693126
 20
65.637414
 30
0.0
 11
60.687215
 21
66.568555
 31
0.0
  0
ARC
  5
55
100
AcDbEntity
  8
0
100
AcDbCircle
 10
70.0
 20
80.0
 30
0.0
 40
14.5
100
AcDbArc
 50
7.477883
 51
52.522117
  0
ARC
  5
56
100
AcDbEntity
  8
0
100
AcDbCircle
 10
70.0
 20
80.0
 30
0.0
 40
26.0
100
AcDbArc
 50
3.275683
 51
56.724317
  0
ARC
  5
57
100
AcDbEntity
  8
0
100
AcDbCircle
 10
81.76613
 20
97.406481
 30
0.0
 40
5.0
100
AcDbArc
 50
60.010075
 51
184.969741
  0
ARC
  5
58
100
AcDbEntity
  8
0
100
AcDbCircle
 10
81.939136
 20
95.416915
 30
0.0
 40
5.0
100
AcDbArc
 50
187.304636
 51
231.441939
  0
LINE
  5
59
100
AcDbEntity
  8
0
100
AcDbLine
 10
76.784928
 20
96.973333
 30
0.0
 11
76.97558
 21
94.780831
 31
0.0
  0
ARC
  5
5A
100
AcDbEntity
  8
0
100
AcDbCircle
 10
90.95752
 20
81.486527
 30
0.0
 40
5.0
100
AcDbArc
 50
235.030259
 51
359.989925
  0
ARC
  5
5B
100
AcDbEntity
  8
0
100
AcDbCircle
 10
89.321008
 20
82.631138
 30
0.0
 40
5.0
100
AcDbArc
 50
188.558061
 51
232.695364
  0
LINE
  5
5C
100
AcDbEntity
  8
0
100
AcDbLine
 10
88.091801
 20
77.389253
 30
0.0
 11
86.288365
 21
78.650614
 31
0.0
  0
LINE
  5
5D
100
AcDbEntity
  8
1
100
AcDbLine
 10
60.0
 20
110.0
 30
0.0
 11
80.0
 21
110.0
 31
0.0
  0
LINE
  5
7A
100
AcDbEntity
  8
1
100
AcDbLine
 10
120.0
 20
80.0
 30
0.0
 11
20.0
 21
80.0
 31
0.0
  0
LINE
  5
7B
100
AcDbEntity
  8
1
100
AcDbLine
 10
70.0
 20
130.0
 30
0.0
 11
70.0
 21
30.0
 31
0.0
  0
ARC
  5
97
100
AcDbEntity
  8
0
100
AcDbCircle
 10
79.377692
 20
108.553821
 30
0.0
 40
2.471344
100
AcDbArc
 50
79.94535
 51
171.372606
  0
ARC
  5
98
100
AcDbEntity
  8
0
100
AcDbCircle
 10
60.762722
 20
108.757558
 30
0.0
 40
2.353814
100
AcDbArc
 50
3.169713
 51
105.656068
  0
ARC
  5
99
100
AcDbEntity
  8
0
100
AcDbCircle
 10
69.956746
 20
80.046643
 30
0.0
 40
32.5
100
AcDbArc
 50
106.863844
 51
72.748153
  0
ARC
  5
9F
100
AcDbEntity
  8
0
100
AcDbCircle
 10
199.946479
 20
112.43201
 30
0.0
 40
7.541786
100
AcDbArc
 50
359.221483
 51
179.960543
  0
ARC
  5
A0
100
AcDbEntity
  8
0
100
AcDbCircle
 10
199.940038
 20
47.474473
 30
0.0
 40
7.5
100
AcDbArc
 50
180.0
 51
0.0
  0
LINE
  5
A1
100
AcDbEntity
  8
1
100
AcDbLine
 10
182.485023
 20
80.0
 30
0.0
 11
226.485023
 21
80.0
 31
0.0
  0
LINE
  5
A2
100
AcDbEntity
  8
0
100
AcDbLine
 10
192.440038
 20
79.974473
 30
0.0
 11
192.440038
 21
112.474473
 31
0.0
  0
LINE
  5
A3
100
AcDbEntity
  8
0
100
AcDbLine
 10
192.440038
 20
79.974473
 30
0.0
 11
192.440038
 21
47.474473
 31
0.0
  0
LINE
  5
A4
100
AcDbEntity
  8
1
100
AcDbLine
 10
200.0
 20
125.746571
 30
0.0
 11
200.0
 21
33.407481
 31
0.0
  0
LINE
  5
A5
100
AcDbEntity
  8
0
100
AcDbLine
 10
207.440038
 20
79.974473
 30
0.0
 11
207.440038
 21
112.474473
 31
0.0
  0
LINE
  5
A6
100
AcDbEntity
  8
0
100
AcDbLine
 10
207.440038
 20
79.974473
 30
0.0
 11
207.440038
 21
47.474473
 31
0.0
  0
LINE
  5
A7
100
AcDbEntity
  8
0
100
AcDbLine
 10
208.440038
 20
92.974473
 30
0.0
 11
208.440038
 21
66.974473
 31
0.0
  0
LINE
  5
A8
100
AcDbEntity
  8
0
100
AcDbLine
 10
216.440038
 20
91.974473
 30
0.0
 11
216.440038
 21
67.974473
 31
0.0
  0
LINE
  5
A9
100
AcDbEntity
  8
0
100
AcDbLine
 10
217.440038
 20
79.974473
 30
0.0
 11
217.440038
 21
90.974473
 31
0.0
  0
LINE
  5
AA
100
AcDbEntity
  8
0
100
AcDbLine
 10
217.440038
 20
79.974473
 30
0.0
 11
217.440038
 21
68.974473
 31
0.0
  0
LINE
  5
AB
100
AcDbEntity
  8
0
100
AcDbLine
 10
216.440038
 20
67.974473
 30
0.0
 11
208.440038
 21
67.974473
 31
0.0
  0
LINE
  5
AC
100
AcDbEntity
  8
0
100
AcDbLine
 10
208.440038
 20
66.974473
 30
0.0
 11
207.440038
 21
66.474473
 31
0.0
  0
LINE
  5
AD
100
AcDbEntity
  8
0
100
AcDbLine
 10
217.440038
 20
68.974473
 30
0.0
 11
216.440038
 21
67.974473
 31
0.0
  0
LINE
  5
AE
100
AcDbEntity
  8
0
100
AcDbLine
 10
217.440038
 20
90.974473
 30
0.0
 11
216.440038
 21
91.974473
 31
0.0
  0
LINE
  5
AF
100
AcDbEntity
  8
0
100
AcDbLine
 10
216.440038
 20
91.974473
 30
0.0
 11
208.440038
 21
91.974473
 31
0.0
  0
LINE
  5
B0
100
AcDbEntity
  8
0
100
AcDbLine
 10
208.440038
 20
92.974473
 30
0.0
 11
207.440038
 21
93.474473
 31
0.0
  0
LINE
  5
B1
100
AcDbEntity
  8
1
100
AcDbLine
 10
209.033583
 20
110.76612
 30
0.0
 11
185.92259
 21
110.76612
 31
0.0
  0
LINE
  5
E1
100
AcDbEntity
  8
2
100
AcDbLine
 10
193.420923
 20
91.989457
 30
0.0
 11
193.420923
 21
67.965482
 31
0.0
  0
ARC
  5
E2
100
AcDbEntity
  8
2
100
AcDbCircle
 10
201.868317
 20
79.387998
 30
0.0
 40
15.170868
100
AcDbArc
 50
68.507959
 51
123.835943
  0
ARC
  5
E3
100
AcDbEntity
  8
2
100
AcDbCircle
 10
201.862212
 20
80.510478
 30
0.0
 40
15.120591
100
AcDbArc
 50
236.064143
 51
291.591955
  0
CIRCLE
  5
153
100
AcDbEntity
  8
0
100
AcDbCircle
 10
70.0
 20
110.0
 30
0.0
 40
3.5
  0
CIRCLE
  5
154
100
AcDbEntity
  8
0
100
AcDbCircle
 10
70.0
 20
110.0
 30
0.0
 40
2.0
  0
CIRCLE
  5
155
100
AcDbEntity
  8
0
100
AcDbCircle
 10
70.0
 20
110.0
 30
0.0
 40
1.5
  0
ENDSEC
  0
SECTION
  2
OBJECTS
  0
DICTIONARY
  5
129
100
AcDbDictionary
  3
ACAD_GROUP
350
12A
  3
ACAD_MLINESTYLE
350
137
  3
ACDBVARIABLEDICTIONARY
350
14D
  0
DICTIONARY
  5
12A
102
{ACAD_REACTORS
330
129
102
}
100
AcDbDictionary
  0
DICTIONARY
  5
137
102
{ACAD_REACTORS
330
129
102
}
100
AcDbDictionary
  3
STANDARD
350
138
  0
DICTIONARY
  5
14D
102
{ACAD_REACTORS
330
129
102
}
100
AcDbDictionary
  3
DIMADEC
350
14E
  0
MLINESTYLE
  5
138
102
{ACAD_REACTORS
330
137
102
}
100
AcDbMlineStyle
  2
STANDARD
 70
     0
  3

 62
   256
 51
90.0
 52
90.0
 71
     2
 49
0.5
 62
   256
  6
BYLAYER
 49
-0.5
 62
   256
  6
BYLAYER
  0
DICTIONARYVAR
  5
14E
102
{ACAD_REACTORS
330
14D
102
}
100
DictionaryVariables
280
     0
  1
0
  0
ENDSEC
  0
EOF
