  0
SECTION
  2
HEADER
  9
$ACADVER
  1
AC1014
  9
$ACADMAINTVER
 70
     0
  9
$DWGCODEPAGE
  3
ANSI_932
  9
$INSBASE
 10
0.0
 20
0.0
 30
0.0
  9
$EXTMIN
 10
106.999294
 20
264.48706
 30
0.0
  9
$EXTMAX
 10
1334.5
 20
924.611804
 30
0.0
  9
$LIMMIN
 10
0.0
 20
0.0
  9
$LIMMAX
 10
1600.0
 20
1200.0
  9
$ORTHOMODE
 70
     1
  9
$REGENMODE
 70
     1
  9
$FILLMODE
 70
     1
  9
$QTEXTMODE
 70
     0
  9
$MIRRTEXT
 70
     1
  9
$DRAGMODE
 70
     1
  9
$LTSCALE
 40
100.0
  9
$OSMODE
 70
    32
  9
$ATTMODE
 70
     1
  9
$TEXTSIZE
 40
55.0
  9
$TRACEWID
 40
0.05
  9
$TEXTSTYLE
  7
BIGFONT
  9
$CLAYER
  8
0
  9
$CELTYPE
  6
BYLAYER
  9
$CECOLOR
 62
   256
  9
$CELTSCALE
 40
1.0
  9
$DELOBJ
 70
     1
  9
$DISPSILH
 70
     0
  9
$DIMSCALE
 40
10.0
  9
$DIMASZ
 40
3.0
  9
$DIMEXO
 40
2.0
  9
$DIMDLI
 40
0.38
  9
$DIMRND
 40
0.0
  9
$DIMDLE
 40
0.0
  9
$DIMEXE
 40
2.0
  9
$DIMTP
 40
0.0
  9
$DIMTM
 40
0.0
  9
$DIMTXT
 40
3.2
  9
$DIMCEN
 40
0.09
  9
$DIMTSZ
 40
0.0
  9
$DIMTOL
 70
     0
  9
$DIMLIM
 70
     0
  9
$DIMTIH
 70
     0
  9
$DIMTOH
 70
     0
  9
$DIMSE1
 70
     0
  9
$DIMSE2
 70
     0
  9
$DIMTAD
 70
     1
  9
$DIMZIN
 70
     0
  9
$DIMBLK
  1

  9
$DIMASO
 70
     0
  9
$DIMSHO
 70
     0
  9
$DIMPOST
  1

  9
$DIMAPOST
  1

  9
$DIMALT
 70
     0
  9
$DIMALTD
 70
     2
  9
$DIMALTF
 40
25.4
  9
$DIMLFAC
 40
1.0
  9
$DIMTOFL
 70
     0
  9
$DIMTVP
 40
1.6
  9
$DIMTIX
 70
     1
  9
$DIMSOXD
 70
     0
  9
$DIMSAH
 70
     0
  9
$DIMBLK1
  1

  9
$DIMBLK2
  1

  9
$DIMSTYLE
  2
STANDARD
  9
$DIMCLRD
 70
     0
  9
$DIMCLRE
 70
     0
  9
$DIMCLRT
 70
     0
  9
$DIMTFAC
 40
1.0
  9
$DIMGAP
 40
0.09
  9
$DIMJUST
 70
     0
  9
$DIMSD1
 70
     0
  9
$DIMSD2
 70
     0
  9
$DIMTOLJ
 70
     1
  9
$DIMTZIN
 70
     0
  9
$DIMALTZ
 70
     0
  9
$DIMALTTZ
 70
     0
  9
$DIMFIT
 70
     5
  9
$DIMUPT
 70
     0
  9
$DIMUNIT
 70
     2
  9
$DIMDEC
 70
     4
  9
$DIMTDEC
 70
     4
  9
$DIMALTU
 70
     2
  9
$DIMALTTD
 70
     2
  9
$DIMTXSTY
  7
BIGFONT
  9
$DIMAUNIT
 70
     0
  9
$LUNITS
 70
     2
  9
$LUPREC
 70
     4
  9
$SKETCHINC
 40
0.1
  9
$FILLETRAD
 40
0.0
  9
$AUNITS
 70
     0
  9
$AUPREC
 70
     0
  9
$MENU
  1
ACAD
  9
$ELEVATION
 40
0.0
  9
$PELEVATION
 40
0.0
  9
$THICKNESS
 40
0.0
  9
$LIMCHECK
 70
     0
  9
$BLIPMODE
 70
     0
  9
$CHAMFERA
 40
0.0
  9
$CHAMFERB
 40
0.0
  9
$CHAMFERC
 40
0.0
  9
$CHAMFERD
 40
0.0
  9
$SKPOLY
 70
     0
  9
$TDCREATE
 40
2450865.710285648
  9
$TDUPDATE
 40
2453089.738138194
  9
$TDINDWG
 40
0.0005828588
  9
$TDUSRTIMER
 40
0.0005828588
  9
$USRTIMER
 70
     1
  9
$ANGBASE
 50
0.0
  9
$ANGDIR
 70
     0
  9
$PDMODE
 70
     0
  9
$PDSIZE
 40
0.0
  9
$PLINEWID
 40
0.0
  9
$COORDS
 70
     2
  9
$SPLFRAME
 70
     0
  9
$SPLINETYPE
 70
     6
  9
$SPLINESEGS
 70
     8
  9
$ATTDIA
 70
     0
  9
$ATTREQ
 70
     1
  9
$HANDLING
 70
     1
  9
$HANDSEED
  5
199
  9
$SURFTAB1
 70
     6
  9
$SURFTAB2
 70
     6
  9
$SURFTYPE
 70
     6
  9
$SURFU
 70
     6
  9
$SURFV
 70
     6
  9
$UCSNAME
  2

  9
$UCSORG
 10
0.0
 20
0.0
 30
0.0
  9
$UCSXDIR
 10
1.0
 20
0.0
 30
0.0
  9
$UCSYDIR
 10
0.0
 20
1.0
 30
0.0
  9
$PUCSNAME
  2

  9
$PUCSORG
 10
0.0
 20
0.0
 30
0.0
  9
$PUCSXDIR
 10
1.0
 20
0.0
 30
0.0
  9
$PUCSYDIR
 10
0.0
 20
1.0
 30
0.0
  9
$USERI1
 70
     0
  9
$USERI2
 70
     0
  9
$USERI3
 70
     0
  9
$USERI4
 70
     0
  9
$USERI5
 70
     0
  9
$USERR1
 40
0.0
  9
$USERR2
 40
0.0
  9
$USERR3
 40
0.0
  9
$USERR4
 40
0.0
  9
$USERR5
 40
0.0
  9
$WORLDVIEW
 70
     1
  9
$SHADEDGE
 70
     3
  9
$SHADEDIF
 70
    70
  9
$TILEMODE
 70
     1
  9
$MAXACTVP
 70
    16
  9
$PINSBASE
 10
0.0
 20
0.0
 30
0.0
  9
$PLIMCHECK
 70
     0
  9
$PEXTMIN
 10
1.000000E+20
 20
1.000000E+20
 30
1.000000E+20
  9
$PEXTMAX
 10
-1.000000E+20
 20
-1.000000E+20
 30
-1.000000E+20
  9
$PLIMMIN
 10
0.0
 20
0.0
  9
$PLIMMAX
 10
12.0
 20
9.0
  9
$UNITMODE
 70
     0
  9
$VISRETAIN
 70
     0
  9
$PLINEGEN
 70
     1
  9
$PSLTSCALE
 70
     0
  9
$TREEDEPTH
 70
  3020
  9
$PICKSTYLE
 70
     1
  9
$CMLSTYLE
  2
STANDARD
  9
$CMLJUST
 70
     0
  9
$CMLSCALE
 40
1.0
  9
$PROXYGRAPHICS
 70
     1
  9
$MEASUREMENT
 70
     0
  0
ENDSEC
  0
SECTION
  2
CLASSES
  0
CLASS
  1
DICTIONARYVAR
  2
AcDbDictionaryVar
  3
"AutoCAD"
 90
        0
280
     0
281
     0
  0
ENDSEC
  0
SECTION
  2
TABLES
  0
TABLE
  2
VPORT
  5
164
100
AcDbSymbolTable
 70
     1
  0
VPORT
  5
194
100
AcDbSymbolTableRecord
100
AcDbViewportTableRecord
  2
*ACTIVE
 70
     0
 10
0.0
 20
0.0
 11
1.0
 21
1.0
 12
1064.173228
 22
668.466096
 13
0.0
 23
0.0
 14
25.0
 24
25.0
 15
50.0
 25
50.0
 16
0.0
 26
0.0
 36
1.0
 17
0.0
 27
0.0
 37
0.0
 40
1336.932192
 41
1.591963
 42
50.0
 43
0.0
 44
0.0
 50
0.0
 51
0.0
 71
     0
 72
   500
 73
     1
 74
     1
 75
     0
 76
     0
 77
     0
 78
     0
  0
ENDTAB
  0
TABLE
  2
LTYPE
  5
161
100
AcDbSymbolTable
 70
     3
  0
LTYPE
  5
16D
100
AcDbSymbolTableRecord
100
AcDbLinetypeTableRecord
  2
BYBLOCK
 70
     0
  3

 72
    65
 73
     0
 40
0.0
  0
LTYPE
  5
16E
100
AcDbSymbolTableRecord
100
AcDbLinetypeTableRecord
  2
BYLAYER
 70
     0
  3

 72
    65
 73
     0
 40
0.0
  0
LTYPE
  5
16F
100
AcDbSymbolTableRecord
100
AcDbLinetypeTableRecord
  2
CONTINUOUS
 70
     0
  3
実線
 72
    65
 73
     0
 40
0.0
  0
LTYPE
  5
17D
100
AcDbSymbolTableRecord
100
AcDbLinetypeTableRecord
  2
CENTER
 70
     0
  3
____ _ ____ _ ____ _ ____ _ ____ _ ____ _ ____
 72
    65
 73
     4
 40
2.0
 49
1.25
 74
     0
 49
-0.25
 74
     0
 49
0.25
 74
     0
 49
-0.25
 74
     0
  0
LTYPE
  5
17E
100
AcDbSymbolTableRecord
100
AcDbLinetypeTableRecord
  2
TENSEN1
 70
     0
  3

 72
    65
 73
     2
 40
0.4
 49
0.3
 74
     0
 49
-0.1
 74
     0
  0
ENDTAB
  0
TABLE
  2
LAYER
  5
15E
100
AcDbSymbolTable
 70
     5
  0
LAYER
  5
16A
100
AcDbSymbolTableRecord
100
AcDbLayerTableRecord
  2
0
 70
     0
 62
     7
  6
CONTINUOUS
  0
LAYER
  5
183
100
AcDbSymbolTableRecord
100
AcDbLayerTableRecord
  2
1
 70
     0
 62
     1
  6
CENTER
  0
LAYER
  5
184
100
AcDbSymbolTableRecord
100
AcDbLayerTableRecord
  2
10
 70
     0
 62
     7
  6
CONTINUOUS
  0
LAYER
  5
185
100
AcDbSymbolTableRecord
100
AcDbLayerTableRecord
  2
11
 70
     0
 62
     3
  6
CONTINUOUS
  0
LAYER
  5
186
100
AcDbSymbolTableRecord
100
AcDbLayerTableRecord
  2
2
 70
     0
 62
     2
  6
TENSEN1
  0
ENDTAB
  0
TABLE
  2
STYLE
  5
15F
100
AcDbSymbolTable
 70
     4
  0
STYLE
  5
16B
100
AcDbSymbolTableRecord
100
AcDbTextStyleTableRecord
  2
STANDARD
 70
     0
 40
0.0
 41
1.0
 50
0.0
 71
     0
 42
0.2
  3
TXT
  4
BIGFONT
  0
STYLE
  5
17A
100
AcDbSymbolTableRecord
100
AcDbTextStyleTableRecord
  2
K80
 70
     0
 40
0.0
 41
0.8
 50
0.0
 71
     0
 42
0.2
  3
TXT
  4
BIGFONT
  0
STYLE
  5
17B
100
AcDbSymbolTableRecord
100
AcDbTextStyleTableRecord
  2
07500
 70
     0
 40
0.0
 41
0.75
 50
0.0
 71
     0
 42
0.2
  3
TXT
  4
BIGFONT
  0
STYLE
  5
17C
100
AcDbSymbolTableRecord
100
AcDbTextStyleTableRecord
  2
BIGFONT
 70
     0
 40
55.0
 41
1.0
 50
0.0
 71
     0
 42
55.0
  3
txt.shx
  4
bigfont
  0
ENDTAB
  0
TABLE
  2
VIEW
  5
162
100
AcDbSymbolTable
 70
     1
  0
VIEW
  5
17F
100
AcDbSymbolTableRecord
100
AcDbViewTableRecord
  2
ALL
 70
     0
 40
2700.0
 10
2209.915966
 20
1350.0
 41
0.0
 11
0.0
 21
0.0
 31
1.0
 12
0.0
 22
0.0
 32
0.0
 42
0.0
 43
0.0
 44
0.0
 50
0.0
 71
     0
  0
ENDTAB
  0
TABLE
  2
UCS
  5
163
100
AcDbSymbolTable
 70
     0
  0
ENDTAB
  0
TABLE
  2
APPID
  5
165
100
AcDbSymbolTable
 70
     1
  0
APPID
  5
16C
100
AcDbSymbolTableRecord
100
AcDbRegAppTableRecord
  2
ACAD
 70
     0
  0
ENDTAB
  0
TABLE
  2
DIMSTYLE
  5
166
100
AcDbSymbolTable
 70
     1
  0
DIMSTYLE
105
182
100
AcDbSymbolTableRecord
100
AcDbDimStyleTableRecord
  2
STANDARD
 70
     0
  3

  4

  5

  6

  7

 40
1.0
 41
0.18
 42
0.0625
 43
0.38
 44
0.18
 45
0.0
 46
0.0
 47
0.0
 48
0.0
140
0.18
141
0.09
142
0.0
143
25.4
144
1.0
145
0.0
146
1.0
147
0.09
 71
     0
 72
     0
 73
     1
 74
     1
 75
     0
 76
     0
 77
     0
 78
     0
170
     0
171
     2
172
     0
173
     0
174
     0
175
     0
176
     0
177
     0
178
     0
270
     2
271
     4
272
     4
273
     2
274
     2
340
17C
275
     0
280
     0
281
     0
282
     0
283
     1
284
     0
285
     0
286
     0
287
     5
288
     0
  0
ENDTAB
  0
TABLE
  2
BLOCK_RECORD
  5
15D
100
AcDbSymbolTable
 70
     2
  0
BLOCK_RECORD
  5
173
100
AcDbSymbolTableRecord
100
AcDbBlockTableRecord
  2
*MODEL_SPACE
  0
BLOCK_RECORD
  5
170
100
AcDbSymbolTableRecord
100
AcDbBlockTableRecord
  2
*PAPER_SPACE
  0
BLOCK_RECORD
  5
178
100
AcDbSymbolTableRecord
100
AcDbBlockTableRecord
  2
WAKU
  0
BLOCK_RECORD
  5
179
100
AcDbSymbolTableRecord
100
AcDbBlockTableRecord
  2
QQ
  0
ENDTAB
  0
ENDSEC
  0
SECTION
  2
BLOCKS
  0
BLOCK
  5
189
100
AcDbEntity
  8
0
100
AcDbBlockBegin
  2
*MODEL_SPACE
 70
     0
 10
0.0
 20
0.0
 30
0.0
  3
*MODEL_SPACE
  1

  0
ENDBLK
  5
18A
100
AcDbEntity
  8
0
100
AcDbBlockEnd
  0
BLOCK
  5
187
100
AcDbEntity
 67
     1
  8
0
100
AcDbBlockBegin
  2
*PAPER_SPACE
 70
     0
 10
0.0
 20
0.0
 30
0.0
  3
*PAPER_SPACE
  1

  0
ENDBLK
  5
188
100
AcDbEntity
 67
     1
  8
0
100
AcDbBlockEnd
  0
BLOCK
  5
2E
100
AcDbEntity
  8
0
100
AcDbBlockBegin
  2
WAKU
 70
     0
 10
549.0
 20
0.0
 30
0.0
  3
WAKU
  1

  0
LINE
  5
2F
100
AcDbEntity
  8
11
100
AcDbLine
 10
452.0
 20
12.0
 30
0.0
 11
549.0
 21
12.0
 31
0.0
  0
LINE
  5
30
100
AcDbEntity
  8
11
100
AcDbLine
 10
477.0
 20
0.0
 30
0.0
 11
477.0
 21
12.0
 31
0.0
  0
LINE
  5
31
100
AcDbEntity
  8
11
100
AcDbLine
 10
452.0
 20
12.0
 30
0.0
 11
452.0
 21
0.0
 31
0.0
  0
TEXT
  5
32
100
AcDbEntity
  8
11
100
AcDbText
 10
454.0
 20
8.5
 30
0.0
 40
2.5
  1
尺度
100
AcDbText
  0
TEXT
  5
33
100
AcDbEntity
  8
11
100
AcDbText
 10
479.0
 20
8.5
 30
0.0
 40
2.5
  1
図番
100
AcDbText
  0
ENDBLK
  5
34
100
AcDbEntity
  8
0
100
AcDbBlockEnd
  0
BLOCK
  5
35
100
AcDbEntity
  8
0
100
AcDbBlockBegin
  2
QQ
 70
     0
 10
270.0
 20
0.0
 30
0.0
  3
QQ
  1

  0
LINE
  5
36
100
AcDbEntity
  8
11
100
AcDbLine
 10
173.0
 20
36.0
 30
0.0
 11
270.0
 21
36.0
 31
0.0
  0
TEXT
  5
37
100
AcDbEntity
  8
11
100
AcDbText
 10
175.0
 20
32.5
 30
0.0
 40
2.5
  1
部品名称
100
AcDbText
  0
LINE
  5
38
100
AcDbEntity
  8
11
100
AcDbLine
 10
173.0
 20
36.0
 30
0.0
 11
173.0
 21
0.0
 31
0.0
  0
LINE
  5
39
100
AcDbEntity
  8
11
100
AcDbLine
 10
173.0
 20
24.0
 30
0.0
 11
270.0
 21
24.0
 31
0.0
  0
TEXT
  5
3A
100
AcDbEntity
  8
11
100
AcDbText
 10
175.0
 20
20.5
 30
0.0
 40
2.5
  1
品番
100
AcDbText
  0
LINE
  5
3B
100
AcDbEntity
  8
11
100
AcDbLine
 10
173.0
 20
12.0
 30
0.0
 11
270.0
 21
12.0
 31
0.0
  0
TEXT
  5
3C
100
AcDbEntity
  8
11
100
AcDbText
 10
175.0
 20
8.5
 30
0.0
 40
2.5
  1
尺度
100
AcDbText
  0
TEXT
  5
3D
100
AcDbEntity
  8
11
100
AcDbText
 10
200.0
 20
8.5
 30
0.0
 40
2.5
  1
図番
100
AcDbText
  0
LINE
  5
3E
100
AcDbEntity
  8
11
100
AcDbLine
 10
198.0
 20
0.0
 30
0.0
 11
198.0
 21
12.0
 31
0.0
  0
ENDBLK
  5
3F
100
AcDbEntity
  8
0
100
AcDbBlockEnd
  0
ENDSEC
  0
SECTION
  2
ENTITIES
  0
CIRCLE
  5
4B
100
AcDbEntity
  8
0
100
AcDbCircle
 10
450.42379
 20
599.750631
 30
0.0
 40
300.0
  0
LINE
  5
4C
100
AcDbEntity
  8
1
100
AcDbLine
 10
406.244047
 20
872.989669
 30
0.0
 11
495.244047
 21
872.989669
 31
0.0
  0
ARC
  5
4D
100
AcDbEntity
  8
0
100
AcDbCircle
 10
450.447474
 20
871.122615
 30
0.0
 40
20.708999
100
AcDbArc
 50
180.487171
 51
359.512829
  0
ARC
  5
4E
100
AcDbEntity
  8
0
100
AcDbCircle
 10
477.898575
 20
870.627298
 30
0.0
 40
6.750403
100
AcDbArc
 50
77.373784
 51
177.289392
  0
ARC
  5
4F
100
AcDbEntity
  8
0
100
AcDbCircle
 10
421.352297
 20
868.8305
 30
0.0
 40
8.649748
100
AcDbArc
 50
14.160285
 51
83.857954
  0
ARC
  5
50
100
AcDbEntity
  8
0
100
AcDbCircle
 10
450.42379
 20
599.750631
 30
0.0
 40
279.0
100
AcDbArc
 50
96.100597
 51
83.885723
  0
LINE
  5
51
100
AcDbEntity
  8
0
100
AcDbLine
 10
479.370169
 20
877.215351
 30
0.0
 11
480.139359
 21
877.164668
 31
0.0
  0
LINE
  5
52
100
AcDbEntity
  8
0
100
AcDbLine
 10
420.767029
 20
877.169786
 30
0.0
 11
422.287162
 21
877.430536
 31
0.0
  0
POINT
  5
53
100
AcDbEntity
  8
1
100
AcDbPoint
 10
807.544884
 20
600.0
 30
0.0
  0
POINT
  5
54
100
AcDbEntity
  8
1
100
AcDbPoint
 10
450.0
 20
918.555619
 30
0.0
  0
LINE
  5
55
100
AcDbEntity
  8
1
100
AcDbLine
 10
808.756914
 20
600.0
 30
0.0
 11
106.999294
 21
600.0
 31
0.0
  0
LINE
  5
56
100
AcDbEntity
  8
1
100
AcDbLine
 10
450.0
 20
924.611804
 30
0.0
 11
450.0
 21
264.48706
 31
0.0
  0
ARC
  5
6B
100
AcDbEntity
  8
2
100
AcDbCircle
 10
1251.5
 20
613.7
 30
0.0
 40
40.327906
100
AcDbArc
 50
61.083391
 51
118.916609
  0
ARC
  5
6C
100
AcDbEntity
  8
2
100
AcDbCircle
 10
1251.5
 20
586.3
 30
0.0
 40
40.327906
100
AcDbArc
 50
241.083391
 51
298.916609
  0
LINE
  5
6D
100
AcDbEntity
  8
1
100
AcDbLine
 10
1328.0
 20
600.0
 30
0.0
 11
1109.0
 21
600.0
 31
0.0
  0
ARC
  5
6E
100
AcDbEntity
  8
0
100
AcDbCircle
 10
1250.0
 20
321.0
 30
0.0
 40
21.0
100
AcDbArc
 50
180.0
 51
0.0
  0
ARC
  5
6F
100
AcDbEntity
  8
0
100
AcDbCircle
 10
1250.0
 20
879.0
 30
0.0
 40
21.0
100
AcDbArc
 50
0.0
 51
180.0
  0
LINE
  5
70
100
AcDbEntity
  8
2
100
AcDbLine
 10
1232.0
 20
649.0
 30
0.0
 11
1232.0
 21
551.0
 31
0.0
  0
LINE
  5
71
100
AcDbEntity
  8
0
100
AcDbLine
 10
1229.0
 20
600.0
 30
0.0
 11
1229.0
 21
321.0
 31
0.0
  0
LINE
  5
72
100
AcDbEntity
  8
0
100
AcDbLine
 10
1229.0
 20
600.0
 30
0.0
 11
1229.0
 21
879.0
 31
0.0
  0
LINE
  5
73
100
AcDbEntity
  8
0
100
AcDbLine
 10
1302.0
 20
600.0
 30
0.0
 11
1302.0
 21
556.0
 31
0.0
  0
LINE
  5
74
100
AcDbEntity
  8
1
100
AcDbLine
 10
1250.0
 20
600.0
 30
0.0
 11
1250.0
 21
315.5
 31
0.0
  0
LINE
  5
75
100
AcDbEntity
  8
0
100
AcDbLine
 10
1271.0
 20
600.0
 30
0.0
 11
1271.0
 21
321.0
 31
0.0
  0
LINE
  5
76
100
AcDbEntity
  8
1
100
AcDbLine
 10
1250.0
 20
599.90782
 30
0.0
 11
1250.0
 21
315.40782
 31
0.0
  0
LINE
  5
77
100
AcDbEntity
  8
0
100
AcDbLine
 10
1271.0
 20
341.5
 30
0.0
 11
1271.0
 21
341.0
 31
0.0
  0
LINE
  5
78
100
AcDbEntity
  8
0
100
AcDbLine
 10
1271.0
 20
341.40782
 30
0.0
 11
1271.0
 21
340.90782
 31
0.0
  0
LINE
  5
79
100
AcDbEntity
  8
0
100
AcDbLine
 10
1271.0
 20
551.0
 30
0.0
 11
1296.5
 21
551.0
 31
0.0
  0
LINE
  5
7A
100
AcDbEntity
  8
0
100
AcDbLine
 10
1296.5
 20
551.0
 30
0.0
 11
1297.0
 21
551.0
 31
0.0
  0
ARC
  5
7B
100
AcDbEntity
  8
0
100
AcDbCircle
 10
1296.992612
 20
556.007388
 30
0.0
 40
5.007393
100
AcDbArc
 50
270.08453
 51
359.91547
  0
LINE
  5
7C
100
AcDbEntity
  8
0
100
AcDbLine
 10
1271.0
 20
600.0
 30
0.0
 11
1271.0
 21
879.0
 31
0.0
  0
LINE
  5
7D
100
AcDbEntity
  8
1
100
AcDbLine
 10
1250.0
 20
600.0
 30
0.0
 11
1250.0
 21
884.5
 31
0.0
  0
LINE
  5
7E
100
AcDbEntity
  8
0
100
AcDbLine
 10
1302.0
 20
600.0
 30
0.0
 11
1302.0
 21
644.0
 31
0.0
  0
LINE
  5
7F
100
AcDbEntity
  8
0
100
AcDbLine
 10
1271.0
 20
649.0
 30
0.0
 11
1296.5
 21
649.0
 31
0.0
  0
ARC
  5
80
100
AcDbEntity
  8
0
100
AcDbCircle
 10
1296.992612
 20
643.992612
 30
0.0
 40
5.007393
100
AcDbArc
 50
0.08453
 51
89.91547
  0
LINE
  5
81
100
AcDbEntity
  8
0
100
AcDbLine
 10
1296.5
 20
649.0
 30
0.0
 11
1297.0
 21
649.0
 31
0.0
  0
POINT
  5
82
100
AcDbEntity
  8
1
100
AcDbPoint
 10
1334.5
 20
600.0
 30
0.0
  0
LINE
  5
83
100
AcDbEntity
  8
0
100
AcDbLine
 10
1271.0
 20
858.5
 30
0.0
 11
1271.0
 21
859.0
 31
0.0
  0
CIRCLE
  5
84
100
AcDbEntity
  8
0
100
AcDbCircle
 10
450.115605
 20
600.255351
 30
0.0
 40
49.0
  0
ARC
  5
85
100
AcDbEntity
  8
0
100
AcDbCircle
 10
450.115605
 20
600.255351
 30
0.0
 40
59.0
100
AcDbArc
 50
116.402635
 51
124.57928
  0
ARC
  5
86
100
AcDbEntity
  8
0
100
AcDbCircle
 10
450.115605
 20
600.255351
 30
0.0
 40
258.0
100
AcDbArc
 50
95.256116
 51
144.386248
  0
LINE
  5
87
100
AcDbEntity
  8
0
100
AcDbLine
 10
407.916497
 20
649.542228
 30
0.0
 11
240.88962
 21
744.243189
 31
0.0
  0
LINE
  5
88
100
AcDbEntity
  8
0
100
AcDbLine
 10
386.532523
 20
610.504097
 30
0.0
 11
220.63962
 21
709.169161
 31
0.0
  0
LINE
  5
89
100
AcDbEntity
  8
0
100
AcDbLine
 10
387.174827
 20
587.616602
 30
0.0
 11
219.737351
 21
492.606385
 31
0.0
  0
LINE
  5
8A
100
AcDbEntity
  8
0
100
AcDbLine
 10
407.668729
 20
552.113081
 30
0.0
 11
241.463303
 21
455.236838
 31
0.0
  0
LINE
  5
8B
100
AcDbEntity
  8
0
100
AcDbLine
 10
427.154301
 20
540.863081
 30
0.0
 11
429.640816
 21
347.169851
 31
0.0
  0
LINE
  5
8C
100
AcDbEntity
  8
0
100
AcDbLine
 10
471.929292
 20
540.41564
 30
0.0
 11
469.518692
 21
347.240359
 31
0.0
  0
LINE
  5
8D
100
AcDbEntity
  8
0
100
AcDbLine
 10
490.272558
 20
551.18711
 30
0.0
 11
658.848474
 21
456.169161
 31
0.0
  0
LINE
  5
8E
100
AcDbEntity
  8
0
100
AcDbLine
 10
513.138584
 20
588.792228
 30
0.0
 11
678.848474
 21
490.810177
 31
0.0
  0
LINE
  5
8F
100
AcDbEntity
  8
0
100
AcDbLine
 10
428.058802
 20
660.429723
 30
0.0
 11
430.036389
 21
853.855003
 31
0.0
  0
LINE
  5
90
100
AcDbEntity
  8
0
100
AcDbLine
 10
472.40078
 20
660.232282
 30
0.0
 11
470.097278
 21
853.242499
 31
0.0
  0
LINE
  5
91
100
AcDbEntity
  8
0
100
AcDbLine
 10
491.270326
 20
649.915294
 30
0.0
 11
659.573829
 21
744.425511
 31
0.0
  0
LINE
  5
92
100
AcDbEntity
  8
0
100
AcDbLine
 10
512.679292
 20
610.99671
 30
0.0
 11
679.201705
 21
709.421991
 31
0.0
  0
ARC
  5
93
100
AcDbEntity
  8
0
100
AcDbCircle
 10
450.115605
 20
600.255351
 30
0.0
 40
59.0
100
AcDbArc
 50
56.028828
 51
63.405113
  0
ARC
  5
94
100
AcDbEntity
  8
0
100
AcDbCircle
 10
450.115605
 20
600.255351
 30
0.0
 40
59.0
100
AcDbArc
 50
356.009178
 51
3.298096
  0
ARC
  5
95
100
AcDbEntity
  8
0
100
AcDbCircle
 10
450.115605
 20
600.255351
 30
0.0
 40
59.0
100
AcDbArc
 50
295.783108
 51
302.839582
  0
ARC
  5
96
100
AcDbEntity
  8
0
100
AcDbCircle
 10
450.115605
 20
600.255351
 30
0.0
 40
59.0
100
AcDbArc
 50
234.872893
 51
243.31753
  0
ARC
  5
97
100
AcDbEntity
  8
0
100
AcDbCircle
 10
450.115605
 20
600.255351
 30
0.0
 40
59.0
100
AcDbArc
 50
176.633147
 51
184.828468
  0
ARC
  5
98
100
AcDbEntity
  8
0
100
AcDbCircle
 10
485.873941
 20
663.021083
 30
0.0
 40
14.140763
100
AcDbArc
 50
258.530671
 51
292.707041
  0
ARC
  5
99
100
AcDbEntity
  8
0
100
AcDbCircle
 10
482.749402
 20
661.39737
 30
0.0
 40
10.425058
100
AcDbArc
 50
186.532298
 51
233.502126
  0
ARC
  5
9A
100
AcDbEntity
  8
0
100
AcDbCircle
 10
519.762064
 20
602.956534
 30
0.0
 40
10.764419
100
AcDbArc
 50
131.123813
 51
176.740096
  0
ARC
  5
9B
100
AcDbEntity
  8
0
100
AcDbCircle
 10
520.186232
 20
597.686196
 30
0.0
 40
11.342173
100
AcDbArc
 50
188.181807
 51
231.149547
  0
ARC
  5
9C
100
AcDbEntity
  8
0
100
AcDbCircle
 10
479.985282
 20
540.265063
 30
0.0
 40
8.06431
100
AcDbArc
 50
121.529117
 51
179.25467
  0
ARC
  5
9D
100
AcDbEntity
  8
0
100
AcDbCircle
 10
486.671139
 20
542.77307
 30
0.0
 40
9.136472
100
AcDbArc
 50
66.473537
 51
120.458489
  0
ARC
  5
9E
100
AcDbEntity
  8
0
100
AcDbCircle
 10
418.802537
 20
540.732694
 30
0.0
 40
8.360905
100
AcDbArc
 50
1.023519
 51
55.010271
  0
ARC
  5
9F
100
AcDbEntity
  8
0
100
AcDbCircle
 10
411.863745
 20
542.98799
 30
0.0
 40
10.022791
100
AcDbArc
 50
64.698632
 51
115.301368
  0
ARC
  5
A0
100
AcDbEntity
  8
0
100
AcDbCircle
 10
382.680984
 20
594.975905
 30
0.0
 40
8.632294
100
AcDbArc
 50
301.151173
 51
2.367515
  0
ARC
  5
A1
100
AcDbEntity
  8
0
100
AcDbCircle
 10
384.295071
 20
603.965314
 30
0.0
 40
6.901862
100
AcDbArc
 50
357.821942
 51
70.696234
  0
ARC
  5
A2
100
AcDbEntity
  8
0
100
AcDbCircle
 10
413.354551
 20
663.160863
 30
0.0
 40
14.66967
100
AcDbArc
 50
248.204252
 51
283.206481
  0
ARC
  5
A3
100
AcDbEntity
  8
0
100
AcDbCircle
 10
419.419936
 20
660.445014
 30
0.0
 40
8.576734
100
AcDbArc
 50
301.707472
 51
359.468802
  0
ARC
  5
A4
100
AcDbEntity
  8
0
100
AcDbCircle
 10
450.115605
 20
600.255351
 30
0.0
 40
258.0
100
AcDbArc
 50
35.633617
 51
84.532975
  0
ARC
  5
A5
100
AcDbEntity
  8
0
100
AcDbCircle
 10
450.115605
 20
600.255351
 30
0.0
 40
258.0
100
AcDbArc
 50
335.398735
 51
24.613616
  0
ARC
  5
A6
100
AcDbEntity
  8
0
100
AcDbCircle
 10
450.115605
 20
600.255351
 30
0.0
 40
258.0
100
AcDbArc
 50
275.68036
 51
324.262162
  0
ARC
  5
A7
100
AcDbEntity
  8
0
100
AcDbCircle
 10
450.115605
 20
600.255351
 30
0.0
 40
258.0
100
AcDbArc
 50
215.782118
 51
264.06345
  0
ARC
  5
A8
100
AcDbEntity
  8
0
100
AcDbCircle
 10
450.115605
 20
600.255351
 30
0.0
 40
258.0
100
AcDbArc
 50
155.641343
 51
204.099353
  0
ARC
  5
A9
100
AcDbEntity
  8
0
100
AcDbCircle
 10
426.752981
 20
853.837118
 30
0.0
 40
3.288174
100
AcDbArc
 50
359.82666
 51
94.505076
  0
ARC
  5
AA
100
AcDbEntity
  8
0
100
AcDbCircle
 10
474.150509
 20
853.054665
 30
0.0
 40
4.06464
100
AcDbArc
 50
81.777545
 51
177.866611
  0
ARC
  5
AB
100
AcDbEntity
  8
0
100
AcDbCircle
 10
655.638545
 20
747.636191
 30
0.0
 40
5.089041
100
AcDbArc
 50
320.872019
 51
34.863113
  0
ARC
  5
AC
100
AcDbEntity
  8
0
100
AcDbCircle
 10
681.143151
 20
705.965358
 30
0.0
 40
3.960277
100
AcDbArc
 50
25.259615
 51
120.905726
  0
ARC
  5
AD
100
AcDbEntity
  8
0
100
AcDbCircle
 10
680.537698
 20
495.37361
 30
0.0
 40
4.848011
100
AcDbArc
 50
248.980287
 51
328.674109
  0
ARC
  5
AE
100
AcDbEntity
  8
0
100
AcDbCircle
 10
656.473301
 20
452.604814
 30
0.0
 40
4.289028
100
AcDbArc
 50
313.968438
 51
56.694828
  0
ARC
  5
AF
100
AcDbEntity
  8
0
100
AcDbCircle
 10
474.020992
 20
347.727114
 30
0.0
 40
4.521921
100
AcDbArc
 50
185.376078
 51
291.412249
  0
ARC
  5
B0
100
AcDbEntity
  8
0
100
AcDbCircle
 10
424.448365
 20
348.992508
 30
0.0
 40
5.469019
100
AcDbArc
 50
258.719844
 51
341.314773
  0
ARC
  5
B1
100
AcDbEntity
  8
0
100
AcDbCircle
 10
218.43285
 20
496.550726
 30
0.0
 40
4.145208
100
AcDbArc
 50
203.417533
 51
288.616319
  0
ARC
  5
B2
100
AcDbEntity
  8
0
100
AcDbCircle
 10
244.980982
 20
451.897737
 30
0.0
 40
4.829743
100
AcDbArc
 50
135.945163
 51
210.468105
  0
ARC
  5
B3
100
AcDbEntity
  8
0
100
AcDbCircle
 10
219.017578
 20
705.342942
 30
0.0
 40
4.165448
100
AcDbArc
 50
66.539763
 51
161.110441
  0
ARC
  5
B4
100
AcDbEntity
  8
0
100
AcDbCircle
 10
244.586533
 20
747.685805
 30
0.0
 40
5.06546
100
AcDbArc
 50
145.493966
 51
223.309129
  0
LINE
  5
FF
100
AcDbEntity
  8
1
100
AcDbLine
 10
1292.305642
 20
874.048385
 30
0.0
 11
1189.644154
 21
874.048385
 31
0.0
  0
CIRCLE
  5
191
100
AcDbEntity
  8
0
100
AcDbCircle
 10
450.0
 20
872.989669
 30
0.0
 40
11.0
  0
CIRCLE
  5
192
100
AcDbEntity
  8
0
100
AcDbCircle
 10
450.0
 20
872.989669
 30
0.0
 40
8.0
  0
CIRCLE
  5
193
100
AcDbEntity
  8
0
100
AcDbCircle
 10
450.0
 20
872.989669
 30
0.0
 40
7.0
  0
ENDSEC
  0
SECTION
  2
OBJECTS
  0
DICTIONARY
  5
168
100
AcDbDictionary
  3
ACAD_GROUP
350
169
  3
ACAD_MLINESTYLE
350
176
  3
ACDBVARIABLEDICTIONARY
350
18B
  0
DICTIONARY
  5
169
102
{ACAD_REACTORS
330
168
102
}
100
AcDbDictionary
  0
DICTIONARY
  5
176
102
{ACAD_REACTORS
330
168
102
}
100
AcDbDictionary
  3
STANDARD
350
177
  0
DICTIONARY
  5
18B
102
{ACAD_REACTORS
330
168
102
}
100
AcDbDictionary
  3
DIMADEC
350
18C
  0
MLINESTYLE
  5
177
102
{ACAD_REACTORS
330
176
102
}
100
AcDbMlineStyle
  2
STANDARD
 70
     0
  3

 62
   256
 51
90.0
 52
90.0
 71
     2
 49
0.5
 62
   256
  6
BYLAYER
 49
-0.5
 62
   256
  6
BYLAYER
  0
DICTIONARYVAR
  5
18C
102
{ACAD_REACTORS
330
18B
102
}
100
DictionaryVariables
280
     0
  1
0
  0
ENDSEC
  0
EOF
