  0
SECTION
  2
HEADER
  9
$ACADVER
  1
AC1015
  9
$ACADMAINTVER
 70
    13
  9
$DWGCODEPAGE
  3
ANSI_932
  9
$INSBASE
 10
0.0
 20
0.0
 30
0.0
  9
$EXTMIN
 10
155.9549947047367
 20
186.1354446485778
 30
0.0
  9
$EXTMAX
 10
851.9537709837786
 20
714.5656666662262
 30
0.0
  9
$LIMMIN
 10
0.0
 20
0.0
  9
$LIMMAX
 10
1600.0
 20
1200.0
  9
$ORTHOMODE
 70
     1
  9
$REGENMODE
 70
     1
  9
$FILLMODE
 70
     1
  9
$QTEXTMODE
 70
     0
  9
$MIRRTEXT
 70
     1
  9
$LTSCALE
 40
100.0
  9
$ATTMODE
 70
     1
  9
$TEXTSIZE
 40
60.0
  9
$TRACEWID
 40
0.05
  9
$TEXTSTYLE
  7
BIGFONT
  9
$CLAYER
  8
0
  9
$CELTYPE
  6
BYLAYER
  9
$CECOLOR
 62
   256
  9
$CELTSCALE
 40
1.0
  9
$DISPSILH
 70
     0
  9
$DIMSCALE
 40
10.0
  9
$DIMASZ
 40
3.0
  9
$DIMEXO
 40
2.0
  9
$DIMDLI
 40
0.38
  9
$DIMRND
 40
0.0
  9
$DIMDLE
 40
0.0
  9
$DIMEXE
 40
2.0
  9
$DIMTP
 40
0.0
  9
$DIMTM
 40
0.0
  9
$DIMTXT
 40
10.0
  9
$DIMCEN
 40
0.09
  9
$DIMTSZ
 40
0.0
  9
$DIMTOL
 70
     0
  9
$DIMLIM
 70
     0
  9
$DIMTIH
 70
     0
  9
$DIMTOH
 70
     0
  9
$DIMSE1
 70
     0
  9
$DIMSE2
 70
     0
  9
$DIMTAD
 70
     1
  9
$DIMZIN
 70
     8
  9
$DIMBLK
  1

  9
$DIMASO
 70
     0
  9
$DIMSHO
 70
     0
  9
$DIMPOST
  1

  9
$DIMAPOST
  1

  9
$DIMALT
 70
     0
  9
$DIMALTD
 70
     2
  9
$DIMALTF
 40
25.4
  9
$DIMLFAC
 40
1.0
  9
$DIMTOFL
 70
     0
  9
$DIMTVP
 40
1.6
  9
$DIMTIX
 70
     1
  9
$DIMSOXD
 70
     0
  9
$DIMSAH
 70
     0
  9
$DIMBLK1
  1

  9
$DIMBLK2
  1

  9
$DIMSTYLE
  2
STANDARD
  9
$DIMCLRD
 70
     0
  9
$DIMCLRE
 70
     0
  9
$DIMCLRT
 70
     0
  9
$DIMTFAC
 40
1.0
  9
$DIMGAP
 40
0.09
  9
$DIMJUST
 70
     0
  9
$DIMSD1
 70
     0
  9
$DIMSD2
 70
     0
  9
$DIMTOLJ
 70
     1
  9
$DIMTZIN
 70
     0
  9
$DIMALTZ
 70
     0
  9
$DIMALTTZ
 70
     0
  9
$DIMUPT
 70
     0
  9
$DIMDEC
 70
     4
  9
$DIMTDEC
 70
     4
  9
$DIMALTU
 70
     2
  9
$DIMALTTD
 70
     2
  9
$DIMTXSTY
  7
BIGFONT
  9
$DIMAUNIT
 70
     0
  9
$DIMADEC
 70
     0
  9
$DIMALTRND
 40
0.0
  9
$DIMAZIN
 70
     2
  9
$DIMDSEP
 70
    46
  9
$DIMATFIT
 70
     3
  9
$DIMFRAC
 70
     0
  9
$DIMLDRBLK
  1

  9
$DIMLUNIT
 70
     2
  9
$DIMLWD
 70
    -2
  9
$DIMLWE
 70
    -2
  9
$DIMTMOVE
 70
     0
  9
$LUNITS
 70
     2
  9
$LUPREC
 70
     4
  9
$SKETCHINC
 40
0.1
  9
$FILLETRAD
 40
0.0
  9
$AUNITS
 70
     0
  9
$AUPREC
 70
     0
  9
$MENU
  1
ACAD
  9
$ELEVATION
 40
0.0
  9
$PELEVATION
 40
0.0
  9
$THICKNESS
 40
0.0
  9
$LIMCHECK
 70
     0
  9
$CHAMFERA
 40
0.0
  9
$CHAMFERB
 40
0.0
  9
$CHAMFERC
 40
0.0
  9
$CHAMFERD
 40
0.0
  9
$SKPOLY
 70
     0
  9
$TDCREATE
 40
2450865.707994791
  9
$TDUCREATE
 40
2450865.332994792
  9
$TDUPDATE
 40
2458625.620495509
  9
$TDUUPDATE
 40
2458625.245495509
  9
$TDINDWG
 40
0.2278940741
  9
$TDUSRTIMER
 40
0.2278937037
  9
$USRTIMER
 70
     1
  9
$ANGBASE
 50
0.0
  9
$ANGDIR
 70
     0
  9
$PDMODE
 70
     0
  9
$PDSIZE
 40
0.0
  9
$PLINEWID
 40
0.0
  9
$SPLFRAME
 70
     0
  9
$SPLINETYPE
 70
     6
  9
$SPLINESEGS
 70
     8
  9
$HANDSEED
  5
7E1
  9
$SURFTAB1
 70
     6
  9
$SURFTAB2
 70
     6
  9
$SURFTYPE
 70
     6
  9
$SURFU
 70
     6
  9
$SURFV
 70
     6
  9
$UCSBASE
  2

  9
$UCSNAME
  2

  9
$UCSORG
 10
0.0
 20
0.0
 30
0.0
  9
$UCSXDIR
 10
1.0
 20
0.0
 30
0.0
  9
$UCSYDIR
 10
0.0
 20
1.0
 30
0.0
  9
$UCSORTHOREF
  2

  9
$UCSORTHOVIEW
 70
     0
  9
$UCSORGTOP
 10
0.0
 20
0.0
 30
0.0
  9
$UCSORGBOTTOM
 10
0.0
 20
0.0
 30
0.0
  9
$UCSORGLEFT
 10
0.0
 20
0.0
 30
0.0
  9
$UCSORGRIGHT
 10
0.0
 20
0.0
 30
0.0
  9
$UCSORGFRONT
 10
0.0
 20
0.0
 30
0.0
  9
$UCSORGBACK
 10
0.0
 20
0.0
 30
0.0
  9
$PUCSBASE
  2

  9
$PUCSNAME
  2

  9
$PUCSORG
 10
0.0
 20
0.0
 30
0.0
  9
$PUCSXDIR
 10
1.0
 20
0.0
 30
0.0
  9
$PUCSYDIR
 10
0.0
 20
1.0
 30
0.0
  9
$PUCSORTHOREF
  2

  9
$PUCSORTHOVIEW
 70
     0
  9
$PUCSORGTOP
 10
0.0
 20
0.0
 30
0.0
  9
$PUCSORGBOTTOM
 10
0.0
 20
0.0
 30
0.0
  9
$PUCSORGLEFT
 10
0.0
 20
0.0
 30
0.0
  9
$PUCSORGRIGHT
 10
0.0
 20
0.0
 30
0.0
  9
$PUCSORGFRONT
 10
0.0
 20
0.0
 30
0.0
  9
$PUCSORGBACK
 10
0.0
 20
0.0
 30
0.0
  9
$USERI1
 70
     0
  9
$USERI2
 70
     0
  9
$USERI3
 70
     0
  9
$USERI4
 70
     0
  9
$USERI5
 70
     0
  9
$USERR1
 40
0.0
  9
$USERR2
 40
0.0
  9
$USERR3
 40
0.0
  9
$USERR4
 40
0.0
  9
$USERR5
 40
0.0
  9
$WORLDVIEW
 70
     1
  9
$SHADEDGE
 70
     3
  9
$SHADEDIF
 70
    70
  9
$TILEMODE
 70
     1
  9
$MAXACTVP
 70
    16
  9
$PINSBASE
 10
0.0
 20
0.0
 30
0.0
  9
$PLIMCHECK
 70
     0
  9
$PEXTMIN
 10
1.000000000000000E+20
 20
1.000000000000000E+20
 30
1.000000000000000E+20
  9
$PEXTMAX
 10
-1.000000000000000E+20
 20
-1.000000000000000E+20
 30
-1.000000000000000E+20
  9
$PLIMMIN
 10
0.0
 20
0.0
  9
$PLIMMAX
 10
12.0
 20
9.0
  9
$UNITMODE
 70
     0
  9
$VISRETAIN
 70
     0
  9
$PLINEGEN
 70
     1
  9
$PSLTSCALE
 70
     0
  9
$TREEDEPTH
 70
  3020
  9
$CMLSTYLE
  2
STANDARD
  9
$CMLJUST
 70
     0
  9
$CMLSCALE
 40
1.0
  9
$PROXYGRAPHICS
 70
     1
  9
$MEASUREMENT
 70
     0
  9
$CELWEIGHT
370
    -1
  9
$ENDCAPS
280
     0
  9
$JOINSTYLE
280
     0
  9
$LWDISPLAY
290
     0
  9
$INSUNITS
 70
     0
  9
$HYPERLINKBASE
  1

  9
$STYLESHEET
  1

  9
$XEDIT
290
     1
  9
$CEPSNTYPE
380
     0
  9
$PSTYLEMODE
290
     1
  9
$FINGERPRINTGUID
  2
{9495A34B-286B-41E9-BBA2-1EC359448250}
  9
$VERSIONGUID
  2
{63F39842-05DE-4077-8866-7C86AA0D599D}
  9
$EXTNAMES
290
     1
  9
$PSVPSCALE
 40
0.0
  9
$OLESTARTUP
290
     0
  0
ENDSEC
  0
SECTION
  2
CLASSES
  0
CLASS
  1
DICTIONARYVAR
  2
AcDbDictionaryVar
  3
AutoCAD 2000
 90
        0
280
     0
281
     0
  0
CLASS
  1
ACDBDICTIONARYWDFLT
  2
AcDbDictionaryWithDefault
  3
AutoCAD 2000
 90
        0
280
     0
281
     0
  0
CLASS
  1
ACDBPLACEHOLDER
  2
AcDbPlaceHolder
  3
AutoCAD 2000
 90
        0
280
     0
281
     0
  0
CLASS
  1
LAYOUT
  2
AcDbLayout
  3
AutoCAD 2000
 90
        0
280
     0
281
     0
  0
CLASS
  1
AMGSETTINGSOBJ
  2
AmgSettingsObj
  3
"AcadM|Product Description: AutoCAD Mechanical 2000|Company: Autodesk"
 90
        0
280
     0
281
     0
  0
CLASS
  1
ACME_DOCUMENT
  2
AcMeDbDoc
  3
AcMeServices
 90
        0
280
     0
281
     0
  0
CLASS
  1
ACMESCOPE
  2
AcMeScope
  3
AcMeServices
 90
        0
280
     0
281
     0
  0
CLASS
  1
ACMECOMMANDHISTORY
  2
AcMeCommandHistory
  3
AcMeServices
 90
        0
280
     0
281
     0
  0
CLASS
  1
ACIMSYSVARMAN
  2
AcImSysVarManager
  3
AcMeServices
 90
        0
280
     0
281
     0
  0
CLASS
  1
ACIMREALSYSVAR
  2
AcImRealSysVar
  3
AcMeServices
 90
        0
280
     0
281
     0
  0
CLASS
  1
ACIMINTSYSVAR
  2
AcImIntSysVar
  3
AcMeServices
 90
        0
280
     0
281
     0
  0
CLASS
  1
ACMEDRAWINGMAN
  2
AcMeDrawingMan
  3
AcMeServices
 90
        0
280
     0
281
     0
  0
CLASS
  1
ACMEVIEW
  2
AcMeView
  3
AcMeServices
 90
        0
280
     0
281
     0
  0
CLASS
  1
ACDBENTITYCACHE
  2
AcMeEntityCache
  3
AcMeServices
 90
        0
280
     0
281
     0
  0
CLASS
  1
GSMANAGER
  2
AcMeGSManager
  3
AcMeServices
 90
        0
280
     0
281
     0
  0
CLASS
  1
AMDTINTERNALREACTOR
  2
AmdtInternalReactor
  3
AcMeServices
 90
        0
280
     0
281
     0
  0
CLASS
  1
ACMESTATEMGR
  2
AcMeStateMgr
  3
AcMeServices
 90
        0
280
     0
281
     0
  0
CLASS
  1
ACGREFMASTER
  2
AcGrefMaster
  3
AcAttribServices
 90
        0
280
     0
281
     0
  0
CLASS
  1
AM_DRAWING_MGR
  2
AcDmDwgMgr
  3
AcMechDwgViewMgmt
 90
        0
280
     0
281
     0
  0
CLASS
  1
AM_DWG_DOCUMENT
  2
AcDmDwgDocument
  3
AcMechDwgViewMgmt
 90
        0
280
     0
281
     0
  0
CLASS
  1
AM_DWG_SHEET
  2
AcDmSheet
  3
AcMechDwgViewMgmt
 90
        0
280
     0
281
     0
  0
CLASS
  1
AM_VIEWDIMPARMAP
  2
AcDmViewDimParMap
  3
AcMechDwgViewMgmt
 90
        0
280
     0
281
     0
  0
CLASS
  1
AM_DWGMGR_NAME
  2
AcDmDwgMgrName
  3
AcMechDwgViewMgmt
 90
        0
280
     0
281
     0
  0
CLASS
  1
ACME_DATABASE
  2
AcMeDbDatabase
  3
AcMeServices
 90
        0
280
     0
281
     0
  0
CLASS
  1
ACRFINSADJUSTERMGR
  2
AcRfInsAdjusterMgr
  3
AcMeServices
 90
        0
280
     0
281
     0
  0
CLASS
  1
ACGREFACADMASTER
  2
AcGrefacadMaster
  3
AcGrefServices
 90
        0
280
     0
281
     0
  0
CLASS
  1
AMDTMENUSTATEMGR
  2
AmdtMenuStateMgr
  3
McadcomServices
 90
        0
280
     0
281
     0
  0
CLASS
  1
AMDTMCOMMENUSTATE
  2
AmdtMcomMenuState
  3
McadcomServices
 90
        0
280
     0
281
     0
  0
CLASS
  1
AMIMASTER
  2
AmiMaster
  3
AmiServices
 90
        0
280
     0
281
     0
  0
CLASS
  1
ASAPP
  2
AcAsAppObject
  3
AutoSurfServices
 90
        0
280
     0
281
     0
  0
CLASS
  1
IM_STATIC_MAN
  2
AcImStaticVarManager
  3
AcMeServices
 90
        0
280
     0
281
     0
  0
CLASS
  1
ACIMSTRSYSVAR
  2
AcImStrSysVar
  3
AcMeServices
 90
        0
280
     0
281
     0
  0
CLASS
  1
ACIMDBLSTATICVAR
  2
AcImDblStaticVar
  3
AcMeServices
 90
        0
280
     0
281
     0
  0
CLASS
  1
ACIMSTRSTATICVAR
  2
AcImStrStaticVar
  3
AcMeServices
 90
        0
280
     0
281
     0
  0
CLASS
  1
ACIMINTSTATICVAR
  2
AcImIntStaticVar
  3
AcMeServices
 90
        0
280
     0
281
     0
  0
CLASS
  1
ACASGREFMASTER
  2
AcAsGrefMaster
  3
AutoSurfResolverServices
 90
        0
280
     0
281
     0
  0
CLASS
  1
ACADGREFMODULE
  2
AcAdGrefModule
  3
AdGrefServices
 90
        0
280
     0
281
     0
  0
CLASS
  1
AMDTMAPISURFMOUDULE
  2
AmdtMApiSurfModule
  3
MApiSurfServices
 90
    32768
280
     0
281
     0
  0
CLASS
  1
MAPIAMMOUDLE
  2
MApiAmModule
  3
MApiAmServices
 90
        0
280
     0
281
     0
  0
CLASS
  1
AMDTADMENUSTATE
  2
AmdtAdMenuState
  3
DesignerServices
 90
        0
280
     0
281
     0
  0
CLASS
  1
ADAPPL
  2
AcAdAppl
  3
DesignerServices
 90
        0
280
     0
281
     0
  0
CLASS
  1
DEPMGR
  2
AcAdDepMgr
  3
DesignerServices
 90
        0
280
     0
281
     0
  0
CLASS
  1
PARAMMGR
  2
AcAdParamMgr
  3
DesignerServices
 90
        0
280
     0
281
     0
  0
CLASS
  1
PARAMSCOPE
  2
AcAdParamScope
  3
DesignerServices
 90
        0
280
     0
281
     0
  0
CLASS
  1
NAMEDAPPL
  2
AcAdNamedAppl
  3
DesignerServices
 90
        0
280
     0
281
     0
  0
CLASS
  1
AMDTDMMENUSTATE
  2
AmdtDmMenuState
  3
AcMechDwgViewMgmt
 90
        0
280
     0
281
     0
  0
CLASS
  1
MAPIADMODULE
  2
MApiAdModule
  3
MApiAdServices
 90
        0
280
     0
281
     0
  0
CLASS
  1
AMDTAMMENUSTATE
  2
AmdtAmMenuState
  3
DesignerAssemblies
 90
        0
280
     0
281
     0
  0
CLASS
  1
ACAMPROJECT
  2
AcAmProject
  3
DesignerAssemblies
 90
        0
280
     0
281
     0
  0
CLASS
  1
ACAMGRCOMPDEF
  2
AcAmGrCompDef
  3
DesignerAssemblies
 90
        0
280
     0
281
     0
  0
CLASS
  1
ACCMCONTEXT
  2
AcCmContext
  3
DesignerAssemblies
 90
        0
280
     0
281
     0
  0
CLASS
  1
ACAMCOMPDEF
  2
AcAmCompDef
  3
DesignerAssemblies
 90
        0
280
     0
281
     0
  0
CLASS
  1
ACAMCOMPDEFMGR
  2
AcAmCompDefMgr
  3
DesignerAssemblies
 90
        0
280
     0
281
     0
  0
CLASS
  1
AMCONTEXTMGR
  2
AcAmContextMgr
  3
DesignerAssemblies
 90
        0
280
     0
281
     0
  0
CLASS
  1
ACAMCONTEXTMODELER
  2
AcAmContextModeler
  3
DesignerAssemblies
 90
        0
280
     0
281
     0
  0
CLASS
  1
ACMDATADICTIONARY
  2
AcmDataDictionary
  3
"AcmSymBB|Product Description: AutoCAD Mechanical 2000|Company: Autodesk"
 90
        0
280
     0
281
     0
  0
CLASS
  1
ACMDATAENTRYBLOCK
  2
AcmDataEntryBlock
  3
"AcmSymBB|Product Description: AutoCAD Mechanical 2000|Company: Autodesk"
 90
        0
280
     0
281
     0
  0
CLASS
  1
CATALOGSTATE
  2
AcAmCatalogState
  3
DesignerAssemblies
 90
        0
280
     0
281
     0
  0
CLASS
  1
ACAMGRCOMPDEFSET
  2
AcAmGrCompDefSet
  3
DesignerAssemblies
 90
        0
280
     0
281
     0
  0
CLASS
  1
AMDTBROWSERDBTAB
  2
AmdtBrowserDbTab
  3
McadcomServices
 90
        0
280
     0
281
     0
  0
CLASS
  1
CBROWSERAPPOBJECT
  2
CBrowserAppObject
  3
McadcomServices
 90
        0
280
     0
281
     0
  0
CLASS
  1
DM_PLACEHOLDER
  2
AcDmSelsetPlaceholder
  3
AcMechDwgViewMgmt
 90
        0
280
     0
281
     0
  0
CLASS
  1
AMGOBJPROPCFG
  2
AmgObjPropCfg
  3
"AmgLay|Product Description: AutoCAD Mechanical 2000|Company: Autodesk"
 90
        1
280
     0
281
     0
  0
CLASS
  1
ACAMGFILTERDAT
  2
AcAmgFilterDat
  3
"AcadM|Product Description: AutoCAD Mechanical 2000|Company: Autodesk"
 90
        0
280
     0
281
     0
  0
CLASS
  1
LAYER_INDEX
  2
AcDbLayerIndex
  3
AutoCAD 2000
 90
        0
280
     0
281
     0
  0
CLASS
  1
IDBUFFER
  2
AcDbIdBuffer
  3
AutoCAD 2000
 90
        0
280
     0
281
     0
  0
CLASS
  1
AMDTFORMULAUPDATEDISPATCHER
  2
AmdtFormulaUpdateDispatcher
  3
AcMeServices
 90
        0
280
     0
281
     0
  0
CLASS
  1
ACMSTANDARDANSI
  2
AcmStandardANSI
  3
"Amdt_StdImp|Product Description: AutoCAD Mechanical 2000|Company: Autodesk"
 90
    32768
280
     0
281
     0
  0
CLASS
  1
ACMSURFSTANDARDANSI
  2
AcmSurfTextStdANSI
  3
"Amdt_StdImp|Product Description: AutoCAD Mechanical 2000|Company: Autodesk"
 90
    32768
280
     0
281
     0
  0
CLASS
  1
ACMFCFSTANDARDANSI
  2
AcmFCFStdANSI
  3
"Amdt_StdImp|Product Description: AutoCAD Mechanical 2000|Company: Autodesk"
 90
    32768
280
     0
281
     0
  0
CLASS
  1
ACMWELDSTANDARDANSI
  2
AcmWeldingStdANSI
  3
"Amdt_StdImp|Product Description: AutoCAD Mechanical 2000|Company: Autodesk"
 90
    32768
280
     0
281
     0
  0
CLASS
  1
ACMIDSTANDARDANSI
  2
AcmIdStdANSI
  3
"Amdt_StdImp|Product Description: AutoCAD Mechanical 2000|Company: Autodesk"
 90
    32768
280
     0
281
     0
  0
CLASS
  1
ACMDATUMSTANDARDANSI
  2
AcmDatumStdANSI
  3
"Amdt_StdImp|Product Description: AutoCAD Mechanical 2000|Company: Autodesk"
 90
    32768
280
     0
281
     0
  0
CLASS
  1
ACMBOMSTANDARDANSI
  2
AcmBOMStdANSI
  3
"Amdt_StdImp|Product Description: AutoCAD Mechanical 2000|Company: Autodesk"
 90
    32768
280
     0
281
     0
  0
CLASS
  1
ACMDETAILSTANDARDANSI
  2
AmdtDetailSymStdANSI
  3
"Amdt_StdImp|Product Description: AutoCAD Mechanical 2000|Company: Autodesk"
 90
    32768
280
     0
281
     0
  0
CLASS
  1
ACMSECTIONSTANDARDANSI
  2
AmdtSectionSymStdANSI
  3
"Amdt_StdImp|Product Description: AutoCAD Mechanical 2000|Company: Autodesk"
 90
    32768
280
     0
281
     0
  0
CLASS
  1
ACMCENTERLINESTANDARDANSI
  2
AmdtCenterLineStdANSI
  3
"Amdt_StdImp|Product Description: AutoCAD Mechanical 2000|Company: Autodesk"
 90
    32768
280
     0
281
     0
  0
CLASS
  1
ACMTHREADLINESTANDARDANSI
  2
AmdtThreadLineStdANSI
  3
"Amdt_StdImp|Product Description: AutoCAD Mechanical 2000|Company: Autodesk"
 90
    32768
280
     0
281
     0
  0
CLASS
  1
ACMNOTESTANDARDANSI
  2
AmdtNoteStdANSI
  3
"Amdt_StdImp|Product Description: AutoCAD Mechanical 2000|Company: Autodesk"
 90
    32768
280
     0
281
     0
  0
CLASS
  1
ACAMGLAYSTD
  2
AcAmgLayStd
  3
"AcAmgLayStd|Product Description: AutoCAD Mechanical 2000|Company: Autodesk"
 90
    32768
280
     0
281
     0
  0
CLASS
  1
ACAMGDIMSTD
  2
AcAmgDimStd
  3
"AcAmgDimStd|Product Description: AutoCAD Mechanical 2000|Company: Autodesk"
 90
    32768
280
     0
281
     0
  0
CLASS
  1
ACAMGHOLECHARTSTDANSI
  2
AcAmgHoleChartStdANSI
  3
ACMSYMBB_MODULE_NAME
 90
    32768
280
     0
281
     0
  0
CLASS
  1
ACAMGTITLESTD
  2
AcAmgTitleStd
  3
"TITLEAPP"
 90
    32768
280
     0
281
     0
  0
ENDSEC
  0
SECTION
  2
TABLES
  0
TABLE
  2
VPORT
  5
149
330
0
100
AcDbSymbolTable
 70
     3
  0
VPORT
  5
7E0
330
149
100
AcDbSymbolTableRecord
100
AcDbViewportTableRecord
  2
*Active
 70
     0
 10
0.0
 20
0.0
 11
1.0
 21
1.0
 12
0.0
 22
0.0
 13
0.0
 23
0.0
 14
25.0
 24
25.0
 15
50.0
 25
50.0
 16
0.0
 26
0.0
 36
1.0
 17
539.3151170723569
 27
464.2349088940036
 37
0.0
 40
708.0222532349344
 41
1.489721886336154
 42
50.0
 43
0.0
 44
0.0
 50
0.0
 51
0.0
 71
     0
 72
   500
 73
     1
 74
     1
 75
     0
 76
     0
 77
     0
 78
     0
281
     0
 65
     0
110
0.0
120
0.0
130
0.0
111
1.0
121
0.0
131
0.0
112
0.0
122
1.0
132
0.0
 79
     0
146
0.0
  0
ENDTAB
  0
TABLE
  2
LTYPE
  5
146
330
0
100
AcDbSymbolTable
 70
    20
  0
LTYPE
  5
152
330
146
100
AcDbSymbolTableRecord
100
AcDbLinetypeTableRecord
  2
BYBLOCK
 70
     0
  3

 72
    65
 73
     0
 40
0.0
  0
LTYPE
  5
153
330
146
100
AcDbSymbolTableRecord
100
AcDbLinetypeTableRecord
  2
BYLAYER
 70
     0
  3

 72
    65
 73
     0
 40
0.0
  0
LTYPE
  5
154
330
146
100
AcDbSymbolTableRecord
100
AcDbLinetypeTableRecord
  2
CONTINUOUS
 70
     0
  3
実線
 72
    65
 73
     0
 40
0.0
  0
LTYPE
  5
162
330
146
100
AcDbSymbolTableRecord
100
AcDbLinetypeTableRecord
  2
CENTER
 70
     0
  3
____ _ ____ _ ____ _ ____ _ ____ _ ____ _ ____
 72
    65
 73
     4
 40
2.0
 49
1.25
 74
     0
 49
-0.25
 74
     0
 49
0.25
 74
     0
 49
-0.25
 74
     0
  0
LTYPE
  5
163
330
146
100
AcDbSymbolTableRecord
100
AcDbLinetypeTableRecord
  2
TENSEN1
 70
     0
  3

 72
    65
 73
     2
 40
0.4
 49
0.3
 74
     0
 49
-0.1
 74
     0
  0
LTYPE
  5
1AD
330
146
100
AcDbSymbolTableRecord
100
AcDbLinetypeTableRecord
  2
HIDDEN
 70
     0
  3
Hidden __ __ __ __ __ __ __ __ __ __ __ __ __ _
 72
    65
 73
     2
 40
0.375
 49
0.25
 74
     0
 49
-0.125
 74
     0
  0
LTYPE
  5
1AE
330
146
100
AcDbSymbolTableRecord
100
AcDbLinetypeTableRecord
  2
PHANTOM2
 70
     0
  3
Phantom (.5x) ___ _ _ ___ _ _ ___ _ _ ___ _ _
 72
    65
 73
     6
 40
1.25
 49
0.625
 74
     0
 49
-0.125
 74
     0
 49
0.125
 74
     0
 49
-0.125
 74
     0
 49
0.125
 74
     0
 49
-0.125
 74
     0
  0
LTYPE
  5
210
330
146
100
AcDbSymbolTableRecord
100
AcDbLinetypeTableRecord
  2
ASULTYPE
 70
     0
  3
実線
 72
    65
 73
     2
 40
3.0
 49
2.5
 74
     0
 49
0.5
 74
     0
  0
LTYPE
  5
211
330
146
100
AcDbSymbolTableRecord
100
AcDbLinetypeTableRecord
  2
ASVLTYPE
 70
     0
  3
__ __ __ __ __ __ __ __ __ __ __ __ __ __ __ __ __ __ __ __ __
 72
    65
 73
     2
 40
0.75
 49
0.5
 74
     0
 49
-0.25
 74
     0
  0
LTYPE
  5
252
330
146
100
AcDbSymbolTableRecord
100
AcDbLinetypeTableRecord
  2
AM_ISO02W050
 70
     0
  3
__ __ __ __ __ __ __ __ __ __ __ __ __ __ __
 72
    65
 73
     2
 40
7.5
 49
6.0
 74
     0
 49
-1.5
 74
     0
  0
LTYPE
  5
253
330
146
100
AcDbSymbolTableRecord
100
AcDbLinetypeTableRecord
  2
AM_ISO08W050
 70
     0
  3
____ . ____ . ____ . ____ . ____ . ____ . ____
 72
    65
 73
     4
 40
18.0
 49
12.0
 74
     0
 49
-1.5
 74
     0
 49
3.0
 74
     0
 49
-1.5
 74
     0
  0
LTYPE
  5
254
330
146
100
AcDbSymbolTableRecord
100
AcDbLinetypeTableRecord
  2
AM_ISO09W050
 70
     0
  3
_____ . . _____ . . _____ . . ____ .. ____
 72
    65
 73
     6
 40
22.5
 49
12.0
 74
     0
 49
-1.5
 74
     0
 49
3.0
 74
     0
 49
-1.5
 74
     0
 49
3.0
 74
     0
 49
-1.5
 74
     0
  0
LTYPE
  5
255
330
146
100
AcDbSymbolTableRecord
100
AcDbLinetypeTableRecord
  2
Amconstr
 70
     0
  3
_______________________
 72
    65
 73
     2
 40
9999.0
 49
9999.0
 74
     0
 49
0.0
 74
     0
  0
LTYPE
  5
256
330
146
100
AcDbSymbolTableRecord
100
AcDbLinetypeTableRecord
  2
AM_ISO08W050x2
 70
     0
  3
__ . __ . __ . __ . __ . __
 72
    65
 73
     4
 40
9.0
 49
6.0
 74
     0
 49
-0.75
 74
     0
 49
1.5
 74
     0
 49
-0.75
 74
     0
  0
LTYPE
  5
257
330
146
100
AcDbSymbolTableRecord
100
AcDbLinetypeTableRecord
  2
AM_ISO02W050x2
 70
     0
  3
 _ _ _ _ _ _ _ _ _ _ _ _
 72
    65
 73
     2
 40
3.75
 49
3.0
 74
     0
 49
-0.75
 74
     0
  0
LTYPE
  5
25A
330
146
100
AcDbSymbolTableRecord
100
AcDbLinetypeTableRecord
  2
Amzigzag
 70
     0
  3
/\/-/\/-/\/-/\/-/\/-/\/
 72
    65
 73
     2
 40
11.00009999999999
 49
0.0001
 74
     4
 75
   135
340
259
 46
0.04
 50
0.0
 44
0.0
 45
0.0
 49
-11.0
 74
     0
  0
LTYPE
  5
25B
330
146
100
AcDbSymbolTableRecord
100
AcDbLinetypeTableRecord
  2
CENTER2
 70
     0
  3
Center (.5x) ___ _ ___ _ ___ _ ___ _ ___ _ ___
 72
    65
 73
     4
 40
1.125
 49
0.75
 74
     0
 49
-0.125
 74
     0
 49
0.125
 74
     0
 49
-0.125
 74
     0
  0
LTYPE
  5
25C
330
146
100
AcDbSymbolTableRecord
100
AcDbLinetypeTableRecord
  2
HIDDEN2
 70
     0
  3
Hidden (.5x) _ _ _ _ _ _ _ _ _ _ _ _ _ _ _ _ _
 72
    65
 73
     2
 40
0.1875
 49
0.125
 74
     0
 49
-0.0625
 74
     0
  0
LTYPE
  5
25D
330
146
100
AcDbSymbolTableRecord
100
AcDbLinetypeTableRecord
  2
Amzigzag2
 70
     0
  3
/\/-/\/-/\/-/\/-/\/-/\/
 72
    65
 73
     2
 40
0.4401
 49
0.0001
 74
     4
 75
   135
340
259
 46
0.0016
 50
0.0
 44
0.0
 45
0.0
 49
-0.4400000000000003
 74
     0
  0
LTYPE
  5
3D0
330
146
100
AcDbSymbolTableRecord
100
AcDbLinetypeTableRecord
  2
ITTEN1
 70
     0
  3

 72
    65
 73
     4
 40
8.199999999999999
 49
5.0
 74
     0
 49
-1.0
 74
     0
 49
1.199999999999999
 74
     0
 49
-1.0
 74
     0
  0
LTYPE
  5
3D1
330
146
100
AcDbSymbolTableRecord
100
AcDbLinetypeTableRecord
  2
ACANSTGB
 70
     0
  3
__ . . __ . .
 72
    65
 73
     6
 40
0.35433070866
 49
0.15748031496
 74
     0
 49
-0.03937007874
 74
     0
 49
0.03937007874
 74
     0
 49
-0.03937007874
 74
     0
 49
0.03937007874
 74
     0
 49
-0.03937007874
 74
     0
  0
LTYPE
  5
3D2
330
146
100
AcDbSymbolTableRecord
100
AcDbLinetypeTableRecord
  2
ACANSTGL
 70
     0
  3
_ _ _ _ _
 72
    65
 73
     2
 40
0.11811023622
 49
0.07874015748
 74
     0
 49
-0.03937007874
 74
     0
  0
ENDTAB
  0
TABLE
  2
LAYER
  5
143
330
0
100
AcDbSymbolTable
 70
     7
  0
LAYER
  5
14F
330
143
100
AcDbSymbolTableRecord
100
AcDbLayerTableRecord
  2
0
 70
     0
 62
     7
  6
CONTINUOUS
370
    -3
390
183
  0
LAYER
  5
168
330
143
100
AcDbSymbolTableRecord
100
AcDbLayerTableRecord
  2
1
 70
     0
 62
     1
  6
CENTER
370
    -3
390
183
  0
LAYER
  5
169
330
143
100
AcDbSymbolTableRecord
100
AcDbLayerTableRecord
  2
10
 70
     0
 62
     7
  6
CONTINUOUS
370
    -3
390
183
  0
LAYER
  5
16A
330
143
100
AcDbSymbolTableRecord
100
AcDbLayerTableRecord
  2
11
 70
     0
 62
     3
  6
CONTINUOUS
370
    -3
390
183
  0
LAYER
  5
16B
330
143
100
AcDbSymbolTableRecord
100
AcDbLayerTableRecord
  2
2
 70
     0
 62
     2
  6
TENSEN1
370
    -3
390
183
  0
LAYER
  5
3D3
330
143
100
AcDbSymbolTableRecord
100
AcDbLayerTableRecord
  2
3
 70
     0
 62
     5
  6
CONTINUOUS
370
    53
390
183
  0
LAYER
  5
3D4
330
143
100
AcDbSymbolTableRecord
100
AcDbLayerTableRecord
  2
DEFPOINTS
 70
     0
 62
     7
  6
CONTINUOUS
290
     0
370
    -3
390
183
  0
ENDTAB
  0
TABLE
  2
STYLE
  5
144
330
0
100
AcDbSymbolTable
 70
     7
  0
STYLE
  5
150
330
144
100
AcDbSymbolTableRecord
100
AcDbTextStyleTableRecord
  2
STANDARD
 70
     0
 40
0.0
 41
1.0
 50
0.0
 71
     0
 42
0.2
  3
TXT
  4
BIGFONT
  0
STYLE
  5
15F
330
144
100
AcDbSymbolTableRecord
100
AcDbTextStyleTableRecord
  2
K80
 70
     0
 40
0.0
 41
0.8
 50
0.0
 71
     0
 42
0.2
  3
TXT
  4
BIGFONT
  0
STYLE
  5
160
330
144
100
AcDbSymbolTableRecord
100
AcDbTextStyleTableRecord
  2
07500
 70
     0
 40
0.0
 41
0.75
 50
0.0
 71
     0
 42
0.2
  3
TXT
  4
BIGFONT
  0
STYLE
  5
161
330
144
100
AcDbSymbolTableRecord
100
AcDbTextStyleTableRecord
  2
BIGFONT
 70
     0
 40
10.0
 41
1.0
 50
0.0
 71
     0
 42
60.0
  3
txt.shx
  4
bigfont.shx
  0
STYLE
  5
259
330
144
100
AcDbSymbolTableRecord
100
AcDbTextStyleTableRecord
  2

 70
     1
 40
0.0
 41
1.0
 50
0.0
 71
     0
 42
60.0
  3
ltypeshp.shx
  4

  0
STYLE
  5
3D5
330
144
100
AcDbSymbolTableRecord
100
AcDbTextStyleTableRecord
  2
ACANSTS
 70
     0
 40
1.0
 41
1.0
 50
0.0
 71
     0
 42
10.0
  3
romans.shx
  4
extfont.shx
  0
STYLE
  5
3D6
330
144
100
AcDbSymbolTableRecord
100
AcDbTextStyleTableRecord
  2
ACANSGDT
 70
     0
 40
0.0
 41
1.0
 50
0.0
 71
     0
 42
10.0
  3
amgdtans.shx
  4

  0
ENDTAB
  0
TABLE
  2
VIEW
  5
147
330
0
100
AcDbSymbolTable
 70
     1
  0
VIEW
  5
164
330
147
100
AcDbSymbolTableRecord
100
AcDbViewTableRecord
  2
ALL
 70
     0
 40
2700.0
 10
2209.915966
 20
1350.0
 41
0.0
 11
0.0
 21
0.0
 31
1.0
 12
0.0
 22
0.0
 32
0.0
 42
50.0
 43
0.0
 44
0.0
 50
0.0
 71
     0
281
     0
 72
     0
  0
ENDTAB
  0
TABLE
  2
UCS
  5
148
330
0
100
AcDbSymbolTable
 70
     0
  0
ENDTAB
  0
TABLE
  2
APPID
  5
14A
330
0
100
AcDbSymbolTable
 70
    12
  0
APPID
  5
151
330
14A
100
AcDbSymbolTableRecord
100
AcDbRegAppTableRecord
  2
ACAD
 70
     0
  0
APPID
  5
18C
330
14A
100
AcDbSymbolTableRecord
100
AcDbRegAppTableRecord
  2
GENIUS_GENDIM_13
 70
     0
  0
APPID
  5
18D
330
14A
100
AcDbSymbolTableRecord
100
AcDbRegAppTableRecord
  2
GENIUS_GENDTOL_13
 70
     0
  0
APPID
  5
18E
330
14A
100
AcDbSymbolTableRecord
100
AcDbRegAppTableRecord
  2
GENIUS_GE3DTOL_13
 70
     0
  0
APPID
  5
190
330
14A
100
AcDbSymbolTableRecord
100
AcDbRegAppTableRecord
  2
MCAD_NO_VIS
 70
     0
  0
APPID
  5
191
330
14A
100
AcDbSymbolTableRecord
100
AcDbRegAppTableRecord
  2
ACAD_TEMP_GRAPHIC
 70
     0
  0
APPID
  5
1C3
330
14A
100
AcDbSymbolTableRecord
100
AcDbRegAppTableRecord
  2
AD_DRAW
 70
     0
  0
APPID
  5
1C6
330
14A
100
AcDbSymbolTableRecord
100
AcDbRegAppTableRecord
  2
ACATTRIBSERVICES
 70
     0
  0
APPID
  5
212
330
14A
100
AcDbSymbolTableRecord
100
AcDbRegAppTableRecord
  2
ASURF_PCURVE_APPNAME
 70
     0
  0
APPID
  5
241
330
14A
100
AcDbSymbolTableRecord
100
AcDbRegAppTableRecord
  2
DESIGNERASSEMBLIES
 70
     0
  0
APPID
  5
249
330
14A
100
AcDbSymbolTableRecord
100
AcDbRegAppTableRecord
  2
ACADM_DIM_EDIT
 70
     0
  0
APPID
  5
24A
330
14A
100
AcDbSymbolTableRecord
100
AcDbRegAppTableRecord
  2
AMDT_DM_ADJ
 70
     0
  0
ENDTAB
  0
TABLE
  2
DIMSTYLE
  5
14B
330
0
100
AcDbSymbolTable
 70
     7
100
AcDbDimStyleTable
 71
     1
340
167
  0
DIMSTYLE
105
167
330
14B
100
AcDbSymbolTableRecord
100
AcDbDimStyleTableRecord
  2
STANDARD
 70
     0
340
161
  0
DIMSTYLE
105
3D7
330
14B
100
AcDbSymbolTableRecord
100
AcDbDimStyleTableRecord
  2
AM_ANSI
 70
     0
  4
mm
 41
0.1
 42
0.05
 43
0.5
 44
0.1
 47
0.1
 48
0.1
 78
     7
 79
     2
140
0.12
141
0.0
146
0.71
147
0.06
176
   256
177
   256
178
     2
274
     4
284
     7
340
150
371
    -1
372
    -1
  0
DIMSTYLE
105
3D8
330
14B
100
AcDbSymbolTableRecord
100
AcDbDimStyleTableRecord
  2
AM_ANSI$3
 70
     0
  4
mm
 41
0.1
 42
0.05
 43
0.5
 44
0.1
 47
0.1
 48
0.1
 78
     7
 79
     2
140
0.12
141
0.0
146
0.71
147
0.06
176
   256
177
   256
178
     2
274
     4
284
     7
288
     1
289
     0
340
150
371
    -1
372
    -1
  0
DIMSTYLE
105
3D9
330
14B
100
AcDbSymbolTableRecord
100
AcDbDimStyleTableRecord
  2
AM_ANSI$4
 70
     0
  4
mm
 41
0.1
 42
0.05
 43
0.5
 44
0.1
 47
0.1
 48
0.1
 78
     7
 79
     2
140
0.12
141
0.0
146
0.71
147
0.06
176
   256
177
   256
178
     2
274
     4
284
     7
288
     1
289
     0
340
150
371
    -1
372
    -1
  0
DIMSTYLE
105
3DA
330
14B
100
AcDbSymbolTableRecord
100
AcDbDimStyleTableRecord
  2
AM_ANSI$7
 70
     0
  4
mm
 41
0.1
 42
0.05
 43
0.5
 44
0.1
 47
0.1
 48
0.1
 78
     7
 79
     2
140
0.24
141
0.0
146
0.71
147
0.06
176
   256
177
   256
178
     2
274
     4
284
     7
340
150
371
    -1
372
    -1
  0
DIMSTYLE
105
3DB
330
14B
100
AcDbSymbolTableRecord
100
AcDbDimStyleTableRecord
  2
AM_ANSI$SF
 70
     0
  4
mm
 41
0.1
 42
0.05
 43
0.5
 44
0.1
 47
0.1
 48
0.1
 75
     1
 76
     1
 78
     7
 79
     2
140
0.12
141
0.0
146
0.71
147
0.06
176
   256
177
   256
178
     2
274
     4
284
     7
340
150
371
    -1
372
    -1
  0
DIMSTYLE
105
3DC
330
14B
100
AcDbSymbolTableRecord
100
AcDbDimStyleTableRecord
  2
AM_ANSI$SH
 70
     0
  4
mm
 41
0.1
 42
0.05
 43
0.5
 44
0.1
 47
0.1
 48
0.1
 75
     1
 76
     1
 78
     7
 79
     2
140
0.12
141
0.0
146
0.71
147
0.06
173
     1
176
   256
177
   256
178
     2
274
     4
284
     7
340
150
341
350
343
350
371
    -1
372
    -1
  0
ENDTAB
  0
TABLE
  2
BLOCK_RECORD
  5
142
330
0
100
AcDbSymbolTable
 70
    27
  0
BLOCK_RECORD
  5
158
102
{ACAD_XDICTIONARY
360
281
102
}
330
142
100
AcDbSymbolTableRecord
100
AcDbBlockTableRecord
  2
*MODEL_SPACE
340
186
  0
BLOCK_RECORD
  5
155
330
142
100
AcDbSymbolTableRecord
100
AcDbBlockTableRecord
  2
*PAPER_SPACE
340
187
  0
BLOCK_RECORD
  5
15D
330
142
100
AcDbSymbolTableRecord
100
AcDbBlockTableRecord
  2
WAKU
340
0
  0
BLOCK_RECORD
  5
15E
330
142
100
AcDbSymbolTableRecord
100
AcDbBlockTableRecord
  2
QQ
340
0
  0
BLOCK_RECORD
  5
238
330
142
100
AcDbSymbolTableRecord
100
AcDbBlockTableRecord
  2
*U2
340
0
  0
BLOCK_RECORD
  5
336
330
142
100
AcDbSymbolTableRecord
100
AcDbBlockTableRecord
  2
*U3
340
0
  0
BLOCK_RECORD
  5
350
330
142
100
AcDbSymbolTableRecord
100
AcDbBlockTableRecord
  2
GENAXEH
340
0
  0
BLOCK_RECORD
  5
354
330
142
100
AcDbSymbolTableRecord
100
AcDbBlockTableRecord
  2
*D5
340
0
  0
BLOCK_RECORD
  5
35F
330
142
100
AcDbSymbolTableRecord
100
AcDbBlockTableRecord
  2
*D6
340
0
  0
BLOCK_RECORD
  5
36C
330
142
100
AcDbSymbolTableRecord
100
AcDbBlockTableRecord
  2
*D7
340
0
  0
BLOCK_RECORD
  5
379
330
142
100
AcDbSymbolTableRecord
100
AcDbBlockTableRecord
  2
*D8
340
0
  0
BLOCK_RECORD
  5
384
330
142
100
AcDbSymbolTableRecord
100
AcDbBlockTableRecord
  2
*D9
340
0
  0
BLOCK_RECORD
  5
38F
330
142
100
AcDbSymbolTableRecord
100
AcDbBlockTableRecord
  2
*D10
340
0
  0
BLOCK_RECORD
  5
39C
330
142
100
AcDbSymbolTableRecord
100
AcDbBlockTableRecord
  2
*D11
340
0
  0
BLOCK_RECORD
  5
3A9
330
142
100
AcDbSymbolTableRecord
100
AcDbBlockTableRecord
  2
*D12
340
0
  0
BLOCK_RECORD
  5
3B6
330
142
100
AcDbSymbolTableRecord
100
AcDbBlockTableRecord
  2
*D13
340
0
  0
BLOCK_RECORD
  5
3C3
330
142
100
AcDbSymbolTableRecord
100
AcDbBlockTableRecord
  2
*D14
340
0
  0
BLOCK_RECORD
  5
4FF
330
142
100
AcDbSymbolTableRecord
100
AcDbBlockTableRecord
  2
*D15
340
0
  0
BLOCK_RECORD
  5
50C
330
142
100
AcDbSymbolTableRecord
100
AcDbBlockTableRecord
  2
*D16
340
0
  0
BLOCK_RECORD
  5
517
330
142
100
AcDbSymbolTableRecord
100
AcDbBlockTableRecord
  2
*D17
340
0
  0
BLOCK_RECORD
  5
523
330
142
100
AcDbSymbolTableRecord
100
AcDbBlockTableRecord
  2
*D18
340
0
  0
BLOCK_RECORD
  5
530
330
142
100
AcDbSymbolTableRecord
100
AcDbBlockTableRecord
  2
*D19
340
0
  0
BLOCK_RECORD
  5
53C
330
142
100
AcDbSymbolTableRecord
100
AcDbBlockTableRecord
  2
*D20
340
0
  0
BLOCK_RECORD
  5
548
330
142
100
AcDbSymbolTableRecord
100
AcDbBlockTableRecord
  2
*D21
340
0
  0
BLOCK_RECORD
  5
555
330
142
100
AcDbSymbolTableRecord
100
AcDbBlockTableRecord
  2
*D22
340
0
  0
BLOCK_RECORD
  5
560
330
142
100
AcDbSymbolTableRecord
100
AcDbBlockTableRecord
  2
*D23
340
0
  0
BLOCK_RECORD
  5
56C
330
142
100
AcDbSymbolTableRecord
100
AcDbBlockTableRecord
  2
*D24
340
0
  0
BLOCK_RECORD
  5
6DE
330
142
100
AcDbSymbolTableRecord
100
AcDbBlockTableRecord
  2
*U25
340
0
  0
BLOCK_RECORD
  5
7C8
330
142
100
AcDbSymbolTableRecord
100
AcDbBlockTableRecord
  2
*U26
340
0
  0
ENDTAB
  0
ENDSEC
  0
SECTION
  2
BLOCKS
  0
BLOCK
  5
16E
330
158
100
AcDbEntity
  8
0
100
AcDbBlockBegin
  2
*MODEL_SPACE
 70
     0
 10
0.0
 20
0.0
 30
0.0
  3
*MODEL_SPACE
  1

  0
ENDBLK
  5
16F
330
158
100
AcDbEntity
  8
0
100
AcDbBlockEnd
  0
BLOCK
  5
16C
330
155
100
AcDbEntity
 67
     1
  8
0
100
AcDbBlockBegin
  2
*PAPER_SPACE
 70
     0
 10
0.0
 20
0.0
 30
0.0
  3
*PAPER_SPACE
  1

  0
ENDBLK
  5
16D
330
155
100
AcDbEntity
 67
     1
  8
0
100
AcDbBlockEnd
  0
BLOCK
  5
2E
330
15D
100
AcDbEntity
  8
0
100
AcDbBlockBegin
  2
WAKU
 70
     0
 10
549.0
 20
0.0
 30
0.0
  3
WAKU
  1

  0
LINE
  5
2F
330
15D
100
AcDbEntity
  8
11
100
AcDbLine
 10
452.0
 20
12.0
 30
0.0
 11
549.0
 21
12.0
 31
0.0
  0
LINE
  5
30
330
15D
100
AcDbEntity
  8
11
100
AcDbLine
 10
477.0
 20
0.0
 30
0.0
 11
477.0
 21
12.0
 31
0.0
  0
LINE
  5
31
330
15D
100
AcDbEntity
  8
11
100
AcDbLine
 10
452.0
 20
12.0
 30
0.0
 11
452.0
 21
0.0
 31
0.0
  0
TEXT
  5
32
330
15D
100
AcDbEntity
  8
11
100
AcDbText
 10
454.0
 20
8.5
 30
0.0
 40
2.5
  1
尺度
100
AcDbText
  0
TEXT
  5
33
330
15D
100
AcDbEntity
  8
11
100
AcDbText
 10
479.0
 20
8.5
 30
0.0
 40
2.5
  1
図番
100
AcDbText
  0
ENDBLK
  5
34
330
15D
100
AcDbEntity
  8
0
100
AcDbBlockEnd
  0
BLOCK
  5
35
330
15E
100
AcDbEntity
  8
0
100
AcDbBlockBegin
  2
QQ
 70
     0
 10
270.0
 20
0.0
 30
0.0
  3
QQ
  1

  0
LINE
  5
36
330
15E
100
AcDbEntity
  8
11
100
AcDbLine
 10
173.0
 20
36.0
 30
0.0
 11
270.0
 21
36.0
 31
0.0
  0
TEXT
  5
37
330
15E
100
AcDbEntity
  8
11
100
AcDbText
 10
175.0
 20
32.5
 30
0.0
 40
2.5
  1
部品名称
100
AcDbText
  0
LINE
  5
38
330
15E
100
AcDbEntity
  8
11
100
AcDbLine
 10
173.0
 20
36.0
 30
0.0
 11
173.0
 21
0.0
 31
0.0
  0
LINE
  5
39
330
15E
100
AcDbEntity
  8
11
100
AcDbLine
 10
173.0
 20
24.0
 30
0.0
 11
270.0
 21
24.0
 31
0.0
  0
TEXT
  5
3A
330
15E
100
AcDbEntity
  8
11
100
AcDbText
 10
175.0
 20
20.5
 30
0.0
 40
2.5
  1
品番
100
AcDbText
  0
LINE
  5
3B
330
15E
100
AcDbEntity
  8
11
100
AcDbLine
 10
173.0
 20
12.0
 30
0.0
 11
270.0
 21
12.0
 31
0.0
  0
TEXT
  5
3C
330
15E
100
AcDbEntity
  8
11
100
AcDbText
 10
175.0
 20
8.5
 30
0.0
 40
2.5
  1
尺度
100
AcDbText
  0
TEXT
  5
3D
330
15E
100
AcDbEntity
  8
11
100
AcDbText
 10
200.0
 20
8.5
 30
0.0
 40
2.5
  1
図番
100
AcDbText
  0
LINE
  5
3E
330
15E
100
AcDbEntity
  8
11
100
AcDbLine
 10
198.0
 20
0.0
 30
0.0
 11
198.0
 21
12.0
 31
0.0
  0
ENDBLK
  5
3F
330
15E
100
AcDbEntity
  8
0
100
AcDbBlockEnd
  0
BLOCK
  5
239
330
238
100
AcDbEntity
  8
0
100
AcDbBlockBegin
  2
*U2
 70
     1
 10
0.0
 20
0.0
 30
0.0
  3
*U2
  1

  0
ENDBLK
  5
23A
330
238
100
AcDbEntity
  8
0
100
AcDbBlockEnd
  0
BLOCK
  5
337
330
336
100
AcDbEntity
  8
0
100
AcDbBlockBegin
  2
*U3
 70
     1
 10
0.0
 20
0.0
 30
0.0
  3
*U3
  1

  0
ENDBLK
  5
338
330
336
100
AcDbEntity
  8
0
100
AcDbBlockEnd
  0
BLOCK
  5
352
330
350
100
AcDbEntity
  8
0
100
AcDbBlockBegin
  2
GENAXEH
 70
     0
 10
0.0
 20
0.0
 30
0.0
  3
GENAXEH
  1

  0
LINE
  5
351
330
350
100
AcDbEntity
  8
0
100
AcDbLine
 10
-1.0
 20
0.0
 30
0.0
 11
1.0
 21
0.0
 31
0.0
  0
ENDBLK
  5
353
330
350
100
AcDbEntity
  8
0
100
AcDbBlockEnd
  0
BLOCK
  5
35D
330
354
100
AcDbEntity
  8
0
100
AcDbBlockBegin
  2
*D5
 70
     1
 10
0.0
 20
0.0
 30
0.0
  3
*D5
  1

  0
LINE
  5
355
330
354
100
AcDbEntity
  8
0
 62
     0
370
    -2
100
AcDbLine
 10
752.7947065226594
 20
407.3309267957028
 30
0.0
 11
750.7947065226582
 21
407.3309267957028
 31
0.0
  0
LINE
  5
356
330
354
100
AcDbEntity
  8
0
 62
     0
370
    -2
100
AcDbLine
 10
750.7947065226582
 20
407.3309267957028
 30
0.0
 11
735.5274893414216
 21
386.7319429608658
 31
0.0
  0
MTEXT
  5
357
330
354
100
AcDbEntity
  8
0
 62
     0
100
AcDbMText
 10
757.0513731893263
 20
407.3309267957027
 30
0.0
 40
5.0
 41
0.0
 71
     5
 72
     1
  1
\A1;R5
 73
     1
 44
1.0
  0
SOLID
  5
358
330
354
100
AcDbEntity
  8
0
 62
     0
100
AcDbTrace
 10
735.2596911177322
 20
386.9304252585653
 30
0.0
 11
735.7952875651108
 21
386.5334606631665
 31
0.0
 12
734.336595555225
 22
385.125153618731
 32
0.0
 13
734.336595555225
 23
385.125153618731
 33
0.0
  0
LINE
  5
359
330
354
100
AcDbEntity
  8
0
 62
     0
370
    -2
100
AcDbLine
 10
731.2693610897337
 20
381.1081802633937
 30
0.0
 11
731.4493610897337
 21
381.1081802633937
 31
0.0
  0
LINE
  5
35A
330
354
100
AcDbEntity
  8
0
 62
     0
370
    -2
100
AcDbLine
 10
731.3593610897337
 20
381.0181802633938
 30
0.0
 11
731.3593610897337
 21
381.1981802633937
 31
0.0
  0
POINT
  5
35B
330
354
100
AcDbEntity
  8
DEFPOINTS
 62
     0
100
AcDbPoint
 10
734.336595555225
 20
385.125153618731
 30
0.0
  0
POINT
  5
35C
330
354
100
AcDbEntity
  8
DEFPOINTS
 62
     0
100
AcDbPoint
 10
731.3593610897337
 20
381.1081802633937
 30
0.0
  0
ENDBLK
  5
35E
330
354
100
AcDbEntity
  8
0
100
AcDbBlockEnd
  0
BLOCK
  5
36A
330
35F
100
AcDbEntity
  8
0
100
AcDbBlockBegin
  2
*D6
 70
     1
 10
0.0
 20
0.0
 30
0.0
  3
*D6
  1

  0
LINE
  5
360
330
35F
100
AcDbEntity
  8
0
 62
     0
370
    -2
100
AcDbLine
 10
692.3593610897333
 20
595.1081802633938
 30
0.0
 11
623.5899633974876
 21
595.1081802633938
 31
0.0
  0
LINE
  5
361
330
35F
100
AcDbEntity
  8
0
 62
     0
370
    -2
100
AcDbLine
 10
692.3593610897333
 20
95.1081802633937
 30
0.0
 11
623.5899633974875
 21
95.10818026339372
 31
0.0
  0
LINE
  5
362
330
35F
100
AcDbEntity
  8
0
 62
     0
370
    -2
100
AcDbLine
 10
624.5899633974876
 20
593.1081802633936
 30
0.0
 11
624.5899633974876
 21
356.9492627741571
 31
0.0
  0
LINE
  5
363
330
35F
100
AcDbEntity
  8
0
 62
     0
370
    -2
100
AcDbLine
 10
624.5899633974874
 20
97.10818026339373
 30
0.0
 11
624.5899633974876
 21
340.1025961074901
 31
0.0
  0
SOLID
  5
364
330
35F
100
AcDbEntity
  8
0
 62
     0
100
AcDbTrace
 10
624.2566300641542
 20
593.1081802633936
 30
0.0
 11
624.9232967308207
 21
593.1081802633936
 31
0.0
 12
624.5899633974876
 22
595.1081802633938
 32
0.0
 13
624.5899633974876
 23
595.1081802633938
 33
0.0
  0
SOLID
  5
365
330
35F
100
AcDbEntity
  8
0
 62
     0
100
AcDbTrace
 10
624.2566300641541
 20
97.10818026339373
 30
0.0
 11
624.9232967308207
 21
97.10818026339373
 31
0.0
 12
624.5899633974874
 22
95.10818026339372
 32
0.0
 13
624.5899633974874
 23
95.10818026339372
 33
0.0
  0
MTEXT
  5
366
330
35F
100
AcDbEntity
  8
0
 62
     0
100
AcDbMText
 10
624.5899633974874
 20
348.5259294408237
 30
0.0
 40
5.0
 41
0.0
 71
     5
 72
     1
  1
\A1;%%C500
 11
0.0000000000000001
 21
1.0
 31
0.0
 73
     1
 44
1.0
  0
POINT
  5
367
330
35F
100
AcDbEntity
  8
DEFPOINTS
 62
     0
100
AcDbPoint
 10
693.3593610897332
 20
595.1081802633938
 30
0.0
  0
POINT
  5
368
330
35F
100
AcDbEntity
  8
DEFPOINTS
 62
     0
100
AcDbPoint
 10
693.3593610897332
 20
95.1081802633937
 30
0.0
  0
POINT
  5
369
330
35F
100
AcDbEntity
  8
DEFPOINTS
 62
     0
100
AcDbPoint
 10
624.5899633974874
 20
95.10818026339372
 30
0.0
  0
ENDBLK
  5
36B
330
35F
100
AcDbEntity
  8
0
100
AcDbBlockEnd
  0
BLOCK
  5
377
330
36C
100
AcDbEntity
  8
0
100
AcDbBlockBegin
  2
*D7
 70
     1
 10
0.0
 20
0.0
 30
0.0
  3
*D7
  1

  0
LINE
  5
36D
330
36C
100
AcDbEntity
  8
0
 62
     0
370
    -2
100
AcDbLine
 10
349.4545189329592
 20
570.1081802633932
 30
0.0
 11
578.867146729939
 21
570.1081802633932
 31
0.0
  0
LINE
  5
36E
330
36C
100
AcDbEntity
  8
0
 62
     0
370
    -2
100
AcDbLine
 10
555.8257837655217
 20
345.1081802633932
 30
0.0
 11
578.867146729939
 21
345.1081802633932
 31
0.0
  0
LINE
  5
36F
330
36C
100
AcDbEntity
  8
0
 62
     0
370
    -2
100
AcDbLine
 10
577.867146729939
 20
568.1081802633932
 30
0.0
 11
577.867146729939
 21
463.4365560495814
 31
0.0
  0
LINE
  5
370
330
36C
100
AcDbEntity
  8
0
 62
     0
370
    -2
100
AcDbLine
 10
577.867146729939
 20
347.1081802633932
 30
0.0
 11
577.867146729939
 21
449.923222716248
 31
0.0
  0
SOLID
  5
371
330
36C
100
AcDbEntity
  8
0
 62
     0
100
AcDbTrace
 10
577.5338133966056
 20
568.1081802633932
 30
0.0
 11
578.2004800632724
 21
568.1081802633932
 31
0.0
 12
577.867146729939
 22
570.1081802633932
 32
0.0
 13
577.867146729939
 23
570.1081802633932
 33
0.0
  0
SOLID
  5
372
330
36C
100
AcDbEntity
  8
0
 62
     0
100
AcDbTrace
 10
577.5338133966056
 20
347.1081802633932
 30
0.0
 11
578.2004800632724
 21
347.1081802633932
 31
0.0
 12
577.867146729939
 22
345.1081802633932
 32
0.0
 13
577.867146729939
 23
345.1081802633932
 33
0.0
  0
MTEXT
  5
373
330
36C
100
AcDbEntity
  8
0
 62
     0
100
AcDbMText
 10
577.8671467299387
 20
456.6798893829147
 30
0.0
 40
5.0
 41
0.0
 71
     5
 72
     1
  1
\A1;225
 11
0.0000000000000001
 21
1.0
 31
0.0
 73
     1
 44
1.0
  0
POINT
  5
374
330
36C
100
AcDbEntity
  8
DEFPOINTS
 62
     0
100
AcDbPoint
 10
348.4545189329592
 20
570.1081802633932
 30
0.0
  0
POINT
  5
375
330
36C
100
AcDbEntity
  8
DEFPOINTS
 62
     0
100
AcDbPoint
 10
554.8257837655214
 20
345.1081802633932
 30
0.0
  0
POINT
  5
376
330
36C
100
AcDbEntity
  8
DEFPOINTS
 62
     0
100
AcDbPoint
 10
577.867146729939
 20
345.1081802633932
 30
0.0
  0
ENDBLK
  5
378
330
36C
100
AcDbEntity
  8
0
100
AcDbBlockEnd
  0
BLOCK
  5
382
330
379
100
AcDbEntity
  8
0
100
AcDbBlockBegin
  2
*D8
 70
     1
 10
0.0
 20
0.0
 30
0.0
  3
*D8
  1

  0
LINE
  5
37A
330
379
100
AcDbEntity
  8
0
 62
     0
370
    -2
100
AcDbLine
 10
249.6565704196934
 20
618.3955417116901
 30
0.0
 11
251.6565704196934
 21
618.3955417116901
 31
0.0
  0
LINE
  5
37B
330
379
100
AcDbEntity
  8
0
 62
     0
370
    -2
100
AcDbLine
 10
251.6565704196934
 20
618.3955417116901
 30
0.0
 11
291.1120656376176
 21
579.2942263520567
 31
0.0
  0
MTEXT
  5
37C
330
379
100
AcDbEntity
  8
0
 62
     0
100
AcDbMText
 10
240.3999037530268
 20
618.3955417116901
 30
0.0
 40
5.0
 41
0.0
 71
     5
 72
     1
  1
\A1;\U+220522.1
 73
     1
 44
1.0
  0
SOLID
  5
37D
330
379
100
AcDbEntity
  8
0
 62
     0
100
AcDbTrace
 10
291.3467028301761
 20
579.530988889168
 30
0.0
 11
290.8774284450592
 21
579.0574638149451
 31
0.0
 12
292.5326408602856
 22
577.8864031967061
 32
0.0
 13
292.5326408602856
 23
577.8864031967061
 33
0.0
  0
LINE
  5
37E
330
379
100
AcDbEntity
  8
0
 62
     0
370
    -2
100
AcDbLine
 10
300.2913189655263
 20
570.1081802633932
 30
0.0
 11
300.4713189655264
 21
570.1081802633932
 31
0.0
  0
LINE
  5
37F
330
379
100
AcDbEntity
  8
0
 62
     0
370
    -2
100
AcDbLine
 10
300.3813189655264
 20
570.0181802633932
 30
0.0
 11
300.3813189655264
 21
570.1981802633932
 31
0.0
  0
POINT
  5
380
330
379
100
AcDbEntity
  8
DEFPOINTS
 62
     0
100
AcDbPoint
 10
292.5326408602856
 20
577.8864031967061
 30
0.0
  0
POINT
  5
381
330
379
100
AcDbEntity
  8
DEFPOINTS
 62
     0
100
AcDbPoint
 10
308.2299970707673
 20
562.3299573300803
 30
0.0
  0
ENDBLK
  5
383
330
379
100
AcDbEntity
  8
0
100
AcDbBlockEnd
  0
BLOCK
  5
38D
330
384
100
AcDbEntity
  8
0
100
AcDbBlockBegin
  2
*D9
 70
     1
 10
0.0
 20
0.0
 30
0.0
  3
*D9
  1

  0
LINE
  5
385
330
384
100
AcDbEntity
  8
0
 62
     0
370
    -2
100
AcDbLine
 10
675.635201918044
 20
581.1581802633939
 30
0.0
 11
640.2246593187332
 21
581.1581802633939
 31
0.0
  0
LINE
  5
386
330
384
100
AcDbEntity
  8
0
 62
     0
370
    -2
100
AcDbLine
 10
675.3593610897333
 20
559.0581802633937
 30
0.0
 11
640.2246593187332
 21
559.0581802633937
 31
0.0
  0
LINE
  5
387
330
384
100
AcDbEntity
  8
0
 62
     0
370
    -2
100
AcDbLine
 10
641.2246593187331
 20
579.1581802633937
 30
0.0
 11
641.2246593187331
 21
561.0581802633937
 31
0.0
  0
SOLID
  5
388
330
384
100
AcDbEntity
  8
0
 62
     0
100
AcDbTrace
 10
640.8913259853997
 20
579.1581802633937
 30
0.0
 11
641.5579926520663
 21
579.1581802633937
 31
0.0
 12
641.2246593187331
 22
581.1581802633939
 32
0.0
 13
641.2246593187331
 23
581.1581802633939
 33
0.0
  0
SOLID
  5
389
330
384
100
AcDbEntity
  8
0
 62
     0
100
AcDbTrace
 10
640.8913259853997
 20
561.0581802633937
 30
0.0
 11
641.5579926520663
 21
561.0581802633937
 31
0.0
 12
641.2246593187331
 22
559.0581802633937
 32
0.0
 13
641.2246593187331
 23
559.0581802633937
 33
0.0
  0
POINT
  5
38A
330
384
100
AcDbEntity
  8
DEFPOINTS
 62
     0
100
AcDbPoint
 10
676.6352019180438
 20
581.1581802633939
 30
0.0
  0
POINT
  5
38B
330
384
100
AcDbEntity
  8
DEFPOINTS
 62
     0
100
AcDbPoint
 10
676.3593610897332
 20
559.0581802633937
 30
0.0
  0
POINT
  5
38C
330
384
100
AcDbEntity
  8
DEFPOINTS
 62
     0
100
AcDbPoint
 10
641.2246593187331
 20
559.0581802633937
 30
0.0
  0
ENDBLK
  5
38E
330
384
100
AcDbEntity
  8
0
100
AcDbBlockEnd
  0
BLOCK
  5
39A
330
38F
100
AcDbEntity
  8
0
100
AcDbBlockBegin
  2
*D10
 70
     1
 10
0.0
 20
0.0
 30
0.0
  3
*D10
  1

  0
LINE
  5
390
330
38F
100
AcDbEntity
  8
0
 62
     0
370
    -2
100
AcDbLine
 10
676.3593610897332
 20
579.1081802633938
 30
0.0
 11
676.3593610897332
 21
603.1779705322048
 31
0.0
  0
LINE
  5
391
330
38F
100
AcDbEntity
  8
0
 62
     0
370
    -2
100
AcDbLine
 10
678.3593610897333
 20
582.1581802633938
 30
0.0
 11
678.3593610897333
 21
603.1779705322048
 31
0.0
  0
LINE
  5
392
330
38F
100
AcDbEntity
  8
0
 62
     0
370
    -2
100
AcDbLine
 10
674.3593610897333
 20
602.1779705322049
 30
0.0
 11
672.3593610897332
 21
602.1779705322049
 31
0.0
  0
LINE
  5
393
330
38F
100
AcDbEntity
  8
0
 62
     0
370
    -2
100
AcDbLine
 10
680.3593610897332
 20
602.1779705322049
 30
0.0
 11
682.3593610897333
 21
602.1779705322049
 31
0.0
  0
SOLID
  5
394
330
38F
100
AcDbEntity
  8
0
 62
     0
100
AcDbTrace
 10
674.3593610897333
 20
602.5113038655383
 30
0.0
 11
674.3593610897333
 21
601.8446371988715
 31
0.0
 12
676.3593610897332
 22
602.1779705322049
 32
0.0
 13
676.3593610897332
 23
602.1779705322049
 33
0.0
  0
SOLID
  5
395
330
38F
100
AcDbEntity
  8
0
 62
     0
100
AcDbTrace
 10
680.3593610897332
 20
602.5113038655383
 30
0.0
 11
680.3593610897332
 21
601.8446371988715
 31
0.0
 12
678.3593610897333
 22
602.1779705322049
 32
0.0
 13
678.3593610897333
 23
602.1779705322049
 33
0.0
  0
MTEXT
  5
396
330
38F
100
AcDbEntity
  8
0
 62
     0
100
AcDbMText
 10
684.1160277563997
 20
602.1779705322049
 30
0.0
 40
5.0
 41
0.0
 71
     5
 72
     1
  1
\A1;2
 73
     1
 44
1.0
  0
POINT
  5
397
330
38F
100
AcDbEntity
  8
DEFPOINTS
 62
     0
100
AcDbPoint
 10
676.3593610897332
 20
578.1081802633938
 30
0.0
  0
POINT
  5
398
330
38F
100
AcDbEntity
  8
DEFPOINTS
 62
     0
100
AcDbPoint
 10
678.3593610897333
 20
581.1581802633937
 30
0.0
  0
POINT
  5
399
330
38F
100
AcDbEntity
  8
DEFPOINTS
 62
     0
100
AcDbPoint
 10
678.3593610897333
 20
602.1779705322049
 30
0.0
  0
ENDBLK
  5
39B
330
38F
100
AcDbEntity
  8
0
100
AcDbBlockEnd
  0
BLOCK
  5
3A7
330
39C
100
AcDbEntity
  8
0
100
AcDbBlockBegin
  2
*D11
 70
     1
 10
0.0
 20
0.0
 30
0.0
  3
*D11
  1

  0
LINE
  5
39D
330
39C
100
AcDbEntity
  8
0
 62
     0
370
    -2
100
AcDbLine
 10
676.3593610897332
 20
579.1081802633938
 30
0.0
 11
676.3593610897332
 21
615.2984610737791
 31
0.0
  0
LINE
  5
39E
330
39C
100
AcDbEntity
  8
0
 62
     0
370
    -2
100
AcDbLine
 10
710.3593610897332
 20
578.1081802633938
 30
0.0
 11
710.3593610897332
 21
615.2984610737791
 31
0.0
  0
LINE
  5
39F
330
39C
100
AcDbEntity
  8
0
 62
     0
370
    -2
100
AcDbLine
 10
678.3593610897333
 20
614.2984610737792
 30
0.0
 11
690.5722272110049
 21
614.2984610737792
 31
0.0
  0
LINE
  5
3A0
330
39C
100
AcDbEntity
  8
0
 62
     0
370
    -2
100
AcDbLine
 10
708.3593610897333
 20
614.2984610737792
 30
0.0
 11
699.0855605443382
 21
614.2984610737792
 31
0.0
  0
SOLID
  5
3A1
330
39C
100
AcDbEntity
  8
0
 62
     0
100
AcDbTrace
 10
678.3593610897333
 20
614.6317944071126
 30
0.0
 11
678.3593610897333
 21
613.965127740446
 31
0.0
 12
676.3593610897332
 22
614.2984610737792
 32
0.0
 13
676.3593610897332
 23
614.2984610737792
 33
0.0
  0
SOLID
  5
3A2
330
39C
100
AcDbEntity
  8
0
 62
     0
100
AcDbTrace
 10
708.3593610897333
 20
614.6317944071126
 30
0.0
 11
708.3593610897333
 21
613.965127740446
 31
0.0
 12
710.3593610897332
 22
614.2984610737792
 32
0.0
 13
710.3593610897332
 23
614.2984610737792
 33
0.0
  0
MTEXT
  5
3A3
330
39C
100
AcDbEntity
  8
0
 62
     0
100
AcDbMText
 10
694.8288938776713
 20
614.2984610737792
 30
0.0
 40
5.0
 41
0.0
 71
     5
 72
     1
  1
\A1;36
 73
     1
 44
1.0
  0
POINT
  5
3A4
330
39C
100
AcDbEntity
  8
DEFPOINTS
 62
     0
100
AcDbPoint
 10
676.3593610897332
 20
578.1081802633938
 30
0.0
  0
POINT
  5
3A5
330
39C
100
AcDbEntity
  8
DEFPOINTS
 62
     0
100
AcDbPoint
 10
710.3593610897332
 20
577.1081802633934
 30
0.0
  0
POINT
  5
3A6
330
39C
100
AcDbEntity
  8
DEFPOINTS
 62
     0
100
AcDbPoint
 10
710.3593610897332
 20
614.2984610737792
 30
0.0
  0
ENDBLK
  5
3A8
330
39C
100
AcDbEntity
  8
0
100
AcDbBlockEnd
  0
BLOCK
  5
3B4
330
3A9
100
AcDbEntity
  8
0
100
AcDbBlockBegin
  2
*D12
 70
     1
 10
0.0
 20
0.0
 30
0.0
  3
*D12
  1

  0
LINE
  5
3AA
330
3A9
100
AcDbEntity
  8
0
 62
     0
370
    -2
100
AcDbLine
 10
736.3593610897332
 20
380.1081802633937
 30
0.0
 11
736.3593610897332
 21
365.001491660231
 31
0.0
  0
LINE
  5
3AB
330
3A9
100
AcDbEntity
  8
0
 62
     0
370
    -2
100
AcDbLine
 10
676.3593610897332
 20
388.1081802633937
 30
0.0
 11
676.3593610897332
 21
365.001491660231
 31
0.0
  0
LINE
  5
3AC
330
3A9
100
AcDbEntity
  8
0
 62
     0
370
    -2
100
AcDbLine
 10
734.3593610897332
 20
366.0014916602313
 30
0.0
 11
722.9697520851939
 21
366.0014916602313
 31
0.0
  0
LINE
  5
3AD
330
3A9
100
AcDbEntity
  8
0
 62
     0
370
    -2
100
AcDbLine
 10
678.3593610897333
 20
366.0014916602313
 30
0.0
 11
714.4564187518605
 21
366.0014916602313
 31
0.0
  0
SOLID
  5
3AE
330
3A9
100
AcDbEntity
  8
0
 62
     0
100
AcDbTrace
 10
734.3593610897332
 20
366.3348249935646
 30
0.0
 11
734.3593610897332
 21
365.668158326898
 31
0.0
 12
736.3593610897332
 22
366.0014916602313
 32
0.0
 13
736.3593610897332
 23
366.0014916602313
 33
0.0
  0
SOLID
  5
3AF
330
3A9
100
AcDbEntity
  8
0
 62
     0
100
AcDbTrace
 10
678.3593610897333
 20
366.3348249935646
 30
0.0
 11
678.3593610897333
 21
365.668158326898
 31
0.0
 12
676.3593610897332
 22
366.0014916602313
 32
0.0
 13
676.3593610897332
 23
366.0014916602313
 33
0.0
  0
MTEXT
  5
3B0
330
3A9
100
AcDbEntity
  8
0
 62
     0
100
AcDbMText
 10
718.7130854185272
 20
366.0014916602313
 30
0.0
 40
5.0
 41
0.0
 71
     5
 72
     1
  1
\A1;53
 73
     1
 44
1.0
  0
POINT
  5
3B1
330
3A9
100
AcDbEntity
  8
DEFPOINTS
 62
     0
100
AcDbPoint
 10
736.3593610897332
 20
381.1081802633937
 30
0.0
  0
POINT
  5
3B2
330
3A9
100
AcDbEntity
  8
DEFPOINTS
 62
     0
100
AcDbPoint
 10
676.3593610897332
 20
389.1081802633937
 30
0.0
  0
POINT
  5
3B3
330
3A9
100
AcDbEntity
  8
DEFPOINTS
 62
     0
100
AcDbPoint
 10
676.3593610897332
 20
366.0014916602313
 30
0.0
  0
ENDBLK
  5
3B5
330
3A9
100
AcDbEntity
  8
0
100
AcDbBlockEnd
  0
BLOCK
  5
3C1
330
3B6
100
AcDbEntity
  8
0
100
AcDbBlockBegin
  2
*D13
 70
     1
 10
0.0
 20
0.0
 30
0.0
  3
*D13
  1

  0
LINE
  5
3B7
330
3B6
100
AcDbEntity
  8
0
 62
     0
370
    -2
100
AcDbLine
 10
732.3593610897333
 20
386.1081802633936
 30
0.0
 11
768.9145184425052
 21
386.1081802633936
 31
0.0
  0
LINE
  5
3B8
330
3B6
100
AcDbEntity
  8
0
 62
     0
370
    -2
100
AcDbLine
 10
732.3593610897333
 20
304.1081802633936
 30
0.0
 11
768.9145184425052
 21
304.1081802633936
 31
0.0
  0
LINE
  5
3B9
330
3B6
100
AcDbEntity
  8
0
 62
     0
370
    -2
100
AcDbLine
 10
767.9145184425054
 20
384.1081802633937
 30
0.0
 11
767.9145184425054
 21
350.6808987484013
 31
0.0
  0
LINE
  5
3BA
330
3B6
100
AcDbEntity
  8
0
 62
     0
370
    -2
100
AcDbLine
 10
767.9145184425054
 20
306.1081802633936
 30
0.0
 11
767.9145184425054
 21
342.1675654150678
 31
0.0
  0
SOLID
  5
3BB
330
3B6
100
AcDbEntity
  8
0
 62
     0
100
AcDbTrace
 10
767.5811851091721
 20
384.1081802633937
 30
0.0
 11
768.2478517758387
 21
384.1081802633937
 31
0.0
 12
767.9145184425054
 22
386.1081802633936
 32
0.0
 13
767.9145184425054
 23
386.1081802633936
 33
0.0
  0
SOLID
  5
3BC
330
3B6
100
AcDbEntity
  8
0
 62
     0
100
AcDbTrace
 10
767.5811851091721
 20
306.1081802633936
 30
0.0
 11
768.2478517758387
 21
306.1081802633936
 31
0.0
 12
767.9145184425054
 22
304.1081802633936
 32
0.0
 13
767.9145184425054
 23
304.1081802633936
 33
0.0
  0
MTEXT
  5
3BD
330
3B6
100
AcDbEntity
  8
0
 62
     0
100
AcDbMText
 10
767.9145184425054
 20
346.4242320817347
 30
0.0
 40
5.0
 41
0.0
 71
     5
 72
     1
  1
\A1;78
 11
0.0000000000000001
 21
1.0
 31
0.0
 73
     1
 44
1.0
  0
POINT
  5
3BE
330
3B6
100
AcDbEntity
  8
DEFPOINTS
 62
     0
100
AcDbPoint
 10
731.3593610897332
 20
386.1081802633936
 30
0.0
  0
POINT
  5
3BF
330
3B6
100
AcDbEntity
  8
DEFPOINTS
 62
     0
100
AcDbPoint
 10
731.3593610897332
 20
304.1081802633936
 30
0.0
  0
POINT
  5
3C0
330
3B6
100
AcDbEntity
  8
DEFPOINTS
 62
     0
100
AcDbPoint
 10
767.9145184425054
 20
304.1081802633936
 30
0.0
  0
ENDBLK
  5
3C2
330
3B6
100
AcDbEntity
  8
0
100
AcDbBlockEnd
  0
BLOCK
  5
3CE
330
3C3
100
AcDbEntity
  8
0
100
AcDbBlockBegin
  2
*D14
 70
     1
 10
0.0
 20
0.0
 30
0.0
  3
*D14
  1

  0
LINE
  5
3C4
330
3C3
100
AcDbEntity
  8
0
 62
     0
370
    -2
100
AcDbLine
 10
736.3593610897332
 20
382.1081802633937
 30
0.0
 11
736.3593610897332
 21
432.4181930406921
 31
0.0
  0
LINE
  5
3C5
330
3C3
100
AcDbEntity
  8
0
 62
     0
370
    -2
100
AcDbLine
 10
715.3593610897332
 20
387.6646198141059
 30
0.0
 11
715.3593610897332
 21
432.4181930406921
 31
0.0
  0
LINE
  5
3C6
330
3C3
100
AcDbEntity
  8
0
 62
     0
370
    -2
100
AcDbLine
 10
734.3593610897332
 20
431.4181930406921
 30
0.0
 11
728.3463079141714
 21
431.4181930406921
 31
0.0
  0
LINE
  5
3C7
330
3C3
100
AcDbEntity
  8
0
 62
     0
370
    -2
100
AcDbLine
 10
717.3593610897333
 20
431.4181930406921
 30
0.0
 11
721.4996412475048
 21
431.4181930406921
 31
0.0
  0
SOLID
  5
3C8
330
3C3
100
AcDbEntity
  8
0
 62
     0
100
AcDbTrace
 10
734.3593610897332
 20
431.7515263740253
 30
0.0
 11
734.3593610897332
 21
431.0848597073587
 31
0.0
 12
736.3593610897332
 22
431.4181930406921
 32
0.0
 13
736.3593610897332
 23
431.4181930406921
 33
0.0
  0
SOLID
  5
3C9
330
3C3
100
AcDbEntity
  8
0
 62
     0
100
AcDbTrace
 10
717.3593610897333
 20
431.7515263740253
 30
0.0
 11
717.3593610897333
 21
431.0848597073587
 31
0.0
 12
715.3593610897332
 22
431.4181930406921
 32
0.0
 13
715.3593610897332
 23
431.4181930406921
 33
0.0
  0
MTEXT
  5
3CA
330
3C3
100
AcDbEntity
  8
0
 62
     0
100
AcDbMText
 10
724.9229745808381
 20
431.4181930406921
 30
0.0
 40
5.0
 41
0.0
 71
     5
 72
     1
  1
\A1;21
 73
     1
 44
1.0
  0
POINT
  5
3CB
330
3C3
100
AcDbEntity
  8
DEFPOINTS
 62
     0
100
AcDbPoint
 10
736.3593610897332
 20
381.1081802633937
 30
0.0
  0
POINT
  5
3CC
330
3C3
100
AcDbEntity
  8
DEFPOINTS
 62
     0
100
AcDbPoint
 10
715.3593610897332
 20
386.6646198141058
 30
0.0
  0
POINT
  5
3CD
330
3C3
100
AcDbEntity
  8
DEFPOINTS
 62
     0
100
AcDbPoint
 10
715.3593610897332
 20
431.4181930406921
 30
0.0
  0
ENDBLK
  5
3CF
330
3C3
100
AcDbEntity
  8
0
100
AcDbBlockEnd
  0
BLOCK
  5
50A
330
4FF
100
AcDbEntity
  8
0
100
AcDbBlockBegin
  2
*D15
 70
     1
 10
0.0
 20
0.0
 30
0.0
  3
*D15
  1

  0
LINE
  5
581
330
4FF
100
AcDbEntity
  8
0
 62
     0
370
    -2
100
AcDbLine
 10
455.0282146721742
 20
675.6210202141772
 30
0.0
 11
684.4408424691539
 21
675.6210202141772
 31
0.0
  0
LINE
  5
582
330
4FF
100
AcDbEntity
  8
0
 62
     0
370
    -2
100
AcDbLine
 10
661.3994795047367
 20
450.6210202141772
 30
0.0
 11
684.4408424691539
 21
450.6210202141772
 31
0.0
  0
LINE
  5
583
330
4FF
100
AcDbEntity
  8
0
 62
     0
370
    -2
100
AcDbLine
 10
683.4408424691539
 20
673.6210202141773
 30
0.0
 11
683.4408424691539
 21
642.2827293336987
 31
0.0
  0
LINE
  5
584
330
4FF
100
AcDbEntity
  8
0
 62
     0
370
    -2
100
AcDbLine
 10
683.4408424691539
 20
452.6210202141773
 30
0.0
 11
683.4408424691539
 21
482.1027293336986
 31
0.0
  0
SOLID
  5
585
330
4FF
100
AcDbEntity
  8
0
 62
     0
100
AcDbTrace
 10
683.1075091358203
 20
673.6210202141773
 30
0.0
 11
683.7741758024872
 21
673.6210202141773
 31
0.0
 12
683.4408424691539
 22
675.6210202141772
 32
0.0
 13
683.4408424691539
 23
675.6210202141772
 33
0.0
  0
SOLID
  5
586
330
4FF
100
AcDbEntity
  8
0
 62
     0
100
AcDbTrace
 10
683.1075091358203
 20
452.6210202141773
 30
0.0
 11
683.7741758024872
 21
452.6210202141773
 31
0.0
 12
683.4408424691539
 22
450.6210202141772
 32
0.0
 13
683.4408424691539
 23
450.6210202141772
 33
0.0
  0
MTEXT
  5
587
330
4FF
100
AcDbEntity
  8
0
 62
     0
100
AcDbMText
 10
683.4408424691537
 20
562.1927293336987
 30
0.0
 40
60.0
 41
0.0
 71
     5
 72
     1
  1
\A1;225
  7
BIGFONT
 11
0.0000000000000001
 21
1.0
 31
0.0
 73
     1
 44
1.0
  0
POINT
  5
588
330
4FF
100
AcDbEntity
  8
DEFPOINTS
 62
     0
100
AcDbPoint
 10
454.0282146721742
 20
675.6210202141772
 30
0.0
  0
POINT
  5
589
330
4FF
100
AcDbEntity
  8
DEFPOINTS
 62
     0
100
AcDbPoint
 10
660.3994795047367
 20
450.6210202141772
 30
0.0
  0
POINT
  5
58A
330
4FF
100
AcDbEntity
  8
DEFPOINTS
 62
     0
100
AcDbPoint
 10
683.4408424691539
 20
450.6210202141772
 30
0.0
  0
ENDBLK
  5
50B
330
4FF
100
AcDbEntity
  8
0
100
AcDbBlockEnd
  0
BLOCK
  5
515
330
50C
100
AcDbEntity
  8
0
100
AcDbBlockBegin
  2
*D16
 70
     1
 10
0.0
 20
0.0
 30
0.0
  3
*D16
  1

  0
LINE
  5
593
330
50C
100
AcDbEntity
  8
0
 62
     0
370
    -2
100
AcDbLine
 10
355.2302661589083
 20
723.9083816624741
 30
0.0
 11
357.2302661589088
 21
723.9083816624741
 31
0.0
  0
LINE
  5
594
330
50C
100
AcDbEntity
  8
0
 62
     0
370
    -2
100
AcDbLine
 10
357.2302661589088
 20
723.9083816624741
 30
0.0
 11
396.6857613768326
 21
684.8070663028408
 31
0.0
  0
MTEXT
  5
595
330
50C
100
AcDbEntity
  8
0
 62
     0
100
AcDbMText
 10
245.1402661589084
 20
723.9083816624741
 30
0.0
 40
60.0
 41
0.0
 71
     5
 72
     1
  1
\A1;\U+220522.1
  7
BIGFONT
 73
     1
 44
1.0
  0
SOLID
  5
596
330
50C
100
AcDbEntity
  8
0
 62
     0
100
AcDbTrace
 10
396.920398569391
 20
685.0438288399522
 30
0.0
 11
396.4511241842741
 21
684.5703037657296
 31
0.0
 12
398.1063365995006
 22
683.3992431474902
 32
0.0
 13
398.1063365995006
 23
683.3992431474902
 33
0.0
  0
LINE
  5
597
330
50C
100
AcDbEntity
  8
0
 62
     0
370
    -2
100
AcDbLine
 10
405.8650147047415
 20
675.6210202141772
 30
0.0
 11
406.0450147047412
 21
675.6210202141772
 31
0.0
  0
LINE
  5
598
330
50C
100
AcDbEntity
  8
0
 62
     0
370
    -2
100
AcDbLine
 10
405.9550147047414
 20
675.5310202141772
 30
0.0
 11
405.9550147047414
 21
675.7110202141772
 31
0.0
  0
POINT
  5
599
330
50C
100
AcDbEntity
  8
DEFPOINTS
 62
     0
100
AcDbPoint
 10
398.1063365995006
 20
683.3992431474902
 30
0.0
  0
POINT
  5
59A
330
50C
100
AcDbEntity
  8
DEFPOINTS
 62
     0
100
AcDbPoint
 10
413.8036928099821
 20
667.8427972808642
 30
0.0
  0
ENDBLK
  5
516
330
50C
100
AcDbEntity
  8
0
100
AcDbBlockEnd
  0
BLOCK
  5
521
330
517
100
AcDbEntity
  8
0
100
AcDbBlockBegin
  2
*D17
 70
     1
 10
0.0
 20
0.0
 30
0.0
  3
*D17
  1

  0
LINE
  5
5A4
330
517
100
AcDbEntity
  8
0
 62
     0
370
    -2
100
AcDbLine
 10
837.9330568289482
 20
491.6210202141776
 30
0.0
 11
874.4882141817203
 21
491.6210202141776
 31
0.0
  0
LINE
  5
5A5
330
517
100
AcDbEntity
  8
0
 62
     0
370
    -2
100
AcDbLine
 10
837.9330568289482
 20
409.6210202141777
 30
0.0
 11
874.4882141817203
 21
409.6210202141777
 31
0.0
  0
LINE
  5
5A6
330
517
100
AcDbEntity
  8
0
 62
     0
370
    -2
100
AcDbLine
 10
873.4882141817204
 20
489.6210202141777
 30
0.0
 11
873.4882141817204
 21
411.6210202141776
 31
0.0
  0
SOLID
  5
5A7
330
517
100
AcDbEntity
  8
0
 62
     0
100
AcDbTrace
 10
873.154880848387
 20
489.6210202141777
 30
0.0
 11
873.8215475150537
 21
489.6210202141777
 31
0.0
 12
873.4882141817204
 22
491.6210202141776
 32
0.0
 13
873.4882141817204
 23
491.6210202141776
 33
0.0
  0
SOLID
  5
5A8
330
517
100
AcDbEntity
  8
0
 62
     0
100
AcDbTrace
 10
873.154880848387
 20
411.6210202141776
 30
0.0
 11
873.8215475150537
 21
411.6210202141776
 31
0.0
 12
873.4882141817204
 22
409.6210202141777
 32
0.0
 13
873.4882141817204
 23
409.6210202141777
 33
0.0
  0
MTEXT
  5
5A9
330
517
100
AcDbEntity
  8
0
 62
     0
100
AcDbMText
 10
873.4882141817204
 20
450.6210202141779
 30
0.0
 40
60.0
 41
0.0
 71
     5
 72
     1
  1
\A1;78
  7
BIGFONT
 11
0.0000000000000001
 21
1.0
 31
0.0
 73
     1
 44
1.0
  0
POINT
  5
5AA
330
517
100
AcDbEntity
  8
DEFPOINTS
 62
     0
100
AcDbPoint
 10
836.9330568289482
 20
491.6210202141776
 30
0.0
  0
POINT
  5
5AB
330
517
100
AcDbEntity
  8
DEFPOINTS
 62
     0
100
AcDbPoint
 10
836.9330568289482
 20
409.6210202141777
 30
0.0
  0
POINT
  5
5AC
330
517
100
AcDbEntity
  8
DEFPOINTS
 62
     0
100
AcDbPoint
 10
873.4882141817204
 20
409.6210202141777
 30
0.0
  0
ENDBLK
  5
522
330
517
100
AcDbEntity
  8
0
100
AcDbBlockEnd
  0
BLOCK
  5
52E
330
523
100
AcDbEntity
  8
0
100
AcDbBlockBegin
  2
*D18
 70
     1
 10
0.0
 20
0.0
 30
0.0
  3
*D18
  1

  0
LINE
  5
5B7
330
523
100
AcDbEntity
  8
0
 62
     0
370
    -2
100
AcDbLine
 10
797.9330568289482
 20
700.6210202141777
 30
0.0
 11
729.1636591367026
 21
700.6210202141779
 31
0.0
  0
LINE
  5
5B8
330
523
100
AcDbEntity
  8
0
 62
     0
370
    -2
100
AcDbLine
 10
797.9330568289482
 20
200.6210202141775
 30
0.0
 11
729.1636591367024
 21
200.6210202141775
 31
0.0
  0
LINE
  5
5B9
330
523
100
AcDbEntity
  8
0
 62
     0
370
    -2
100
AcDbLine
 10
730.1636591367025
 20
698.6210202141777
 30
0.0
 11
730.1636591367025
 21
554.1287693916078
 31
0.0
  0
LINE
  5
5BA
330
523
100
AcDbEntity
  8
0
 62
     0
370
    -2
100
AcDbLine
 10
730.1636591367024
 20
202.6210202141775
 30
0.0
 11
730.1636591367025
 21
353.9487693916075
 31
0.0
  0
SOLID
  5
5BB
330
523
100
AcDbEntity
  8
0
 62
     0
100
AcDbTrace
 10
729.8303258033691
 20
698.6210202141777
 30
0.0
 11
730.4969924700356
 21
698.6210202141777
 31
0.0
 12
730.1636591367025
 22
700.6210202141779
 32
0.0
 13
730.1636591367025
 23
700.6210202141779
 33
0.0
  0
SOLID
  5
5BC
330
523
100
AcDbEntity
  8
0
 62
     0
100
AcDbTrace
 10
729.8303258033691
 20
202.6210202141775
 30
0.0
 11
730.4969924700356
 21
202.6210202141775
 31
0.0
 12
730.1636591367024
 22
200.6210202141775
 32
0.0
 13
730.1636591367024
 23
200.6210202141775
 33
0.0
  0
MTEXT
  5
5BD
330
523
100
AcDbEntity
  8
0
 62
     0
100
AcDbMText
 10
730.1636591367024
 20
454.0387693916078
 30
0.0
 40
60.0
 41
0.0
 71
     5
 72
     1
  1
\A1;%%C500
  7
BIGFONT
 11
0.0000000000000001
 21
1.0
 31
0.0
 73
     1
 44
1.0
  0
POINT
  5
5BE
330
523
100
AcDbEntity
  8
DEFPOINTS
 62
     0
100
AcDbPoint
 10
798.9330568289482
 20
700.6210202141777
 30
0.0
  0
POINT
  5
5BF
330
523
100
AcDbEntity
  8
DEFPOINTS
 62
     0
100
AcDbPoint
 10
798.9330568289482
 20
200.6210202141775
 30
0.0
  0
POINT
  5
5C0
330
523
100
AcDbEntity
  8
DEFPOINTS
 62
     0
100
AcDbPoint
 10
730.1636591367024
 20
200.6210202141775
 30
0.0
  0
ENDBLK
  5
52F
330
523
100
AcDbEntity
  8
0
100
AcDbBlockEnd
  0
BLOCK
  5
53A
330
530
100
AcDbEntity
  8
0
100
AcDbBlockBegin
  2
*D19
 70
     1
 10
0.0
 20
0.0
 30
0.0
  3
*D19
  1

  0
LINE
  5
5CA
330
530
100
AcDbEntity
  8
0
 62
     0
370
    -2
100
AcDbLine
 10
841.9330568289481
 20
485.6210202141777
 30
0.0
 11
841.9330568289481
 21
470.5143316110153
 31
0.0
  0
LINE
  5
5CB
330
530
100
AcDbEntity
  8
0
 62
     0
370
    -2
100
AcDbLine
 10
781.9330568289482
 20
493.6210202141777
 30
0.0
 11
781.9330568289482
 21
470.5143316110153
 31
0.0
  0
LINE
  5
5CC
330
530
100
AcDbEntity
  8
0
 62
     0
370
    -2
100
AcDbLine
 10
839.9330568289482
 20
471.5143316110153
 30
0.0
 11
783.9330568289482
 21
471.5143316110153
 31
0.0
  0
SOLID
  5
5CD
330
530
100
AcDbEntity
  8
0
 62
     0
100
AcDbTrace
 10
839.9330568289482
 20
471.8476649443486
 30
0.0
 11
839.9330568289482
 21
471.180998277682
 31
0.0
 12
841.9330568289481
 22
471.5143316110153
 32
0.0
 13
841.9330568289481
 23
471.5143316110153
 33
0.0
  0
SOLID
  5
5CE
330
530
100
AcDbEntity
  8
0
 62
     0
100
AcDbTrace
 10
783.9330568289482
 20
471.8476649443486
 30
0.0
 11
783.9330568289482
 21
471.180998277682
 31
0.0
 12
781.9330568289482
 22
471.5143316110153
 32
0.0
 13
781.9330568289482
 23
471.5143316110153
 33
0.0
  0
MTEXT
  5
5CF
330
530
100
AcDbEntity
  8
0
 62
     0
100
AcDbMText
 10
811.9330568289482
 20
471.5143316110153
 30
0.0
 40
60.0
 41
0.0
 71
     5
 72
     1
  1
\A1;53
  7
BIGFONT
 73
     1
 44
1.0
  0
POINT
  5
5D0
330
530
100
AcDbEntity
  8
DEFPOINTS
 62
     0
100
AcDbPoint
 10
841.9330568289481
 20
486.6210202141776
 30
0.0
  0
POINT
  5
5D1
330
530
100
AcDbEntity
  8
DEFPOINTS
 62
     0
100
AcDbPoint
 10
781.9330568289482
 20
494.6210202141776
 30
0.0
  0
POINT
  5
5D2
330
530
100
AcDbEntity
  8
DEFPOINTS
 62
     0
100
AcDbPoint
 10
781.9330568289482
 20
471.5143316110153
 30
0.0
  0
ENDBLK
  5
53B
330
530
100
AcDbEntity
  8
0
100
AcDbBlockEnd
  0
BLOCK
  5
546
330
53C
100
AcDbEntity
  8
0
100
AcDbBlockBegin
  2
*D20
 70
     1
 10
0.0
 20
0.0
 30
0.0
  3
*D20
  1

  0
LINE
  5
5DC
330
53C
100
AcDbEntity
  8
0
 62
     0
370
    -2
100
AcDbLine
 10
781.9330568289482
 20
684.6210202141777
 30
0.0
 11
781.9330568289482
 21
720.8113010245634
 31
0.0
  0
LINE
  5
5DD
330
53C
100
AcDbEntity
  8
0
 62
     0
370
    -2
100
AcDbLine
 10
815.9330568289481
 20
683.6210202141777
 30
0.0
 11
815.9330568289481
 21
720.8113010245634
 31
0.0
  0
LINE
  5
5DE
330
53C
100
AcDbEntity
  8
0
 62
     0
370
    -2
100
AcDbLine
 10
783.9330568289482
 20
719.8113010245634
 30
0.0
 11
813.9330568289482
 21
719.8113010245634
 31
0.0
  0
SOLID
  5
5DF
330
53C
100
AcDbEntity
  8
0
 62
     0
100
AcDbTrace
 10
783.9330568289482
 20
720.1446343578967
 30
0.0
 11
783.9330568289482
 21
719.47796769123
 31
0.0
 12
781.9330568289482
 22
719.8113010245634
 32
0.0
 13
781.9330568289482
 23
719.8113010245634
 33
0.0
  0
SOLID
  5
5E0
330
53C
100
AcDbEntity
  8
0
 62
     0
100
AcDbTrace
 10
813.9330568289482
 20
720.1446343578967
 30
0.0
 11
813.9330568289482
 21
719.47796769123
 31
0.0
 12
815.9330568289481
 22
719.8113010245634
 32
0.0
 13
815.9330568289481
 23
719.8113010245634
 33
0.0
  0
MTEXT
  5
5E1
330
53C
100
AcDbEntity
  8
0
 62
     0
100
AcDbMText
 10
798.9330568289482
 20
719.8113010245634
 30
0.0
 40
60.0
 41
0.0
 71
     5
 72
     1
  1
\A1;36
  7
BIGFONT
 73
     1
 44
1.0
  0
POINT
  5
5E2
330
53C
100
AcDbEntity
  8
DEFPOINTS
 62
     0
100
AcDbPoint
 10
781.9330568289482
 20
683.6210202141777
 30
0.0
  0
POINT
  5
5E3
330
53C
100
AcDbEntity
  8
DEFPOINTS
 62
     0
100
AcDbPoint
 10
815.9330568289481
 20
682.6210202141777
 30
0.0
  0
POINT
  5
5E4
330
53C
100
AcDbEntity
  8
DEFPOINTS
 62
     0
100
AcDbPoint
 10
815.9330568289481
 20
719.8113010245634
 30
0.0
  0
ENDBLK
  5
547
330
53C
100
AcDbEntity
  8
0
100
AcDbBlockEnd
  0
BLOCK
  5
553
330
548
100
AcDbEntity
  8
0
100
AcDbBlockBegin
  2
*D21
 70
     1
 10
0.0
 20
0.0
 30
0.0
  3
*D21
  1

  0
LINE
  5
5EF
330
548
100
AcDbEntity
  8
0
 62
     0
370
    -2
100
AcDbLine
 10
781.9330568289482
 20
684.6210202141777
 30
0.0
 11
781.9330568289482
 21
708.6908104829887
 31
0.0
  0
LINE
  5
5F0
330
548
100
AcDbEntity
  8
0
 62
     0
370
    -2
100
AcDbLine
 10
783.9330568289482
 20
687.6710202141777
 30
0.0
 11
783.9330568289482
 21
708.6908104829887
 31
0.0
  0
LINE
  5
5F1
330
548
100
AcDbEntity
  8
0
 62
     0
370
    -2
100
AcDbLine
 10
779.9330568289482
 20
707.6908104829889
 30
0.0
 11
777.9330568289481
 21
707.6908104829889
 31
0.0
  0
LINE
  5
5F2
330
548
100
AcDbEntity
  8
0
 62
     0
370
    -2
100
AcDbLine
 10
785.9330568289482
 20
707.6908104829889
 30
0.0
 11
787.9330568289482
 21
707.6908104829889
 31
0.0
  0
SOLID
  5
5F3
330
548
100
AcDbEntity
  8
0
 62
     0
100
AcDbTrace
 10
779.9330568289482
 20
708.0241438163222
 30
0.0
 11
779.9330568289482
 21
707.3574771496553
 31
0.0
 12
781.9330568289482
 22
707.6908104829889
 32
0.0
 13
781.9330568289482
 23
707.6908104829889
 33
0.0
  0
SOLID
  5
5F4
330
548
100
AcDbEntity
  8
0
 62
     0
100
AcDbTrace
 10
785.9330568289482
 20
708.0241438163222
 30
0.0
 11
785.9330568289482
 21
707.3574771496553
 31
0.0
 12
783.9330568289482
 22
707.6908104829889
 32
0.0
 13
783.9330568289482
 23
707.6908104829889
 33
0.0
  0
MTEXT
  5
5F5
330
548
100
AcDbEntity
  8
0
 62
     0
100
AcDbMText
 10
808.0230568289483
 20
707.6908104829889
 30
0.0
 40
60.0
 41
0.0
 71
     5
 72
     1
  1
\A1;2
  7
BIGFONT
 73
     1
 44
1.0
  0
POINT
  5
5F6
330
548
100
AcDbEntity
  8
DEFPOINTS
 62
     0
100
AcDbPoint
 10
781.9330568289482
 20
683.6210202141777
 30
0.0
  0
POINT
  5
5F7
330
548
100
AcDbEntity
  8
DEFPOINTS
 62
     0
100
AcDbPoint
 10
783.9330568289482
 20
686.6710202141778
 30
0.0
  0
POINT
  5
5F8
330
548
100
AcDbEntity
  8
DEFPOINTS
 62
     0
100
AcDbPoint
 10
783.9330568289482
 20
707.6908104829889
 30
0.0
  0
ENDBLK
  5
554
330
548
100
AcDbEntity
  8
0
100
AcDbBlockEnd
  0
BLOCK
  5
55E
330
555
100
AcDbEntity
  8
0
100
AcDbBlockBegin
  2
*D22
 70
     1
 10
0.0
 20
0.0
 30
0.0
  3
*D22
  1

  0
LINE
  5
601
330
555
100
AcDbEntity
  8
0
 62
     0
370
    -2
100
AcDbLine
 10
781.208897657259
 20
686.6710202141778
 30
0.0
 11
745.7983550579481
 21
686.671020214178
 31
0.0
  0
LINE
  5
602
330
555
100
AcDbEntity
  8
0
 62
     0
370
    -2
100
AcDbLine
 10
780.9330568289482
 20
664.5710202141778
 30
0.0
 11
745.7983550579481
 21
664.5710202141779
 31
0.0
  0
LINE
  5
603
330
555
100
AcDbEntity
  8
0
 62
     0
370
    -2
100
AcDbLine
 10
746.7983550579481
 20
684.671020214178
 30
0.0
 11
746.7983550579481
 21
666.5710202141779
 31
0.0
  0
SOLID
  5
604
330
555
100
AcDbEntity
  8
0
 62
     0
100
AcDbTrace
 10
746.4650217246147
 20
684.671020214178
 30
0.0
 11
747.1316883912813
 21
684.671020214178
 31
0.0
 12
746.7983550579481
 22
686.671020214178
 32
0.0
 13
746.7983550579481
 23
686.671020214178
 33
0.0
  0
SOLID
  5
605
330
555
100
AcDbEntity
  8
0
 62
     0
100
AcDbTrace
 10
746.4650217246147
 20
666.5710202141779
 30
0.0
 11
747.1316883912813
 21
666.5710202141779
 31
0.0
 12
746.7983550579481
 22
664.5710202141779
 32
0.0
 13
746.7983550579481
 23
664.5710202141779
 33
0.0
  0
POINT
  5
606
330
555
100
AcDbEntity
  8
DEFPOINTS
 62
     0
100
AcDbPoint
 10
782.2088976572589
 20
686.6710202141778
 30
0.0
  0
POINT
  5
607
330
555
100
AcDbEntity
  8
DEFPOINTS
 62
     0
100
AcDbPoint
 10
781.9330568289482
 20
664.5710202141778
 30
0.0
  0
POINT
  5
608
330
555
100
AcDbEntity
  8
DEFPOINTS
 62
     0
100
AcDbPoint
 10
746.7983550579481
 20
664.5710202141779
 30
0.0
  0
ENDBLK
  5
55F
330
555
100
AcDbEntity
  8
0
100
AcDbBlockEnd
  0
BLOCK
  5
56A
330
560
100
AcDbEntity
  8
0
100
AcDbBlockBegin
  2
*D23
 70
     1
 10
0.0
 20
0.0
 30
0.0
  3
*D23
  1

  0
LINE
  5
612
330
560
100
AcDbEntity
  8
0
 62
     0
370
    -2
100
AcDbLine
 10
841.9330568289481
 20
487.6210202141776
 30
0.0
 11
841.9330568289481
 21
537.9310329914761
 31
0.0
  0
LINE
  5
613
330
560
100
AcDbEntity
  8
0
 62
     0
370
    -2
100
AcDbLine
 10
820.9330568289482
 20
493.1774597648899
 30
0.0
 11
820.9330568289482
 21
537.9310329914761
 31
0.0
  0
LINE
  5
614
330
560
100
AcDbEntity
  8
0
 62
     0
370
    -2
100
AcDbLine
 10
839.9330568289482
 20
536.9310329914761
 30
0.0
 11
822.9330568289482
 21
536.9310329914761
 31
0.0
  0
SOLID
  5
615
330
560
100
AcDbEntity
  8
0
 62
     0
100
AcDbTrace
 10
839.9330568289482
 20
537.2643663248095
 30
0.0
 11
839.9330568289482
 21
536.5976996581427
 31
0.0
 12
841.9330568289481
 22
536.9310329914761
 32
0.0
 13
841.9330568289481
 23
536.9310329914761
 33
0.0
  0
SOLID
  5
616
330
560
100
AcDbEntity
  8
0
 62
     0
100
AcDbTrace
 10
822.9330568289482
 20
537.2643663248095
 30
0.0
 11
822.9330568289482
 21
536.5976996581427
 31
0.0
 12
820.9330568289482
 22
536.9310329914761
 32
0.0
 13
820.9330568289482
 23
536.9310329914761
 33
0.0
  0
MTEXT
  5
617
330
560
100
AcDbEntity
  8
0
 62
     0
100
AcDbMText
 10
831.4330568289483
 20
536.9310329914761
 30
0.0
 40
60.0
 41
0.0
 71
     5
 72
     1
  1
\A1;21
  7
BIGFONT
 73
     1
 44
1.0
  0
POINT
  5
618
330
560
100
AcDbEntity
  8
DEFPOINTS
 62
     0
100
AcDbPoint
 10
841.9330568289481
 20
486.6210202141776
 30
0.0
  0
POINT
  5
619
330
560
100
AcDbEntity
  8
DEFPOINTS
 62
     0
100
AcDbPoint
 10
820.9330568289482
 20
492.1774597648899
 30
0.0
  0
POINT
  5
61A
330
560
100
AcDbEntity
  8
DEFPOINTS
 62
     0
100
AcDbPoint
 10
820.9330568289482
 20
536.9310329914761
 30
0.0
  0
ENDBLK
  5
56B
330
560
100
AcDbEntity
  8
0
100
AcDbBlockEnd
  0
BLOCK
  5
575
330
56C
100
AcDbEntity
  8
0
100
AcDbBlockBegin
  2
*D24
 70
     1
 10
0.0
 20
0.0
 30
0.0
  3
*D24
  1

  0
LINE
  5
623
330
56C
100
AcDbEntity
  8
0
 62
     0
370
    -2
100
AcDbLine
 10
858.3684022618738
 20
512.8437667464866
 30
0.0
 11
856.3684022618739
 21
512.8437667464866
 31
0.0
  0
LINE
  5
624
330
56C
100
AcDbEntity
  8
0
 62
     0
370
    -2
100
AcDbLine
 10
856.3684022618739
 20
512.8437667464866
 30
0.0
 11
841.1011850806367
 21
492.2447829116499
 31
0.0
  0
MTEXT
  5
625
330
56C
100
AcDbEntity
  8
0
 62
     0
100
AcDbMText
 10
908.458402261874
 20
512.8437667464868
 30
0.0
 40
60.0
 41
0.0
 71
     5
 72
     1
  1
\A1;R5
  7
BIGFONT
 73
     1
 44
1.0
  0
SOLID
  5
626
330
56C
100
AcDbEntity
  8
0
 62
     0
100
AcDbTrace
 10
840.8333868569471
 20
492.4432652093493
 30
0.0
 11
841.3689833043257
 21
492.0463006139503
 31
0.0
 12
839.91029129444
 22
490.6379935695148
 32
0.0
 13
839.91029129444
 23
490.6379935695148
 33
0.0
  0
LINE
  5
627
330
56C
100
AcDbEntity
  8
0
 62
     0
370
    -2
100
AcDbLine
 10
836.8430568289486
 20
486.6210202141778
 30
0.0
 11
837.0230568289487
 21
486.6210202141778
 31
0.0
  0
LINE
  5
628
330
56C
100
AcDbEntity
  8
0
 62
     0
370
    -2
100
AcDbLine
 10
836.9330568289488
 20
486.5310202141778
 30
0.0
 11
836.9330568289486
 21
486.7110202141778
 31
0.0
  0
POINT
  5
629
330
56C
100
AcDbEntity
  8
DEFPOINTS
 62
     0
100
AcDbPoint
 10
839.91029129444
 20
490.6379935695148
 30
0.0
  0
POINT
  5
62A
330
56C
100
AcDbEntity
  8
DEFPOINTS
 62
     0
100
AcDbPoint
 10
836.9330568289488
 20
486.6210202141778
 30
0.0
  0
ENDBLK
  5
576
330
56C
100
AcDbEntity
  8
0
100
AcDbBlockEnd
  0
BLOCK
  5
6DF
330
6DE
100
AcDbEntity
  8
0
100
AcDbBlockBegin
  2
*U25
 70
     1
 10
0.0
 20
0.0
 30
0.0
  3
*U25
  1

  0
ENDBLK
  5
6E0
330
6DE
100
AcDbEntity
  8
0
100
AcDbBlockEnd
  0
BLOCK
  5
7C9
330
7C8
100
AcDbEntity
  8
0
100
AcDbBlockBegin
  2
*U26
 70
     1
 10
0.0
 20
0.0
 30
0.0
  3
*U26
  1

  0
ENDBLK
  5
7CA
330
7C8
100
AcDbEntity
  8
0
100
AcDbBlockEnd
  0
ENDSEC
  0
SECTION
  2
ENTITIES
  0
ARC
  5
47A
330
158
100
AcDbEntity
  8
3
100
AcDbCircle
 10
405.9550147047387
 20
450.6210202141732
 30
0.0
 40
216.0
100
AcDbArc
 50
22.7801918471998
 51
85.21980815280189
  0
CIRCLE
  5
47C
330
158
100
AcDbEntity
  8
3
100
AcDbCircle
 10
405.9550147047366
 20
450.6210202141772
 30
0.0
 40
250.0000199999999
  0
LINE
  5
47D
330
158
100
AcDbEntity
  8
1
100
AcDbLine
 10
405.9550147047414
 20
450.6210202141764
 30
0.0
 11
561.7447856055908
 21
236.1947961519013
 31
0.0
  0
LINE
  5
47E
330
158
100
AcDbEntity
  8
1
100
AcDbLine
 10
405.9550147047393
 20
450.6210202141802
 30
0.0
 11
649.7394693064168
 21
529.8313911496618
 31
0.0
  0
LINE
  5
47F
330
158
100
AcDbEntity
  8
1
100
AcDbLine
 10
660.3994795047367
 20
450.6210202141772
 30
0.0
 11
181.5105523047366
 21
450.6210202141772
 31
0.0
  0
ARC
  5
480
330
158
100
AcDbEntity
  8
3
100
AcDbCircle
 10
405.9550147047408
 20
450.6210202141772
 30
0.0
 40
233.0
100
AcDbArc
 50
97.39767553531997
 51
82.6023244646794
  0
LINE
  5
481
330
158
100
AcDbEntity
  8
3
100
AcDbLine
 10
448.4284810158718
 20
426.1873414179047
 30
0.0
 11
547.0373281450429
 21
287.0613037973924
 31
0.0
  0
ARC
  5
482
330
158
100
AcDbEntity
  8
3
100
AcDbCircle
 10
461.8305016779406
 20
373.7150101467633
 30
0.0
 40
124.0900858766472
100
AcDbArc
 50
298.7444709549265
 51
313.2555290450733
  0
LINE
  5
483
330
158
100
AcDbEntity
  8
3
100
AcDbLine
 10
442.3178470411449
 20
483.4652651358587
 30
0.0
 11
605.1063812650927
 21
534.2555417776232
 31
0.0
  0
LINE
  5
484
330
158
100
AcDbEntity
  8
3
100
AcDbLine
 10
454.6785268161453
 20
445.4230044840445
 30
0.0
 11
616.2309930625911
 21
500.0175071909975
 31
0.0
  0
ARC
  5
485
330
158
100
AcDbEntity
  8
3
100
AcDbCircle
 10
405.9550147047387
 20
450.6210202141732
 30
0.0
 40
216.0
100
AcDbArc
 50
166.780191847204
 51
229.2198081528075
  0
LINE
  5
486
330
158
100
AcDbEntity
  8
1
100
AcDbLine
 10
405.9550147047414
 20
450.6210202141764
 30
0.0
 11
405.9550147047414
 21
186.1354446485778
 31
0.0
  0
ARC
  5
487
330
158
100
AcDbEntity
  8
3
100
AcDbCircle
 10
405.9550147047488
 20
450.6210202141661
 30
0.0
 40
49.0
100
AcDbArc
 50
330.0895061118043
 51
353.9104938882296
  0
ARC
  5
488
330
158
100
AcDbEntity
  8
3
100
AcDbCircle
 10
405.9550147047488
 20
450.6210202141661
 30
0.0
 40
49.0
100
AcDbArc
 50
186.0895061118014
 51
209.9104938882291
  0
LINE
  5
489
330
158
100
AcDbEntity
  8
1
100
AcDbLine
 10
405.9550147047387
 20
450.6210202141732
 30
0.0
 11
252.0145205112934
 21
238.7401071779178
 31
0.0
  0
CIRCLE
  5
48A
330
158
100
AcDbEntity
  8
3
100
AcDbCircle
 10
405.9550147047488
 20
450.6210202141661
 30
0.0
 40
41.0
  0
ARC
  5
48B
330
158
100
AcDbEntity
  8
3
100
AcDbCircle
 10
267.1030796440652
 20
285.3004883871396
 30
0.0
 40
2.841664762965388
100
AcDbArc
 50
141.709989147459
 51
223.6340221630275
  0
LINE
  5
48C
330
158
100
AcDbEntity
  8
3
100
AcDbLine
 10
363.4815483936457
 20
426.1873414178904
 30
0.0
 11
264.8727012644744
 21
287.061303797378
 31
0.0
  0
ARC
  5
48D
330
158
100
AcDbEntity
  8
3
100
AcDbCircle
 10
350.0795277315768
 20
373.7150101467489
 30
0.0
 40
124.0900858766472
100
AcDbArc
 50
226.7444709549265
 51
241.2555290450734
  0
ARC
  5
48E
330
158
100
AcDbEntity
  8
3
100
AcDbCircle
 10
405.9550147047387
 20
450.6210202141732
 30
0.0
 40
216.0
100
AcDbArc
 50
238.7801918472056
 51
301.219808152806
  0
ARC
  5
48F
330
158
100
AcDbEntity
  8
3
100
AcDbCircle
 10
405.9550147047488
 20
450.6210202141661
 30
0.0
 40
49.0
100
AcDbArc
 50
258.0895061118038
 51
281.9104938882296
  0
LINE
  5
490
330
158
100
AcDbEntity
  8
3
100
AcDbLine
 10
395.8422281686503
 20
402.6759313261862
 30
0.0
 11
293.9973130619723
 21
265.901034714849
 31
0.0
  0
ARC
  5
491
330
158
100
AcDbEntity
  8
3
100
AcDbCircle
 10
291.6334532688923
 20
267.4781287208416
 30
0.0
 40
2.841664762965388
100
AcDbArc
 50
244.3659778369714
 51
326.2900108525399
  0
ARC
  5
492
330
158
100
AcDbEntity
  8
3
100
AcDbCircle
 10
364.7430718205757
 20
425.5682897564406
 30
0.0
 40
1.405228207885394
100
AcDbArc
 50
55.00166850300931
 51
153.8620036275068
  0
ARC
  5
493
330
158
100
AcDbEntity
  8
3
100
AcDbCircle
 10
409.1146666093129
 20
454.9699079705698
 30
0.0
 40
51.92354157689169
100
AcDbArc
 50
212.9617358076784
 51
255.0382641923203
  0
ARC
  5
494
330
158
100
AcDbEntity
  8
3
100
AcDbCircle
 10
394.8636428743818
 20
403.6844139180431
 30
0.0
 40
1.405228207885394
100
AcDbArc
 50
314.1379963724926
 51
52.99833149699014
  0
LINE
  5
495
330
158
100
AcDbEntity
  8
3
100
AcDbLine
 10
416.0678012408671
 20
402.6759313262007
 30
0.0
 11
517.9127163475448
 21
265.9010347148633
 31
0.0
  0
ARC
  5
496
330
158
100
AcDbEntity
  8
3
100
AcDbCircle
 10
520.2765761406251
 20
267.478128720856
 30
0.0
 40
2.841664762965388
100
AcDbArc
 50
213.70998914746
 51
295.6340221630283
  0
ARC
  5
497
330
158
100
AcDbEntity
  8
3
100
AcDbCircle
 10
402.7953628002046
 20
454.9699079705841
 30
0.0
 40
51.92354157689169
100
AcDbArc
 50
284.961735807678
 51
327.0382641923216
  0
ARC
  5
498
330
158
100
AcDbEntity
  8
3
100
AcDbCircle
 10
417.0463865351356
 20
403.6844139180574
 30
0.0
 40
1.405228207885394
100
AcDbArc
 50
127.0016685030098
 51
225.8620036275061
  0
ARC
  5
499
330
158
100
AcDbEntity
  8
3
100
AcDbCircle
 10
447.1669575889418
 20
425.5682897564549
 30
0.0
 40
1.405228207885394
100
AcDbArc
 50
26.13799637249317
 51
124.9983314969906
  0
ARC
  5
49A
330
158
100
AcDbEntity
  8
3
100
AcDbCircle
 10
405.9550147047387
 20
450.6210202141732
 30
0.0
 40
216.0
100
AcDbArc
 50
94.78019184719974
 51
157.2198081528053
  0
LINE
  5
49B
330
158
100
AcDbEntity
  8
1
100
AcDbLine
 10
405.9550147047366
 20
450.6210202141773
 30
0.0
 11
155.9899129565781
 21
531.8396051430163
 31
0.0
  0
LINE
  5
49C
330
158
100
AcDbEntity
  8
3
100
AcDbLine
 10
369.5921823683451
 20
483.4652651358353
 30
0.0
 11
206.8036481443972
 21
534.2555417776
 31
0.0
  0
LINE
  5
49D
330
158
100
AcDbEntity
  8
3
100
AcDbLine
 10
357.2315025933446
 20
445.4230044840215
 30
0.0
 11
195.6790363468989
 21
500.0175071909743
 31
0.0
  0
ARC
  5
49E
330
158
100
AcDbEntity
  8
3
100
AcDbCircle
 10
315.5465776441849
 20
479.9965021207636
 30
0.0
 40
124.0900858766472
100
AcDbArc
 50
154.7444709549268
 51
169.2555290450737
  0
ARC
  5
49F
330
158
100
AcDbEntity
  8
3
100
AcDbCircle
 10
196.4484690297269
 20
502.7530203003697
 30
0.0
 40
2.841664762965388
100
AcDbArc
 50
172.3659778369723
 51
254.29001085254
  0
ARC
  5
4A0
330
158
100
AcDbEntity
  8
3
100
AcDbCircle
 10
205.818237997677
 20
531.5902040001652
 30
0.0
 40
2.841664762965388
100
AcDbArc
 50
69.70998914745883
 51
151.6340221630269
  0
LINE
  5
4A1
330
158
100
AcDbEntity
  8
1
100
AcDbLine
 10
405.9550147047414
 20
450.6210202141764
 30
0.0
 11
405.9550147047414
 21
714.5656666662262
 31
0.0
  0
LINE
  5
4A2
330
158
100
AcDbEntity
  8
3
100
AcDbLine
 10
425.9550147047408
 20
495.3535587068598
 30
0.0
 11
423.9550147047366
 21
665.8697135899922
 31
0.0
  0
LINE
  5
4A3
330
158
100
AcDbEntity
  8
3
100
AcDbLine
 10
385.9550147047325
 20
495.3535587068598
 30
0.0
 11
387.9550147047367
 21
665.8697135899922
 31
0.0
  0
ARC
  5
4A4
330
158
100
AcDbEntity
  8
3
100
AcDbCircle
 10
405.9550147047366
 20
445.245499320726
 30
0.0
 40
51.92354157689169
100
AcDbArc
 50
68.96173580767953
 51
111.0382641923202
  0
ARC
  5
4A5
330
158
100
AcDbEntity
  8
3
100
AcDbCircle
 10
411.0674388789322
 20
448.9598929044638
 30
0.0
 40
51.92354157689169
100
AcDbArc
 50
140.9617358076789
 51
183.0382641923205
  0
ARC
  5
4A6
330
158
100
AcDbEntity
  8
3
100
AcDbCircle
 10
357.888227047526
 20
446.6653326643011
 30
0.0
 40
1.405228207885394
100
AcDbArc
 50
242.1379963724925
 51
340.9983314969893
  0
ARC
  5
4A7
330
158
100
AcDbEntity
  8
3
100
AcDbCircle
 10
405.9550147047488
 20
450.6210202141661
 30
0.0
 40
49.0
100
AcDbArc
 50
114.0895061118047
 51
137.9104938882283
  0
ARC
  5
4A8
330
158
100
AcDbEntity
  8
3
100
AcDbCircle
 10
369.3932614295238
 20
482.0741875764108
 30
0.0
 40
1.405228207885394
100
AcDbArc
 50
343.0016685030098
 51
81.8620036275073
  0
ARC
  5
4A9
330
158
100
AcDbEntity
  8
3
100
AcDbCircle
 10
387.3394780329281
 20
495.1128771555977
 30
0.0
 40
1.405228207885394
100
AcDbArc
 50
170.137996372493
 51
268.9983314969905
  0
ARC
  5
4AA
330
158
100
AcDbEntity
  8
3
100
AcDbCircle
 10
400.842590530558
 20
448.9598929044872
 30
0.0
 40
51.92354157689169
100
AcDbArc
 50
356.9617358076791
 51
39.03826419232093
  0
ARC
  5
4AB
330
158
100
AcDbEntity
  8
3
100
AcDbCircle
 10
454.0218023619642
 20
446.6653326643243
 30
0.0
 40
1.405228207885394
100
AcDbArc
 50
199.001668503009
 51
297.8620036275072
  0
ARC
  5
4AC
330
158
100
AcDbEntity
  8
3
100
AcDbCircle
 10
405.9550147047488
 20
450.6210202141661
 30
0.0
 40
49.0
100
AcDbArc
 50
42.08950611180397
 51
65.91049388822881
  0
ARC
  5
4AD
330
158
100
AcDbEntity
  8
3
100
AcDbCircle
 10
424.570551376545
 20
495.1128771555977
 30
0.0
 40
1.405228207885394
100
AcDbArc
 50
271.0016685030093
 51
9.862003627506824
  0
ARC
  5
4AE
330
158
100
AcDbEntity
  8
3
100
AcDbCircle
 10
442.5167679799662
 20
482.0741875764339
 30
0.0
 40
1.405228207885394
100
AcDbArc
 50
98.13799637249271
 51
196.9983314969899
  0
ARC
  5
4B0
330
158
100
AcDbEntity
  8
3
100
AcDbCircle
 10
405.9550147047414
 20
675.6210202141772
 30
0.0
 40
11.05
100
AcDbArc
 50
90.0
 51
270.0
  0
ARC
  5
4B1
330
158
100
AcDbEntity
  8
3
100
AcDbCircle
 10
405.9550147047366
 20
675.6210202141772
 30
0.0
 40
19.49999999999953
100
AcDbArc
 50
184.3406396661903
 51
270.0
  0
LINE
  5
4B2
330
158
100
AcDbEntity
  8
1
100
AcDbLine
 10
454.0282146721742
 20
675.6210202141772
 30
0.0
 11
364.7109030899083
 21
675.6210202141772
 31
0.0
  0
ARC
  5
4B3
330
158
100
AcDbEntity
  8
3
100
AcDbCircle
 10
376.6768765555831
 20
671.5318930179705
 30
0.0
 40
10.17536281265847
100
AcDbArc
 50
14.88153343721212
 51
94.06810148916944
  0
ARC
  5
4B4
330
158
100
AcDbEntity
  8
3
100
AcDbCircle
 10
390.7944100478595
 20
665.9832596622772
 30
0.0
 40
2.841664762965388
100
AcDbArc
 50
151.4098293070269
 51
182.2900108525404
  0
CIRCLE
  5
4B9
330
158
100
AcDbEntity
  8
3
100
AcDbCircle
 10
405.9550147047414
 20
675.6210202141772
 30
0.0
 40
7.0
  0
CIRCLE
  5
4BA
330
158
100
AcDbEntity
  8
0
100
AcDbCircle
 10
405.9550147047414
 20
675.6210202141772
 30
0.0
 40
8.0
  0
ARC
  5
4BB
330
158
100
AcDbEntity
  8
3
100
AcDbCircle
 10
421.1156193616138
 20
665.9832596622772
 30
0.0
 40
2.841664762965388
100
AcDbArc
 50
357.7099891474595
 51
28.59017069275516
  0
ARC
  5
4BD
330
158
100
AcDbEntity
  8
3
100
AcDbCircle
 10
405.9550147047387
 20
450.6210202141732
 30
0.0
 40
216.0
100
AcDbArc
 50
310.780191847204
 51
13.21980815280101
  0
LINE
  5
4BF
330
158
100
AcDbEntity
  8
1
100
AcDbLine
 10
799.9330568289482
 20
213.6210202141775
 30
0.0
 11
799.9330568289482
 21
707.8381456207551
 31
0.0
  0
LINE
  5
4C0
330
158
100
AcDbEntity
  8
3
100
AcDbLine
 10
781.9330568289482
 20
450.6210202141777
 30
0.0
 11
781.9330568289482
 21
217.6210202141775
 31
0.0
  0
LINE
  5
4C1
330
158
100
AcDbEntity
  8
3
100
AcDbLine
 10
781.9330568289482
 20
409.6210202141777
 30
0.0
 11
781.9330568289482
 21
450.6210202141777
 31
0.0
  0
LINE
  5
4C2
330
158
100
AcDbEntity
  8
3
100
AcDbLine
 10
834.9330568289481
 20
450.6210202141777
 30
0.0
 11
834.9330568289481
 21
417.1210202141777
 31
0.0
  0
ARC
  5
4C4
330
158
100
AcDbEntity
  8
3
100
AcDbCircle
 10
797.7497234956151
 20
282.1043535475108
 30
0.0
 40
17.52333365037094
100
AcDbArc
 50
255.7390683524484
 51
294.2004131037711
  0
ARC
  5
4C5
330
158
100
AcDbEntity
  8
3
100
AcDbCircle
 10
799.9330568289482
 20
220.5825870920763
 30
0.0
 40
14.04804495335884
100
AcDbArc
 50
4.239177307976092
 51
175.7608226920239
  0
ARC
  5
4C6
330
158
100
AcDbEntity
  8
3
100
AcDbCircle
 10
799.9330568289482
 20
218.6504319788834
 30
0.0
 40
18.02941176470588
100
AcDbArc
 50
183.2731540832334
 51
356.7268459167665
  0
ARC
  5
4C7
330
158
100
AcDbEntity
  8
3
100
AcDbCircle
 10
779.8742685035392
 20
223.6652610752465
 30
0.0
 40
6.385253084683097
100
AcDbArc
 50
288.8098611393491
 51
341.3279837530896
  0
ARC
  5
4C8
330
158
100
AcDbEntity
  8
3
100
AcDbCircle
 10
544.8069497654521
 20
285.3004883871538
 30
0.0
 40
2.841664762965388
100
AcDbArc
 50
316.3659778369725
 51
38.29001085254093
  0
LINE
  5
4C9
330
158
100
AcDbEntity
  8
3
100
AcDbLine
 10
789.9330568289482
 20
273.1210202141777
 30
0.0
 11
789.9330568289482
 21
405.4384671310366
 31
0.0
  0
ARC
  5
4CA
330
158
100
AcDbEntity
  8
3
100
AcDbCircle
 10
796.1830568289482
 20
270.8710202141777
 30
0.0
 40
6.373774391990981
100
AcDbArc
 50
221.8201698801359
 51
244.440034828176
  0
ARC
  5
4CB
330
158
100
AcDbEntity
  8
3
100
AcDbCircle
 10
808.5580568289483
 20
273.9960202141777
 30
0.0
 40
18.64554236272037
100
AcDbArc
 50
182.6897703231504
 51
203.2994632606818
  0
LINE
  5
4CC
330
158
100
AcDbEntity
  8
3
100
AcDbLine
 10
781.9330568289482
 20
409.1210202141777
 30
0.0
 11
781.9330568289482
 21
422.6210202141777
 31
0.0
  0
LINE
  5
4CD
330
158
100
AcDbEntity
  8
3
100
AcDbLine
 10
817.9330568289481
 20
217.6210202141775
 30
0.0
 11
817.9330568289481
 21
304.2460202141776
 31
0.0
  0
LINE
  5
4CE
330
158
100
AcDbEntity
  8
1
100
AcDbLine
 10
799.9330568289482
 20
213.6210202141775
 30
0.0
 11
799.9330568289482
 21
193.4860482674356
 31
0.0
  0
ARC
  5
4CF
330
158
100
AcDbEntity
  8
3
100
AcDbCircle
 10
819.9918451543572
 20
223.6652610752465
 30
0.0
 40
6.385253084683097
100
AcDbArc
 50
198.6720162469103
 51
251.1901388606506
  0
LINE
  5
4D0
330
158
100
AcDbEntity
  8
3
100
AcDbLine
 10
817.9330568289481
 20
304.2460202141776
 30
0.0
 11
817.9330568289481
 21
409.1210202141777
 31
0.0
  0
LINE
  5
4D1
330
158
100
AcDbEntity
  8
3
100
AcDbLine
 10
807.9330568289481
 20
273.1210202141777
 30
0.0
 11
809.9330568289483
 21
410.554038435248
 31
0.0
  0
ARC
  5
4D2
330
158
100
AcDbEntity
  8
3
100
AcDbCircle
 10
799.2984414443331
 20
272.67871252187
 30
0.0
 40
8.645936556262192
100
AcDbArc
 50
310.670408941413
 51
2.932410031291308
  0
LINE
  5
4D3
330
158
100
AcDbEntity
  8
3
100
AcDbLine
 10
829.9330568289482
 20
412.1210202141776
 30
0.0
 11
811.9330568289482
 21
412.1210202141776
 31
0.0
  0
LINE
  5
4D4
330
158
100
AcDbEntity
  8
3
100
AcDbLine
 10
811.9330568289482
 20
412.1210202141778
 30
0.0
 11
811.9330568289482
 21
411.5645806634653
 31
0.0
  0
ARC
  5
4D6
330
158
100
AcDbEntity
  8
3
100
AcDbCircle
 10
829.9330568289482
 20
417.1210202141777
 30
0.0
 40
5.0
100
AcDbArc
 50
270.0
 51
0.0
  0
LINE
  5
4D9
330
158
100
AcDbEntity
  8
0
100
AcDbLine
 10
817.9330568289481
 20
683.6210202141777
 30
0.0
 11
783.9330568289482
 21
683.6210202141777
 31
0.0
  0
LINE
  5
4DA
330
158
100
AcDbEntity
  8
0
100
AcDbLine
 10
783.9330568289482
 20
667.6210202141779
 30
0.0
 11
811.9426686602059
 21
667.6210202141777
 31
0.0
  0
LINE
  5
4DB
330
158
100
AcDbEntity
  8
3
100
AcDbLine
 10
816.0768622564404
 20
682.6210202141777
 30
0.0
 11
783.9330568289482
 21
682.6210202141777
 31
0.0
  0
LINE
  5
4DC
330
158
100
AcDbEntity
  8
3
100
AcDbLine
 10
783.9330568289482
 20
668.6210202141777
 30
0.0
 11
811.9426686602059
 21
668.6210202141777
 31
0.0
  0
ARC
  5
4DD
330
158
100
AcDbEntity
  8
3
100
AcDbCircle
 10
799.9330568289482
 20
682.5916084494718
 30
0.0
 40
18.02941176470588
100
AcDbArc
 50
3.273154083233711
 51
176.7268459167662
  0
LINE
  5
4DE
330
158
100
AcDbEntity
  8
1
100
AcDbLine
 10
773.7748255882132
 20
675.6210202141777
 30
0.0
 11
820.2496908924299
 21
675.6210202141777
 31
0.0
  0
LINE
  5
4E0
330
158
100
AcDbEntity
  8
1
100
AcDbLine
 10
782.9330568289482
 20
450.6210202141777
 30
0.0
 11
851.9537709837786
 21
450.6210202141777
 31
0.0
  0
LINE
  5
4E1
330
158
100
AcDbEntity
  8
3
100
AcDbLine
 10
781.9330568289482
 20
450.6210202141777
 30
0.0
 11
781.9330568289482
 21
683.6210202141777
 31
0.0
  0
LINE
  5
4E2
330
158
100
AcDbEntity
  8
3
100
AcDbLine
 10
789.9330568289482
 20
656.1210202141777
 30
0.0
 11
789.9330568289482
 21
495.8035732973187
 31
0.0
  0
ARC
  5
4E3
330
158
100
AcDbEntity
  8
3
100
AcDbCircle
 10
496.3634517653053
 20
479.9965021207868
 30
0.0
 40
124.0900858766472
100
AcDbArc
 50
10.74447095492631
 51
25.25552904507305
  0
ARC
  5
4E5
330
158
100
AcDbEntity
  8
3
100
AcDbCircle
 10
615.4615603797631
 20
502.753020300393
 30
0.0
 40
2.841664762965388
100
AcDbArc
 50
285.7099891474598
 51
7.634022163027621
  0
ARC
  5
4E6
330
158
100
AcDbEntity
  8
3
100
AcDbCircle
 10
606.0917914118131
 20
531.5902040001882
 30
0.0
 40
2.841664762965388
100
AcDbArc
 50
28.36597783697288
 51
110.2900108525409
  0
LINE
  5
4E7
330
158
100
AcDbEntity
  8
3
100
AcDbLine
 10
781.9330568289482
 20
491.6210202141776
 30
0.0
 11
781.9330568289482
 21
450.6210202141777
 31
0.0
  0
LINE
  5
4E8
330
158
100
AcDbEntity
  8
3
100
AcDbLine
 10
781.9330568289482
 20
492.1210202141777
 30
0.0
 11
781.9330568289482
 21
478.6210202141776
 31
0.0
  0
LINE
  5
4E9
330
158
100
AcDbEntity
  8
1
100
AcDbLine
 10
782.9330568289482
 20
450.6210202141777
 30
0.0
 11
777.4330568289482
 21
450.6210202141777
 31
0.0
  0
LINE
  5
4ED
330
158
100
AcDbEntity
  8
3
100
AcDbLine
 10
783.9330568289482
 20
664.5710202141778
 30
0.0
 11
783.9330568289482
 21
686.6710202141778
 31
0.0
  0
LINE
  5
4EE
330
158
100
AcDbEntity
  8
3
100
AcDbLine
 10
781.9330568289482
 20
656.1210202141777
 30
0.0
 11
789.9330568289482
 21
656.1210202141777
 31
0.0
  0
LINE
  5
4EF
330
158
100
AcDbEntity
  8
3
100
AcDbLine
 10
781.9330568289482
 20
664.5710202141778
 30
0.0
 11
783.9330568289482
 21
664.5710202141778
 31
0.0
  0
LINE
  5
4F0
330
158
100
AcDbEntity
  8
3
100
AcDbLine
 10
783.9330568289482
 20
686.6710202141778
 30
0.0
 11
782.2088976572589
 21
686.6710202141778
 31
0.0
  0
LINE
  5
4F1
330
158
100
AcDbEntity
  8
3
100
AcDbLine
 10
817.9330568289481
 20
683.6210202141777
 30
0.0
 11
817.9330568289481
 21
622.2251735275468
 31
0.0
  0
LINE
  5
4F2
330
158
100
AcDbEntity
  8
3
100
AcDbLine
 10
808.0733367588962
 20
658.1210202141777
 30
0.0
 11
809.9330568289483
 21
490.7742767864476
 31
0.0
  0
LINE
  5
4F4
330
158
100
AcDbEntity
  8
3
100
AcDbLine
 10
817.9330568289481
 20
622.2251735275468
 30
0.0
 11
817.9330568289481
 21
492.1210202141777
 31
0.0
  0
LINE
  5
4F6
330
158
100
AcDbEntity
  8
3
100
AcDbLine
 10
834.9330568289481
 20
450.6210202141777
 30
0.0
 11
834.9330568289481
 21
484.1210202141777
 31
0.0
  0
LINE
  5
4F7
330
158
100
AcDbEntity
  8
3
100
AcDbLine
 10
829.9330568289482
 20
489.1210202141777
 30
0.0
 11
811.9330568289482
 21
489.1210202141777
 31
0.0
  0
LINE
  5
4F9
330
158
100
AcDbEntity
  8
3
100
AcDbLine
 10
811.9330568289482
 20
489.1210202141776
 30
0.0
 11
811.9330568289482
 21
489.6774597648898
 31
0.0
  0
ARC
  5
4FA
330
158
100
AcDbEntity
  8
3
100
AcDbCircle
 10
829.9330568289482
 20
484.1210202141777
 30
0.0
 40
5.0
100
AcDbArc
 50
0.0
 51
90.0
  0
LINE
  5
4FB
330
158
100
AcDbEntity
  8
3
100
AcDbLine
 10
811.9426686602059
 20
679.6210202141777
 30
0.0
 11
811.9426686602059
 21
658.1210202141777
 31
0.0
  0
LINE
  5
4FC
330
158
100
AcDbEntity
  8
3
100
AcDbLine
 10
809.052104447996
 20
658.1210202141777
 30
0.0
 11
811.9426686602059
 21
658.1210202141777
 31
0.0
  0
LINE
  5
4FD
330
158
100
AcDbEntity
  8
3
100
AcDbLine
 10
809.052104447996
 20
658.1210202141777
 30
0.0
 11
808.0733367588962
 21
658.1210202141777
 31
0.0
  0
ARC
  5
4FE
330
158
100
AcDbEntity
  8
3
100
AcDbCircle
 10
820.2205772464314
 20
673.7096426014901
 30
0.0
 40
10.17192979929014
100
AcDbArc
 50
102.9961504394711
 51
144.4688044154291
  0
ARC
  5
62B
330
158
100
AcDbEntity
  8
3
100
AcDbCircle
 10
405.9550147047461
 20
675.6210202141772
 30
0.0
 40
19.49999999999953
100
AcDbArc
 50
270.0
 51
355.6593603338096
  0
ARC
  5
62C
330
158
100
AcDbEntity
  8
3
100
AcDbCircle
 10
405.9550147047414
 20
675.6210202141772
 30
0.0
 40
11.05
100
AcDbArc
 50
270.0
 51
90.0
  0
ARC
  5
62D
330
158
100
AcDbEntity
  8
3
100
AcDbCircle
 10
435.2331528538996
 20
671.5318930179705
 30
0.0
 40
10.17536281265847
100
AcDbArc
 50
85.93189851083058
 51
165.1184665627878
  0
LINE
  5
704
330
158
100
AcDbEntity
  8
0
100
AcDbLine
 10
781.9330568289482
 20
386.6210202141776
 30
0.0
 11
781.9330568289482
 21
359.4613107422771
 31
0.0
  0
ARC
  5
713
330
158
100
AcDbEntity
  8
3
100
AcDbCircle
 10
796.9330568289478
 20
462.4748338528716
 30
0.0
 40
31.06417319854521
100
AcDbArc
 50
61.1268954766266
 51
118.8731045233724
  0
LINE
  5
714
330
158
100
AcDbEntity
  8
3
100
AcDbLine
 10
789.9330568289482
 20
495.8035732973187
 30
0.0
 11
789.9330568289482
 21
492.74004253395
 31
0.0
  0
LINE
  5
715
330
158
100
AcDbEntity
  8
3
100
AcDbLine
 10
817.9330568289485
 20
492.1210202141774
 30
0.0
 11
817.9330568289485
 21
489.1210202141777
 31
0.0
  0
LINE
  5
716
330
158
100
AcDbEntity
  8
3
100
AcDbLine
 10
809.9330568289483
 20
490.7742767864475
 30
0.0
 11
809.9330568289481
 21
490.6880019931072
 31
0.0
  0
ARC
  5
717
330
158
100
AcDbEntity
  8
3
100
AcDbCircle
 10
796.9330568289478
 20
438.7672065754837
 30
0.0
 40
31.06417319854521
100
AcDbArc
 50
241.1268954766275
 51
298.8731045233734
  0
LINE
  5
718
330
158
100
AcDbEntity
  8
3
100
AcDbLine
 10
789.9330568289482
 20
405.4384671310366
 30
0.0
 11
789.9330568289482
 21
408.5019978944052
 31
0.0
  0
LINE
  5
719
330
158
100
AcDbEntity
  8
3
100
AcDbLine
 10
817.9330568289485
 20
409.1210202141779
 30
0.0
 11
817.9330568289485
 21
412.1210202141776
 31
0.0
  0
ENDSEC
  0
SECTION
  2
OBJECTS
  0
DICTIONARY
  5
14D
330
0
100
AcDbDictionary
281
     1
  3
ACAD_GROUP
350
14E
  3
ACAD_LAYOUT
350
184
  3
ACAD_MLINESTYLE
350
15B
  3
ACAD_PLOTSETTINGS
350
185
  3
ACAD_PLOTSTYLENAME
350
182
  3
ACDBVARIABLEDICTIONARY
350
170
  3
AcmDictionary
350
242
  3
AMG
350
189
  3
AMGSNAPSETTINGS
350
25F
  3
DWGPROPS
350
7D4
  0
DICTIONARY
  5
281
330
158
100
AcDbDictionary
280
     1
281
     1
  3
ACAD_INDEX
360
282
  0
DICTIONARY
  5
14E
102
{ACAD_REACTORS
330
14D
102
}
330
14D
100
AcDbDictionary
281
     1
  0
DICTIONARY
  5
184
102
{ACAD_REACTORS
330
14D
102
}
330
14D
100
AcDbDictionary
281
     1
  3
Model
350
186
  3
ﾚｲｱｳﾄ1
350
187
  0
DICTIONARY
  5
15B
102
{ACAD_REACTORS
330
14D
102
}
330
14D
100
AcDbDictionary
281
     1
  3
STANDARD
350
15C
  0
DICTIONARY
  5
185
102
{ACAD_REACTORS
330
14D
102
}
330
14D
100
AcDbDictionary
281
     1
  0
ACDBDICTIONARYWDFLT
  5
182
102
{ACAD_REACTORS
330
14D
102
}
330
14D
100
AcDbDictionary
281
     1
  3
Normal
350
183
100
AcDbDictionaryWithDefault
340
183
  0
DICTIONARY
  5
170
102
{ACAD_REACTORS
330
14D
102
}
330
14D
100
AcDbDictionary
281
     1
  3
DIMADEC
350
171
  3
DIMASSOC
350
28A
  3
INDEXCTL
350
289
  0
DICTIONARY
  5
242
102
{ACAD_REACTORS
330
14D
102
}
330
14D
100
AcDbDictionary
281
     1
  3
AcmBOMDATA
350
7D2
  0
DICTIONARY
  5
189
102
{ACAD_REACTORS
330
14D
102
}
330
14D
100
AcDbDictionary
281
     1
  3
AcMgSettings
350
18A
  3
AMGLAYCFG
350
7DC
  0
DICTIONARY
  5
25F
102
{ACAD_REACTORS
330
14D
102
}
330
14D
100
AcDbDictionary
281
     1
  3
DIMENSION
350
264
  3
FEA
350
263
  3
HATCH (1)
350
260
  3
HATCH (2)
350
261
  3
SIMPLE WELD
350
265
  3
SYMBOLS
350
262
  0
XRECORD
  5
7D4
102
{ACAD_REACTORS
330
14D
102
}
330
14D
100
AcDbXrecord
280
     1
  1
DWGPROPS COOKIE
  2

  3

  4

  6

  7

  8

  9

300
AmdtFileType=84
301
=
302
=
303
=
304
=
305
=
306
=
307
=
308
=
309
=
 40
0.2242368402777778
 41
2450865.707994791
 42
2458625.607464734
  1

 90
        1
  0
DICTIONARY
  5
282
102
{ACAD_REACTORS
330
281
102
}
330
281
100
AcDbDictionary
281
     1
  3
*A1
350
283
  0
LAYOUT
  5
186
102
{ACAD_REACTORS
330
184
102
}
330
184
100
AcDbPlotSettings
  1

  2
\\KONISHIDENXP\SHARP MX-2700FG
  4

  6

 40
0.0
 41
0.0
 42
0.0
 43
0.0
 44
0.0
 45
0.0
 46
0.0
 47
0.0
 48
0.0
 49
0.0
140
0.0
141
0.0
142
1.0
143
1.0
 70
  1712
 72
     0
 73
     0
 74
     0
  7

 75
     0
147
1.0
148
0.0
149
0.0
100
AcDbLayout
  1
Model
 70
     1
 71
     0
 10
0.0
 20
0.0
 11
12.0
 21
9.0
 12
0.0
 22
0.0
 32
0.0
 14
0.0
 24
0.0
 34
0.0
 15
0.0
 25
0.0
 35
0.0
146
0.0
 13
0.0
 23
0.0
 33
0.0
 16
1.0
 26
0.0
 36
0.0
 17
0.0
 27
1.0
 37
0.0
 76
     0
330
158
  0
LAYOUT
  5
187
102
{ACAD_REACTORS
330
184
102
}
330
184
100
AcDbPlotSettings
  1

  2
\\KONISHIDENXP\SHARP MX-2700FG
  4

  6

 40
0.0
 41
0.0
 42
0.0
 43
0.0
 44
0.0
 45
0.0
 46
0.0
 47
0.0
 48
0.0
 49
0.0
140
0.0
141
0.0
142
1.0
143
1.0
 70
   688
 72
     0
 73
     0
 74
     5
  7

 75
    16
147
1.0
148
0.0
149
0.0
100
AcDbLayout
  1
ﾚｲｱｳﾄ1
 70
     0
 71
     1
 10
0.0
 20
0.0
 11
12.0
 21
9.0
 12
0.0
 22
0.0
 32
0.0
 14
1.000000000000000E+20
 24
1.000000000000000E+20
 34
1.000000000000000E+20
 15
-1.000000000000000E+20
 25
-1.000000000000000E+20
 35
-1.000000000000000E+20
146
0.0
 13
0.0
 23
0.0
 33
0.0
 16
1.0
 26
0.0
 36
0.0
 17
0.0
 27
1.0
 37
0.0
 76
     0
330
155
  0
MLINESTYLE
  5
15C
102
{ACAD_REACTORS
330
15B
102
}
330
15B
100
AcDbMlineStyle
  2
STANDARD
 70
     0
  3

 62
   256
 51
90.0
 52
90.0
 71
     2
 49
0.5
 62
   256
  6
BYLAYER
 49
-0.5
 62
   256
  6
BYLAYER
  0
ACDBPLACEHOLDER
  5
183
102
{ACAD_REACTORS
330
182
102
}
330
182
  0
DICTIONARYVAR
  5
171
102
{ACAD_REACTORS
330
170
102
}
330
170
100
DictionaryVariables
280
     0
  1
0
  0
DICTIONARYVAR
  5
28A
102
{ACAD_REACTORS
330
170
102
}
330
170
100
DictionaryVariables
280
     0
  1
0
  0
DICTIONARYVAR
  5
289
102
{ACAD_REACTORS
330
170
102
}
330
170
100
DictionaryVariables
280
     0
  1
1
  0
ACMDATADICTIONARY
  5
7D2
102
{ACAD_REACTORS
330
242
102
}
330
242
100
AcDbDictionary
281
     1
  3
*A1
350
7D3
100
AcmDataDictionary
  0
DICTIONARY
  5
18A
102
{ACAD_REACTORS
330
189
102
}
330
189
100
AcDbDictionary
281
     1
  3
DWGSETTINGS
350
724
  0
ACAMGFILTERDAT
  5
264
102
{ACAD_REACTORS
330
25F
102
}
330
25F
100
AcAmgFilterDat
 70
    15
  1
DIMENSION,AMDT_*_DIM
  2
*
  3
*
  4
*
  5
*
290
     1
  0
ACAMGFILTERDAT
  5
263
102
{ACAD_REACTORS
330
25F
102
}
330
25F
100
AcAmgFilterDat
 70
    15
  1
*
  2
AM_FEA-AM_*
  3
*
  4
*
  5
*
290
     1
  0
ACAMGFILTERDAT
  5
260
102
{ACAD_REACTORS
330
25F
102
}
330
25F
100
AcAmgFilterDat
 70
    15
  1
HATCH
  2
*
  3
*
  4
*
  5
*
290
     1
  0
ACAMGFILTERDAT
  5
261
102
{ACAD_REACTORS
330
25F
102
}
330
25F
100
AcAmgFilterDat
 70
    15
  1
LINE
  2
8,8N,*-8,*-8N,AM_8,AM_8N,*-AM_8,*-AM_8N
  3
*
  4
*
  5
INSERT,STDPART2D
290
     1
  0
ACAMGFILTERDAT
  5
265
102
{ACAD_REACTORS
330
25F
102
}
330
25F
100
AcAmgFilterDat
 70
    15
  1
ARC
  2
AM_5
  3
*
  4
2
  5
INSERT
290
     0
  0
ACAMGFILTERDAT
  5
262
102
{ACAD_REACTORS
330
25F
102
}
330
25F
100
AcAmgFilterDat
 70
    15
  1
ACMFCFRAME,ACMDATUMTARGET,ACMDATUMID,ACMWELDSYM,ACMSURFSYM,ACMFEATID,ACMPARTREF,ACMBALLOON,AMDTEDGESYM,AMGSCREWCALCTABLE
  2
*
  3
*
  4
*
  5
*
290
     1
  0
LAYER_INDEX
  5
283
102
{ACAD_REACTORS
330
282
102
}
330
282
100
AcDbIndex
 40
2458625.620495509
100
AcDbLayerIndex
  8
0
360
284
 90
        4
  8
1
360
285
 90
       13
  8
10
360
286
 90
        0
  8
11
360
287
 90
        0
  8
2
360
288
 90
        0
  8
3
360
62E
 90
      107
  8
DEFPOINTS
360
62F
 90
        0
  0
ACMDATAENTRYBLOCK
  5
7D3
102
{ACAD_REACTORS
330
7D2
102
}
330
7D2
100
AcmDataEntry
100
AcmDataEntryBlock
  0
IDBUFFER
  5
284
330
0
100
AcDbIdBuffer
330
4BA
330
4D9
330
4DA
330
704
  0
IDBUFFER
  5
285
330
0
100
AcDbIdBuffer
330
47D
330
47E
330
47F
330
486
330
489
330
49B
330
4A1
330
4B2
330
4BF
330
4CE
330
4DE
330
4E0
330
4E9
  0
IDBUFFER
  5
286
330
0
100
AcDbIdBuffer
  0
IDBUFFER
  5
287
330
0
100
AcDbIdBuffer
  0
IDBUFFER
  5
288
330
0
100
AcDbIdBuffer
  0
IDBUFFER
  5
62E
330
0
100
AcDbIdBuffer
330
47A
330
47C
330
480
330
481
330
482
330
483
330
484
330
485
330
487
330
488
330
48A
330
48B
330
48C
330
48D
330
48E
330
48F
330
490
330
491
330
492
330
493
330
494
330
495
330
496
330
497
330
498
330
499
330
49A
330
49C
330
49D
330
49E
330
49F
330
4A0
330
4A2
330
4A3
330
4A4
330
4A5
330
4A6
330
4A7
330
4A8
330
4A9
330
4AA
330
4AB
330
4AC
330
4AD
330
4AE
330
4B0
330
4B1
330
4B3
330
4B4
330
4B9
330
4BB
330
4BD
330
4C0
330
4C1
330
4C2
330
4C4
330
4C5
330
4C6
330
4C7
330
4C8
330
4C9
330
4CA
330
4CB
330
4CC
330
4CD
330
4CF
330
4D0
330
4D1
330
4D2
330
4D3
330
4D4
330
4D6
330
4DB
330
4DC
330
4DD
330
4E1
330
4E2
330
4E3
330
4E5
330
4E6
330
4E7
330
4E8
330
4ED
330
4EE
330
4EF
330
4F0
330
4F1
330
4F2
330
4F4
330
4F6
330
4F7
330
4F9
330
4FA
330
4FB
330
4FC
330
4FD
330
4FE
330
62B
330
62C
330
62D
330
713
330
714
330
715
330
716
330
717
330
718
330
719
  0
IDBUFFER
  5
62F
330
0
100
AcDbIdBuffer
  0
ENDSEC
  0
EOF
