  0
SECTION
  2
HEADER
  9
$ACADVER
  1
AC1014
  9
$ACADMAINTVER
 70
     0
  9
$DWGCODEPAGE
  3
ANSI_932
  9
$INSBASE
 10
0.0
 20
0.0
 30
0.0
  9
$EXTMIN
 10
275.0
 20
325.0
 30
0.0
  9
$EXTMAX
 10
1258.835512
 20
875.0
 30
0.0
  9
$LIMMIN
 10
0.0
 20
0.0
  9
$LIMMAX
 10
1600.0
 20
1200.0
  9
$ORTHOMODE
 70
     1
  9
$REGENMODE
 70
     1
  9
$FILLMODE
 70
     1
  9
$QTEXTMODE
 70
     0
  9
$MIRRTEXT
 70
     1
  9
$DRAGMODE
 70
     1
  9
$LTSCALE
 40
100.0
  9
$OSMODE
 70
    32
  9
$ATTMODE
 70
     1
  9
$TEXTSIZE
 40
55.0
  9
$TRACEWID
 40
0.05
  9
$TEXTSTYLE
  7
BIGFONT
  9
$CLAYER
  8
0
  9
$CELTYPE
  6
BYLAYER
  9
$CECOLOR
 62
   256
  9
$CELTSCALE
 40
1.0
  9
$DELOBJ
 70
     1
  9
$DISPSILH
 70
     0
  9
$DIMSCALE
 40
10.0
  9
$DIMASZ
 40
3.0
  9
$DIMEXO
 40
2.0
  9
$DIMDLI
 40
0.38
  9
$DIMRND
 40
0.0
  9
$DIMDLE
 40
0.0
  9
$DIMEXE
 40
2.0
  9
$DIMTP
 40
0.0
  9
$DIMTM
 40
0.0
  9
$DIMTXT
 40
3.2
  9
$DIMCEN
 40
0.09
  9
$DIMTSZ
 40
0.0
  9
$DIMTOL
 70
     0
  9
$DIMLIM
 70
     0
  9
$DIMTIH
 70
     0
  9
$DIMTOH
 70
     0
  9
$DIMSE1
 70
     0
  9
$DIMSE2
 70
     0
  9
$DIMTAD
 70
     1
  9
$DIMZIN
 70
     0
  9
$DIMBLK
  1

  9
$DIMASO
 70
     0
  9
$DIMSHO
 70
     0
  9
$DIMPOST
  1

  9
$DIMAPOST
  1

  9
$DIMALT
 70
     0
  9
$DIMALTD
 70
     2
  9
$DIMALTF
 40
25.4
  9
$DIMLFAC
 40
1.0
  9
$DIMTOFL
 70
     0
  9
$DIMTVP
 40
1.6
  9
$DIMTIX
 70
     1
  9
$DIMSOXD
 70
     0
  9
$DIMSAH
 70
     0
  9
$DIMBLK1
  1

  9
$DIMBLK2
  1

  9
$DIMSTYLE
  2
STANDARD
  9
$DIMCLRD
 70
     0
  9
$DIMCLRE
 70
     0
  9
$DIMCLRT
 70
     0
  9
$DIMTFAC
 40
1.0
  9
$DIMGAP
 40
0.09
  9
$DIMJUST
 70
     0
  9
$DIMSD1
 70
     0
  9
$DIMSD2
 70
     0
  9
$DIMTOLJ
 70
     1
  9
$DIMTZIN
 70
     0
  9
$DIMALTZ
 70
     0
  9
$DIMALTTZ
 70
     0
  9
$DIMFIT
 70
     5
  9
$DIMUPT
 70
     0
  9
$DIMUNIT
 70
     2
  9
$DIMDEC
 70
     4
  9
$DIMTDEC
 70
     4
  9
$DIMALTU
 70
     2
  9
$DIMALTTD
 70
     2
  9
$DIMTXSTY
  7
BIGFONT
  9
$DIMAUNIT
 70
     0
  9
$LUNITS
 70
     2
  9
$LUPREC
 70
     4
  9
$SKETCHINC
 40
0.1
  9
$FILLETRAD
 40
0.0
  9
$AUNITS
 70
     0
  9
$AUPREC
 70
     0
  9
$MENU
  1
ACAD
  9
$ELEVATION
 40
0.0
  9
$PELEVATION
 40
0.0
  9
$THICKNESS
 40
0.0
  9
$LIMCHECK
 70
     0
  9
$BLIPMODE
 70
     0
  9
$CHAMFERA
 40
0.0
  9
$CHAMFERB
 40
0.0
  9
$CHAMFERC
 40
0.0
  9
$CHAMFERD
 40
0.0
  9
$SKPOLY
 70
     0
  9
$TDCREATE
 40
2450865.706190277
  9
$TDUPDATE
 40
2453089.735975474
  9
$TDINDWG
 40
0.0008658912
  9
$TDUSRTIMER
 40
0.0008658912
  9
$USRTIMER
 70
     1
  9
$ANGBASE
 50
0.0
  9
$ANGDIR
 70
     0
  9
$PDMODE
 70
     0
  9
$PDSIZE
 40
0.0
  9
$PLINEWID
 40
0.0
  9
$COORDS
 70
     2
  9
$SPLFRAME
 70
     0
  9
$SPLINETYPE
 70
     6
  9
$SPLINESEGS
 70
     8
  9
$ATTDIA
 70
     0
  9
$ATTREQ
 70
     1
  9
$HANDLING
 70
     1
  9
$HANDSEED
  5
191
  9
$SURFTAB1
 70
     6
  9
$SURFTAB2
 70
     6
  9
$SURFTYPE
 70
     6
  9
$SURFU
 70
     6
  9
$SURFV
 70
     6
  9
$UCSNAME
  2

  9
$UCSORG
 10
0.0
 20
0.0
 30
0.0
  9
$UCSXDIR
 10
1.0
 20
0.0
 30
0.0
  9
$UCSYDIR
 10
0.0
 20
1.0
 30
0.0
  9
$PUCSNAME
  2

  9
$PUCSORG
 10
0.0
 20
0.0
 30
0.0
  9
$PUCSXDIR
 10
1.0
 20
0.0
 30
0.0
  9
$PUCSYDIR
 10
0.0
 20
1.0
 30
0.0
  9
$USERI1
 70
     0
  9
$USERI2
 70
     0
  9
$USERI3
 70
     0
  9
$USERI4
 70
     0
  9
$USERI5
 70
     0
  9
$USERR1
 40
0.0
  9
$USERR2
 40
0.0
  9
$USERR3
 40
0.0
  9
$USERR4
 40
0.0
  9
$USERR5
 40
0.0
  9
$WORLDVIEW
 70
     1
  9
$SHADEDGE
 70
     3
  9
$SHADEDIF
 70
    70
  9
$TILEMODE
 70
     1
  9
$MAXACTVP
 70
    16
  9
$PINSBASE
 10
0.0
 20
0.0
 30
0.0
  9
$PLIMCHECK
 70
     0
  9
$PEXTMIN
 10
1.000000E+20
 20
1.000000E+20
 30
1.000000E+20
  9
$PEXTMAX
 10
-1.000000E+20
 20
-1.000000E+20
 30
-1.000000E+20
  9
$PLIMMIN
 10
0.0
 20
0.0
  9
$PLIMMAX
 10
12.0
 20
9.0
  9
$UNITMODE
 70
     0
  9
$VISRETAIN
 70
     0
  9
$PLINEGEN
 70
     1
  9
$PSLTSCALE
 70
     0
  9
$TREEDEPTH
 70
  3020
  9
$PICKSTYLE
 70
     1
  9
$CMLSTYLE
  2
STANDARD
  9
$CMLJUST
 70
     0
  9
$CMLSCALE
 40
1.0
  9
$PROXYGRAPHICS
 70
     1
  9
$MEASUREMENT
 70
     0
  0
ENDSEC
  0
SECTION
  2
CLASSES
  0
CLASS
  1
DICTIONARYVAR
  2
AcDbDictionaryVar
  3
"AutoCAD"
 90
        0
280
     0
281
     0
  0
ENDSEC
  0
SECTION
  2
TABLES
  0
TABLE
  2
VPORT
  5
15A
100
AcDbSymbolTable
 70
     1
  0
VPORT
  5
18C
100
AcDbSymbolTableRecord
100
AcDbViewportTableRecord
  2
*ACTIVE
 70
     0
 10
0.0
 20
0.0
 11
1.0
 21
1.0
 12
1064.173228
 22
668.466096
 13
0.0
 23
0.0
 14
25.0
 24
25.0
 15
50.0
 25
50.0
 16
0.0
 26
0.0
 36
1.0
 17
0.0
 27
0.0
 37
0.0
 40
1336.932192
 41
1.591963
 42
50.0
 43
0.0
 44
0.0
 50
0.0
 51
0.0
 71
     0
 72
   500
 73
     1
 74
     1
 75
     0
 76
     0
 77
     0
 78
     2
  0
ENDTAB
  0
TABLE
  2
LTYPE
  5
157
100
AcDbSymbolTable
 70
     3
  0
LTYPE
  5
163
100
AcDbSymbolTableRecord
100
AcDbLinetypeTableRecord
  2
BYBLOCK
 70
     0
  3

 72
    65
 73
     0
 40
0.0
  0
LTYPE
  5
164
100
AcDbSymbolTableRecord
100
AcDbLinetypeTableRecord
  2
BYLAYER
 70
     0
  3

 72
    65
 73
     0
 40
0.0
  0
LTYPE
  5
165
100
AcDbSymbolTableRecord
100
AcDbLinetypeTableRecord
  2
CONTINUOUS
 70
     0
  3
実線
 72
    65
 73
     0
 40
0.0
  0
LTYPE
  5
173
100
AcDbSymbolTableRecord
100
AcDbLinetypeTableRecord
  2
CENTER
 70
     0
  3
____ _ ____ _ ____ _ ____ _ ____ _ ____ _ ____
 72
    65
 73
     4
 40
2.0
 49
1.25
 74
     0
 49
-0.25
 74
     0
 49
0.25
 74
     0
 49
-0.25
 74
     0
  0
LTYPE
  5
174
100
AcDbSymbolTableRecord
100
AcDbLinetypeTableRecord
  2
TENSEN1
 70
     0
  3

 72
    65
 73
     2
 40
0.4
 49
0.3
 74
     0
 49
-0.1
 74
     0
  0
ENDTAB
  0
TABLE
  2
LAYER
  5
154
100
AcDbSymbolTable
 70
     6
  0
LAYER
  5
160
100
AcDbSymbolTableRecord
100
AcDbLayerTableRecord
  2
0
 70
     0
 62
     7
  6
CONTINUOUS
  0
LAYER
  5
179
100
AcDbSymbolTableRecord
100
AcDbLayerTableRecord
  2
1
 70
     0
 62
     1
  6
CENTER
  0
LAYER
  5
17A
100
AcDbSymbolTableRecord
100
AcDbLayerTableRecord
  2
4
 70
     0
 62
     4
  6
CONTINUOUS
  0
LAYER
  5
17B
100
AcDbSymbolTableRecord
100
AcDbLayerTableRecord
  2
10
 70
     0
 62
     7
  6
CONTINUOUS
  0
LAYER
  5
17C
100
AcDbSymbolTableRecord
100
AcDbLayerTableRecord
  2
11
 70
     0
 62
     3
  6
CONTINUOUS
  0
LAYER
  5
17D
100
AcDbSymbolTableRecord
100
AcDbLayerTableRecord
  2
2
 70
     0
 62
     2
  6
TENSEN1
  0
ENDTAB
  0
TABLE
  2
STYLE
  5
155
100
AcDbSymbolTable
 70
     4
  0
STYLE
  5
161
100
AcDbSymbolTableRecord
100
AcDbTextStyleTableRecord
  2
STANDARD
 70
     0
 40
0.0
 41
1.0
 50
0.0
 71
     0
 42
0.2
  3
TXT
  4
BIGFONT
  0
STYLE
  5
170
100
AcDbSymbolTableRecord
100
AcDbTextStyleTableRecord
  2
K80
 70
     0
 40
0.0
 41
0.8
 50
0.0
 71
     0
 42
0.2
  3
TXT
  4
BIGFONT
  0
STYLE
  5
171
100
AcDbSymbolTableRecord
100
AcDbTextStyleTableRecord
  2
07500
 70
     0
 40
0.0
 41
0.75
 50
0.0
 71
     0
 42
0.2
  3
TXT
  4
BIGFONT
  0
STYLE
  5
172
100
AcDbSymbolTableRecord
100
AcDbTextStyleTableRecord
  2
BIGFONT
 70
     0
 40
55.0
 41
1.0
 50
0.0
 71
     0
 42
55.0
  3
txt.shx
  4
bigfont
  0
ENDTAB
  0
TABLE
  2
VIEW
  5
158
100
AcDbSymbolTable
 70
     1
  0
VIEW
  5
175
100
AcDbSymbolTableRecord
100
AcDbViewTableRecord
  2
ALL
 70
     0
 40
2700.0
 10
2209.915966
 20
1350.0
 41
0.0
 11
0.0
 21
0.0
 31
1.0
 12
0.0
 22
0.0
 32
0.0
 42
0.0
 43
0.0
 44
0.0
 50
0.0
 71
     0
  0
ENDTAB
  0
TABLE
  2
UCS
  5
159
100
AcDbSymbolTable
 70
     0
  0
ENDTAB
  0
TABLE
  2
APPID
  5
15B
100
AcDbSymbolTable
 70
     1
  0
APPID
  5
162
100
AcDbSymbolTableRecord
100
AcDbRegAppTableRecord
  2
ACAD
 70
     0
  0
ENDTAB
  0
TABLE
  2
DIMSTYLE
  5
15C
100
AcDbSymbolTable
 70
     1
  0
DIMSTYLE
105
178
100
AcDbSymbolTableRecord
100
AcDbDimStyleTableRecord
  2
STANDARD
 70
     0
  3

  4

  5

  6

  7

 40
1.0
 41
0.18
 42
0.0625
 43
0.38
 44
0.18
 45
0.0
 46
0.0
 47
0.0
 48
0.0
140
0.18
141
0.09
142
0.0
143
25.4
144
1.0
145
0.0
146
1.0
147
0.09
 71
     0
 72
     0
 73
     1
 74
     1
 75
     0
 76
     0
 77
     0
 78
     0
170
     0
171
     2
172
     0
173
     0
174
     0
175
     0
176
     0
177
     0
178
     0
270
     2
271
     4
272
     4
273
     2
274
     2
340
172
275
     0
280
     0
281
     0
282
     0
283
     1
284
     0
285
     0
286
     0
287
     5
288
     0
  0
ENDTAB
  0
TABLE
  2
BLOCK_RECORD
  5
153
100
AcDbSymbolTable
 70
     2
  0
BLOCK_RECORD
  5
169
100
AcDbSymbolTableRecord
100
AcDbBlockTableRecord
  2
*MODEL_SPACE
  0
BLOCK_RECORD
  5
166
100
AcDbSymbolTableRecord
100
AcDbBlockTableRecord
  2
*PAPER_SPACE
  0
BLOCK_RECORD
  5
16E
100
AcDbSymbolTableRecord
100
AcDbBlockTableRecord
  2
WAKU
  0
BLOCK_RECORD
  5
16F
100
AcDbSymbolTableRecord
100
AcDbBlockTableRecord
  2
QQ
  0
ENDTAB
  0
ENDSEC
  0
SECTION
  2
BLOCKS
  0
BLOCK
  5
180
100
AcDbEntity
  8
0
100
AcDbBlockBegin
  2
*MODEL_SPACE
 70
     0
 10
0.0
 20
0.0
 30
0.0
  3
*MODEL_SPACE
  1

  0
ENDBLK
  5
181
100
AcDbEntity
  8
0
100
AcDbBlockEnd
  0
BLOCK
  5
17E
100
AcDbEntity
 67
     1
  8
0
100
AcDbBlockBegin
  2
*PAPER_SPACE
 70
     0
 10
0.0
 20
0.0
 30
0.0
  3
*PAPER_SPACE
  1

  0
ENDBLK
  5
17F
100
AcDbEntity
 67
     1
  8
0
100
AcDbBlockEnd
  0
BLOCK
  5
2F
100
AcDbEntity
  8
0
100
AcDbBlockBegin
  2
WAKU
 70
     0
 10
549.0
 20
0.0
 30
0.0
  3
WAKU
  1

  0
LINE
  5
30
100
AcDbEntity
  8
11
100
AcDbLine
 10
452.0
 20
12.0
 30
0.0
 11
549.0
 21
12.0
 31
0.0
  0
LINE
  5
31
100
AcDbEntity
  8
11
100
AcDbLine
 10
477.0
 20
0.0
 30
0.0
 11
477.0
 21
12.0
 31
0.0
  0
LINE
  5
32
100
AcDbEntity
  8
11
100
AcDbLine
 10
452.0
 20
12.0
 30
0.0
 11
452.0
 21
0.0
 31
0.0
  0
TEXT
  5
33
100
AcDbEntity
  8
11
100
AcDbText
 10
454.0
 20
8.5
 30
0.0
 40
2.5
  1
尺度
100
AcDbText
  0
TEXT
  5
34
100
AcDbEntity
  8
11
100
AcDbText
 10
479.0
 20
8.5
 30
0.0
 40
2.5
  1
図番
100
AcDbText
  0
ENDBLK
  5
35
100
AcDbEntity
  8
0
100
AcDbBlockEnd
  0
BLOCK
  5
36
100
AcDbEntity
  8
0
100
AcDbBlockBegin
  2
QQ
 70
     0
 10
270.0
 20
0.0
 30
0.0
  3
QQ
  1

  0
LINE
  5
37
100
AcDbEntity
  8
11
100
AcDbLine
 10
173.0
 20
36.0
 30
0.0
 11
270.0
 21
36.0
 31
0.0
  0
TEXT
  5
38
100
AcDbEntity
  8
11
100
AcDbText
 10
175.0
 20
32.5
 30
0.0
 40
2.5
  1
部品名称
100
AcDbText
  0
LINE
  5
39
100
AcDbEntity
  8
11
100
AcDbLine
 10
173.0
 20
36.0
 30
0.0
 11
173.0
 21
0.0
 31
0.0
  0
LINE
  5
3A
100
AcDbEntity
  8
11
100
AcDbLine
 10
173.0
 20
24.0
 30
0.0
 11
270.0
 21
24.0
 31
0.0
  0
TEXT
  5
3B
100
AcDbEntity
  8
11
100
AcDbText
 10
175.0
 20
20.5
 30
0.0
 40
2.5
  1
品番
100
AcDbText
  0
LINE
  5
3C
100
AcDbEntity
  8
11
100
AcDbLine
 10
173.0
 20
12.0
 30
0.0
 11
270.0
 21
12.0
 31
0.0
  0
TEXT
  5
3D
100
AcDbEntity
  8
11
100
AcDbText
 10
175.0
 20
8.5
 30
0.0
 40
2.5
  1
尺度
100
AcDbText
  0
TEXT
  5
3E
100
AcDbEntity
  8
11
100
AcDbText
 10
200.0
 20
8.5
 30
0.0
 40
2.5
  1
図番
100
AcDbText
  0
LINE
  5
3F
100
AcDbEntity
  8
11
100
AcDbLine
 10
198.0
 20
0.0
 30
0.0
 11
198.0
 21
12.0
 31
0.0
  0
ENDBLK
  5
40
100
AcDbEntity
  8
0
100
AcDbBlockEnd
  0
ENDSEC
  0
SECTION
  2
ENTITIES
  0
CIRCLE
  5
41
100
AcDbEntity
  8
0
100
AcDbCircle
 10
550.0
 20
600.0
 30
0.0
 40
225.0
  0
LINE
  5
42
100
AcDbEntity
  8
0
100
AcDbLine
 10
455.553677
 20
447.609345
 30
0.0
 11
535.997482
 21
555.25194
 31
0.0
  0
ARC
  5
43
100
AcDbEntity
  8
0
100
AcDbCircle
 10
542.145415
 20
550.114628
 30
0.0
 40
8.0
100
AcDbArc
 50
81.240525
 51
140.112732
  0
LINE
  5
44
100
AcDbEntity
  8
0
100
AcDbLine
 10
644.446323
 20
447.609345
 30
0.0
 11
564.002518
 21
555.25194
 31
0.0
  0
ARC
  5
45
100
AcDbEntity
  8
0
100
AcDbCircle
 10
557.854585
 20
550.114628
 30
0.0
 40
8.0
100
AcDbArc
 50
39.887268
 51
98.759475
  0
ARC
  5
46
100
AcDbEntity
  8
0
100
AcDbCircle
 10
550.0
 20
600.0
 30
0.0
 40
42.5
100
AcDbArc
 50
261.016617
 51
278.983383
  0
ARC
  5
47
100
AcDbEntity
  8
0
100
AcDbCircle
 10
550.0
 20
600.0
 30
0.0
 40
42.5
100
AcDbArc
 50
333.016617
 51
350.983383
  0
ARC
  5
48
100
AcDbEntity
  8
0
100
AcDbCircle
 10
599.871008
 20
592.054726
 30
0.0
 40
8.0
100
AcDbArc
 50
111.887268
 51
170.759475
  0
LINE
  5
49
100
AcDbEntity
  8
0
100
AcDbLine
 10
724.117644
 20
642.732489
 30
0.0
 11
596.88495
 21
599.489275
 31
0.0
  0
ARC
  5
4A
100
AcDbEntity
  8
0
100
AcDbCircle
 10
727.496509
 20
632.790996
 30
0.0
 40
10.5
100
AcDbArc
 50
10.603014
 51
108.771614
  0
ARC
  5
4B
100
AcDbEntity
  8
0
100
AcDbCircle
 10
595.016608
 20
577.114418
 30
0.0
 40
8.0
100
AcDbArc
 50
153.240525
 51
212.112732
  0
LINE
  5
4C
100
AcDbEntity
  8
0
100
AcDbLine
 10
665.746606
 20
463.084907
 30
0.0
 11
588.230918
 21
572.854903
 31
0.0
  0
ARC
  5
4D
100
AcDbEntity
  8
0
100
AcDbCircle
 10
550.0
 20
600.0
 30
0.0
 40
42.5
100
AcDbArc
 50
45.016617
 51
62.983383
  0
ARC
  5
4E
100
AcDbEntity
  8
0
100
AcDbCircle
 10
572.967393
 20
644.974923
 30
0.0
 40
8.0
100
AcDbArc
 50
183.887268
 51
242.759475
  0
LINE
  5
4F
100
AcDbEntity
  8
0
100
AcDbLine
 10
563.164299
 20
778.800785
 30
0.0
 11
564.973974
 21
644.432415
 31
0.0
  0
ARC
  5
50
100
AcDbEntity
  8
0
100
AcDbCircle
 10
585.676378
 20
635.741304
 30
0.0
 40
8.0
100
AcDbArc
 50
225.240525
 51
284.112732
  0
LINE
  5
51
100
AcDbEntity
  8
0
100
AcDbLine
 10
715.98166
 20
667.772474
 30
0.0
 11
587.630525
 21
627.971467
 31
0.0
  0
ARC
  5
52
100
AcDbEntity
  8
0
100
AcDbCircle
 10
550.0
 20
600.0
 30
0.0
 40
42.5
100
AcDbArc
 50
117.016617
 51
134.983383
  0
ARC
  5
53
100
AcDbEntity
  8
0
100
AcDbCircle
 10
514.323622
 20
635.741304
 30
0.0
 40
8.0
100
AcDbArc
 50
255.887268
 51
314.759475
  0
LINE
  5
54
100
AcDbEntity
  8
0
100
AcDbLine
 10
384.01834
 20
667.772474
 30
0.0
 11
512.369475
 21
627.971467
 31
0.0
  0
ARC
  5
55
100
AcDbEntity
  8
0
100
AcDbCircle
 10
527.032607
 20
644.974923
 30
0.0
 40
8.0
100
AcDbArc
 50
297.240525
 51
356.112732
  0
LINE
  5
56
100
AcDbEntity
  8
0
100
AcDbLine
 10
536.835701
 20
778.800785
 30
0.0
 11
535.026026
 21
644.432415
 31
0.0
  0
ARC
  5
57
100
AcDbEntity
  8
0
100
AcDbCircle
 10
550.0
 20
600.0
 30
0.0
 40
42.5
100
AcDbArc
 50
189.016617
 51
206.983383
  0
ARC
  5
58
100
AcDbEntity
  8
0
100
AcDbCircle
 10
504.983392
 20
577.114418
 30
0.0
 40
8.0
100
AcDbArc
 50
327.887268
 51
26.759475
  0
LINE
  5
59
100
AcDbEntity
  8
0
100
AcDbLine
 10
434.253394
 20
463.084907
 30
0.0
 11
511.769082
 21
572.854903
 31
0.0
  0
ARC
  5
5A
100
AcDbEntity
  8
0
100
AcDbCircle
 10
500.128992
 20
592.054726
 30
0.0
 40
8.0
100
AcDbArc
 50
9.240525
 51
68.112732
  0
LINE
  5
5B
100
AcDbEntity
  8
0
100
AcDbLine
 10
375.882356
 20
642.732489
 30
0.0
 11
503.11505
 21
599.489275
 31
0.0
  0
LINE
  5
5C
100
AcDbEntity
  8
1
100
AcDbLine
 10
581.19397
 20
800.0
 30
0.0
 11
518.80603
 21
800.0
 31
0.0
  0
TEXT
  5
5D
100
AcDbEntity
  8
4
100
AcDbText
 10
732.890485
 20
169.402423
 30
0.0
 40
6.4
  1
           
100
AcDbText
  0
LINE
  5
5E
100
AcDbEntity
  8
1
100
AcDbLine
 10
825.0
 20
600.0
 30
0.0
 11
275.0
 21
600.0
 31
0.0
  0
LINE
  5
5F
100
AcDbEntity
  8
1
100
AcDbLine
 10
550.0
 20
875.0
 30
0.0
 11
550.0
 21
325.0
 31
0.0
  0
CIRCLE
  5
67
100
AcDbEntity
  8
0
100
AcDbCircle
 10
550.409555
 20
600.089749
 30
0.0
 40
37.5
  0
ARC
  5
68
100
AcDbEntity
  8
0
100
AcDbCircle
 10
549.851016
 20
800.245487
 30
0.0
 40
20.288283
100
AcDbArc
 50
180.671432
 51
359.328568
  0
ARC
  5
69
100
AcDbEntity
  8
0
100
AcDbCircle
 10
577.015485
 20
798.678882
 30
0.0
 40
7.004781
100
AcDbArc
 50
100.898834
 51
169.064297
  0
ARC
  5
6A
100
AcDbEntity
  8
0
100
AcDbCircle
 10
575.041591
 20
777.303198
 30
0.0
 40
12.036989
100
AcDbArc
 50
105.024629
 51
174.965268
  0
ARC
  5
6B
100
AcDbEntity
  8
0
100
AcDbCircle
 10
525.127246
 20
777.426518
 30
0.0
 40
11.723975
100
AcDbArc
 50
6.238339
 51
76.261083
  0
ARC
  5
6C
100
AcDbEntity
  8
0
100
AcDbCircle
 10
550.409555
 20
600.089749
 30
0.0
 40
207.0
100
AcDbArc
 50
98.085329
 51
82.237091
  0
ARC
  5
6D
100
AcDbEntity
  8
0
100
AcDbCircle
 10
550.409555
 20
600.089749
 30
0.0
 40
190.0
100
AcDbArc
 50
97.620104
 51
154.408281
  0
POINT
  5
6E
100
AcDbEntity
  8
0
100
AcDbPoint
 10
527.247944
 20
803.423125
 30
0.0
  0
POINT
  5
6F
100
AcDbEntity
  8
0
100
AcDbPoint
 10
523.812708
 20
805.219472
 30
0.0
  0
ARC
  5
70
100
AcDbEntity
  8
0
100
AcDbCircle
 10
522.202637
 20
797.646351
 30
0.0
 40
7.726164
100
AcDbArc
 50
17.658998
 51
78.576919
  0
LINE
  5
71
100
AcDbEntity
  8
0
100
AcDbLine
 10
523.772765
 20
805.219472
 30
0.0
 11
521.256254
 21
805.019878
 31
0.0
  0
LINE
  5
72
100
AcDbEntity
  8
0
100
AcDbLine
 10
528.08678
 20
788.772871
 30
0.0
 11
525.210775
 21
788.413606
 31
0.0
  0
LINE
  5
73
100
AcDbEntity
  8
0
100
AcDbLine
 10
573.570722
 20
788.646922
 30
0.0
 11
571.845122
 21
788.934332
 31
0.0
  0
LINE
  5
74
100
AcDbEntity
  8
0
100
AcDbLine
 10
578.459932
 20
805.173358
 30
0.0
 11
575.655833
 21
805.532623
 31
0.0
  0
ARC
  5
75
100
AcDbEntity
  8
0
100
AcDbCircle
 10
704.28538
 20
682.814668
 30
0.0
 40
18.929411
100
AcDbArc
 50
307.365863
 51
350.297424
  0
ARC
  5
76
100
AcDbEntity
  8
0
100
AcDbCircle
 10
550.409555
 20
600.089749
 30
0.0
 40
190.0
100
AcDbArc
 50
24.629423
 51
83.034364
  0
LINE
  5
77
100
AcDbEntity
  8
0
100
AcDbLine
 10
737.626679
 20
631.358337
 30
0.0
 11
737.626679
 21
634.832629
 31
0.0
  0
ARC
  5
78
100
AcDbEntity
  8
0
100
AcDbCircle
 10
550.409555
 20
600.089749
 30
0.0
 40
190.0
100
AcDbArc
 50
313.890456
 51
9.575845
  0
ARC
  5
7A
100
AcDbEntity
  8
0
100
AcDbCircle
 10
673.956196
 20
474.846292
 30
0.0
 40
14.338249
100
AcDbArc
 50
234.546162
 51
304.772163
  0
ARC
  5
7B
100
AcDbEntity
  8
0
100
AcDbCircle
 10
634.279325
 20
442.46901
 30
0.0
 40
11.405176
100
AcDbArc
 50
299.620138
 51
27.097809
  0
ARC
  5
7C
100
AcDbEntity
  8
0
100
AcDbCircle
 10
426.405041
 20
475.20109
 30
0.0
 40
14.487988
100
AcDbArc
 50
235.830328
 51
301.567398
  0
ARC
  5
7D
100
AcDbEntity
  8
0
100
AcDbCircle
 10
465.462671
 20
442.470047
 30
0.0
 40
11.279677
100
AcDbArc
 50
152.825125
 51
232.042201
  0
ARC
  5
7E
100
AcDbEntity
  8
0
100
AcDbCircle
 10
550.409555
 20
600.089749
 30
0.0
 40
190.0
100
AcDbArc
 50
242.295887
 51
298.113603
  0
LINE
  5
7F
100
AcDbEntity
  8
0
100
AcDbLine
 10
462.336061
 20
431.791033
 30
0.0
 11
458.048345
 21
433.933512
 31
0.0
  0
LINE
  5
80
100
AcDbEntity
  8
0
100
AcDbLine
 10
418.506126
 20
463.095019
 30
0.0
 11
416.719582
 21
465.11847
 31
0.0
  0
ARC
  5
82
100
AcDbEntity
  8
0
100
AcDbCircle
 10
550.409555
 20
600.089749
 30
0.0
 40
190.0
100
AcDbArc
 50
169.53457
 51
225.298506
  0
ARC
  5
84
100
AcDbEntity
  8
0
100
AcDbCircle
 10
388.215037
 20
677.271721
 30
0.0
 40
10.464788
100
AcDbArc
 50
152.856565
 51
247.293393
  0
ARC
  5
85
100
AcDbEntity
  8
0
100
AcDbCircle
 10
373.312721
 20
633.201029
 30
0.0
 40
9.829213
100
AcDbArc
 50
74.040612
 51
171.688331
  0
LINE
  5
CA
100
AcDbEntity
  8
1
100
AcDbLine
 10
1258.835512
 20
600.0
 30
0.0
 11
1145.159433
 21
600.0
 31
0.0
  0
ARC
  5
CB
100
AcDbEntity
  8
0
100
AcDbCircle
 10
1200.0
 20
393.055278
 30
0.0
 40
18.0
100
AcDbArc
 50
180.0
 51
0.0
  0
ARC
  5
CC
100
AcDbEntity
  8
0
100
AcDbCircle
 10
1200.0
 20
806.944722
 30
0.0
 40
18.0
100
AcDbArc
 50
0.0
 51
180.0
  0
LINE
  5
CD
100
AcDbEntity
  8
0
100
AcDbLine
 10
1182.0
 20
600.055278
 30
0.0
 11
1182.0
 21
393.055278
 31
0.0
  0
LINE
  5
CE
100
AcDbEntity
  8
0
100
AcDbLine
 10
1182.0
 20
599.944722
 30
0.0
 11
1182.0
 21
806.944722
 31
0.0
  0
LINE
  5
CF
100
AcDbEntity
  8
0
100
AcDbLine
 10
1240.0
 20
600.055278
 30
0.0
 11
1240.0
 21
566.555278
 31
0.0
  0
LINE
  5
D0
100
AcDbEntity
  8
0
100
AcDbLine
 10
1218.0
 20
393.055278
 30
0.0
 11
1218.0
 21
600.055278
 31
0.0
  0
LINE
  5
D1
100
AcDbEntity
  8
1
100
AcDbLine
 10
1200.0
 20
600.055278
 30
0.0
 11
1200.0
 21
361.555278
 31
0.0
  0
ARC
  5
D2
100
AcDbEntity
  8
0
100
AcDbCircle
 10
1235.88371
 20
566.686425
 30
0.0
 40
4.132783
100
AcDbArc
 50
271.612431
 51
5.12049
  0
LINE
  5
D3
100
AcDbEntity
  8
1
100
AcDbLine
 10
1200.0
 20
599.944722
 30
0.0
 11
1200.0
 21
838.444722
 31
0.0
  0
LINE
  5
D4
100
AcDbEntity
  8
0
100
AcDbLine
 10
1218.0
 20
806.944722
 30
0.0
 11
1218.0
 21
599.944722
 31
0.0
  0
ARC
  5
D5
100
AcDbEntity
  8
0
100
AcDbCircle
 10
1235.88371
 20
633.313575
 30
0.0
 40
4.132783
100
AcDbArc
 50
354.87951
 51
88.387569
  0
LINE
  5
D6
100
AcDbEntity
  8
0
100
AcDbLine
 10
1240.0
 20
599.944722
 30
0.0
 11
1240.0
 21
633.444722
 31
0.0
  0
POINT
  5
ED
100
AcDbEntity
  8
1
100
AcDbPoint
 10
1232.146415
 20
801.383087
 30
0.0
  0
LINE
  5
EE
100
AcDbEntity
  8
1
100
AcDbLine
 10
1233.146415
 20
801.383087
 30
0.0
 11
1169.599324
 21
801.383087
 31
0.0
  0
LINE
  5
10E
100
AcDbEntity
  8
0
100
AcDbLine
 10
1236.146415
 20
637.383087
 30
0.0
 11
1219.146415
 21
637.383087
 31
0.0
  0
LINE
  5
10F
100
AcDbEntity
  8
0
100
AcDbLine
 10
1236.146415
 20
562.383087
 30
0.0
 11
1219.146415
 21
562.383087
 31
0.0
  0
LINE
  5
110
100
AcDbEntity
  8
0
100
AcDbLine
 10
1219.146415
 20
640.383087
 30
0.0
 11
1218.146415
 21
640.383087
 31
0.0
  0
LINE
  5
111
100
AcDbEntity
  8
2
100
AcDbLine
 10
1186.146415
 20
637.383087
 30
0.0
 11
1186.146415
 21
562.383087
 31
0.0
  0
ARC
  5
112
100
AcDbEntity
  8
2
100
AcDbCircle
 10
1205.155829
 20
592.983505
 30
0.0
 40
36.024206
100
AcDbArc
 50
238.150863
 51
291.137487
  0
ARC
  5
113
100
AcDbEntity
  8
2
100
AcDbCircle
 10
1205.222686
 20
606.069527
 30
0.0
 40
36.666649
100
AcDbArc
 50
69.361809
 51
121.349841
  0
LINE
  5
114
100
AcDbEntity
  8
0
100
AcDbLine
 10
1219.146415
 20
640.383087
 30
0.0
 11
1219.146415
 21
559.383087
 31
0.0
  0
LINE
  5
115
100
AcDbEntity
  8
0
100
AcDbLine
 10
1219.146415
 20
559.383087
 30
0.0
 11
1218.146415
 21
559.383087
 31
0.0
  0
CIRCLE
  5
188
100
AcDbEntity
  8
0
100
AcDbCircle
 10
550.0
 20
800.0
 30
0.0
 40
11.0
  0
CIRCLE
  5
189
100
AcDbEntity
  8
0
100
AcDbCircle
 10
550.0
 20
800.0
 30
0.0
 40
8.0
  0
CIRCLE
  5
18A
100
AcDbEntity
  8
0
100
AcDbCircle
 10
550.0
 20
800.0
 30
0.0
 40
7.0
  0
ENDSEC
  0
SECTION
  2
OBJECTS
  0
DICTIONARY
  5
15E
100
AcDbDictionary
  3
ACAD_GROUP
350
15F
  3
ACAD_MLINESTYLE
350
16C
  3
ACDBVARIABLEDICTIONARY
350
182
  0
DICTIONARY
  5
15F
102
{ACAD_REACTORS
330
15E
102
}
100
AcDbDictionary
  0
DICTIONARY
  5
16C
102
{ACAD_REACTORS
330
15E
102
}
100
AcDbDictionary
  3
STANDARD
350
16D
  0
DICTIONARY
  5
182
102
{ACAD_REACTORS
330
15E
102
}
100
AcDbDictionary
  3
DIMADEC
350
183
  0
MLINESTYLE
  5
16D
102
{ACAD_REACTORS
330
16C
102
}
100
AcDbMlineStyle
  2
STANDARD
 70
     0
  3

 62
   256
 51
90.0
 52
90.0
 71
     2
 49
0.5
 62
   256
  6
BYLAYER
 49
-0.5
 62
   256
  6
BYLAYER
  0
DICTIONARYVAR
  5
183
102
{ACAD_REACTORS
330
182
102
}
100
DictionaryVariables
280
     0
  1
0
  0
ENDSEC
  0
EOF
