  0
SECTION
  2
HEADER
  9
$ACADVER
  1
AC1014
  9
$ACADMAINTVER
 70
     0
  9
$DWGCODEPAGE
  3
ANSI_932
  9
$INSBASE
 10
0.0
 20
0.0
 30
0.0
  9
$EXTMIN
 10
37.5
 20
97.5
 30
0.0
  9
$EXTMAX
 10
738.0
 20
502.5
 30
0.0
  9
$LIMMIN
 10
0.0
 20
0.0
  9
$LIMMAX
 10
880.0
 20
610.0
  9
$ORTHOMODE
 70
     1
  9
$REGENMODE
 70
     1
  9
$FILLMODE
 70
     1
  9
$QTEXTMODE
 70
     0
  9
$MIRRTEXT
 70
     1
  9
$DRAGMODE
 70
     1
  9
$LTSCALE
 40
50.0
  9
$OSMODE
 70
    32
  9
$ATTMODE
 70
     1
  9
$TEXTSIZE
 40
30.0
  9
$TRACEWID
 40
0.05
  9
$TEXTSTYLE
  7
BIGFONT
  9
$CLAYER
  8
0
  9
$CELTYPE
  6
BYLAYER
  9
$CECOLOR
 62
   256
  9
$CELTSCALE
 40
1.0
  9
$DELOBJ
 70
     1
  9
$DISPSILH
 70
     0
  9
$DIMSCALE
 40
5.0
  9
$DIMASZ
 40
3.0
  9
$DIMEXO
 40
2.0
  9
$DIMDLI
 40
0.38
  9
$DIMRND
 40
0.0
  9
$DIMDLE
 40
0.0
  9
$DIMEXE
 40
2.0
  9
$DIMTP
 40
0.0
  9
$DIMTM
 40
0.0
  9
$DIMTXT
 40
3.2
  9
$DIMCEN
 40
0.09
  9
$DIMTSZ
 40
0.0
  9
$DIMTOL
 70
     0
  9
$DIMLIM
 70
     0
  9
$DIMTIH
 70
     0
  9
$DIMTOH
 70
     0
  9
$DIMSE1
 70
     0
  9
$DIMSE2
 70
     0
  9
$DIMTAD
 70
     1
  9
$DIMZIN
 70
     0
  9
$DIMBLK
  1

  9
$DIMASO
 70
     0
  9
$DIMSHO
 70
     0
  9
$DIMPOST
  1

  9
$DIMAPOST
  1

  9
$DIMALT
 70
     0
  9
$DIMALTD
 70
     2
  9
$DIMALTF
 40
25.4
  9
$DIMLFAC
 40
1.0
  9
$DIMTOFL
 70
     0
  9
$DIMTVP
 40
1.6
  9
$DIMTIX
 70
     1
  9
$DIMSOXD
 70
     0
  9
$DIMSAH
 70
     0
  9
$DIMBLK1
  1

  9
$DIMBLK2
  1

  9
$DIMSTYLE
  2
STANDARD
  9
$DIMCLRD
 70
     0
  9
$DIMCLRE
 70
     0
  9
$DIMCLRT
 70
     0
  9
$DIMTFAC
 40
1.0
  9
$DIMGAP
 40
0.09
  9
$DIMJUST
 70
     0
  9
$DIMSD1
 70
     0
  9
$DIMSD2
 70
     0
  9
$DIMTOLJ
 70
     1
  9
$DIMTZIN
 70
     0
  9
$DIMALTZ
 70
     0
  9
$DIMALTTZ
 70
     0
  9
$DIMFIT
 70
     5
  9
$DIMUPT
 70
     0
  9
$DIMUNIT
 70
     2
  9
$DIMDEC
 70
     4
  9
$DIMTDEC
 70
     4
  9
$DIMALTU
 70
     2
  9
$DIMALTTD
 70
     2
  9
$DIMTXSTY
  7
BIGFONT
  9
$DIMAUNIT
 70
     0
  9
$LUNITS
 70
     2
  9
$LUPREC
 70
     4
  9
$SKETCHINC
 40
0.1
  9
$FILLETRAD
 40
0.0
  9
$AUNITS
 70
     0
  9
$AUPREC
 70
     0
  9
$MENU
  1
ACAD
  9
$ELEVATION
 40
0.0
  9
$PELEVATION
 40
0.0
  9
$THICKNESS
 40
0.0
  9
$LIMCHECK
 70
     0
  9
$BLIPMODE
 70
     0
  9
$CHAMFERA
 40
0.0
  9
$CHAMFERB
 40
0.0
  9
$CHAMFERC
 40
0.0
  9
$CHAMFERD
 40
0.0
  9
$SKPOLY
 70
     0
  9
$TDCREATE
 40
2450865.702856944
  9
$TDUPDATE
 40
2453089.734321643
  9
$TDINDWG
 40
0.0007336806
  9
$TDUSRTIMER
 40
0.0007336806
  9
$USRTIMER
 70
     1
  9
$ANGBASE
 50
0.0
  9
$ANGDIR
 70
     0
  9
$PDMODE
 70
     0
  9
$PDSIZE
 40
0.0
  9
$PLINEWID
 40
0.0
  9
$COORDS
 70
     2
  9
$SPLFRAME
 70
     0
  9
$SPLINETYPE
 70
     6
  9
$SPLINESEGS
 70
     8
  9
$ATTDIA
 70
     0
  9
$ATTREQ
 70
     1
  9
$HANDLING
 70
     1
  9
$HANDSEED
  5
1ED
  9
$SURFTAB1
 70
     6
  9
$SURFTAB2
 70
     6
  9
$SURFTYPE
 70
     6
  9
$SURFU
 70
     6
  9
$SURFV
 70
     6
  9
$UCSNAME
  2

  9
$UCSORG
 10
0.0
 20
0.0
 30
0.0
  9
$UCSXDIR
 10
1.0
 20
0.0
 30
0.0
  9
$UCSYDIR
 10
0.0
 20
1.0
 30
0.0
  9
$PUCSNAME
  2

  9
$PUCSORG
 10
0.0
 20
0.0
 30
0.0
  9
$PUCSXDIR
 10
1.0
 20
0.0
 30
0.0
  9
$PUCSYDIR
 10
0.0
 20
1.0
 30
0.0
  9
$USERI1
 70
     0
  9
$USERI2
 70
     0
  9
$USERI3
 70
     0
  9
$USERI4
 70
     0
  9
$USERI5
 70
     0
  9
$USERR1
 40
0.0
  9
$USERR2
 40
0.0
  9
$USERR3
 40
0.0
  9
$USERR4
 40
0.0
  9
$USERR5
 40
0.0
  9
$WORLDVIEW
 70
     1
  9
$SHADEDGE
 70
     3
  9
$SHADEDIF
 70
    70
  9
$TILEMODE
 70
     1
  9
$MAXACTVP
 70
    16
  9
$PINSBASE
 10
0.0
 20
0.0
 30
0.0
  9
$PLIMCHECK
 70
     0
  9
$PEXTMIN
 10
1.000000E+20
 20
1.000000E+20
 30
1.000000E+20
  9
$PEXTMAX
 10
-1.000000E+20
 20
-1.000000E+20
 30
-1.000000E+20
  9
$PLIMMIN
 10
0.0
 20
0.0
  9
$PLIMMAX
 10
12.0
 20
9.0
  9
$UNITMODE
 70
     0
  9
$VISRETAIN
 70
     0
  9
$PLINEGEN
 70
     1
  9
$PSLTSCALE
 70
     0
  9
$TREEDEPTH
 70
  3020
  9
$PICKSTYLE
 70
     1
  9
$CMLSTYLE
  2
STANDARD
  9
$CMLJUST
 70
     0
  9
$CMLSCALE
 40
1.0
  9
$PROXYGRAPHICS
 70
     1
  9
$MEASUREMENT
 70
     0
  0
ENDSEC
  0
SECTION
  2
CLASSES
  0
CLASS
  1
DICTIONARYVAR
  2
AcDbDictionaryVar
  3
"AutoCAD"
 90
        0
280
     0
281
     0
  0
ENDSEC
  0
SECTION
  2
TABLES
  0
TABLE
  2
VPORT
  5
1B8
100
AcDbSymbolTable
 70
     1
  0
VPORT
  5
1E8
100
AcDbSymbolTableRecord
100
AcDbViewportTableRecord
  2
*ACTIVE
 70
     0
 10
0.0
 20
0.0
 11
1.0
 21
1.0
 12
540.954724
 22
339.803599
 13
0.0
 23
0.0
 14
15.0
 24
15.0
 15
30.0
 25
30.0
 16
0.0
 26
0.0
 36
1.0
 17
0.0
 27
0.0
 37
0.0
 40
679.607197
 41
1.591963
 42
50.0
 43
0.0
 44
0.0
 50
0.0
 51
0.0
 71
     0
 72
   500
 73
     1
 74
     1
 75
     0
 76
     0
 77
     0
 78
     2
  0
ENDTAB
  0
TABLE
  2
LTYPE
  5
1B5
100
AcDbSymbolTable
 70
     3
  0
LTYPE
  5
1C1
100
AcDbSymbolTableRecord
100
AcDbLinetypeTableRecord
  2
BYBLOCK
 70
     0
  3

 72
    65
 73
     0
 40
0.0
  0
LTYPE
  5
1C2
100
AcDbSymbolTableRecord
100
AcDbLinetypeTableRecord
  2
BYLAYER
 70
     0
  3

 72
    65
 73
     0
 40
0.0
  0
LTYPE
  5
1C3
100
AcDbSymbolTableRecord
100
AcDbLinetypeTableRecord
  2
CONTINUOUS
 70
     0
  3
実線
 72
    65
 73
     0
 40
0.0
  0
LTYPE
  5
1D1
100
AcDbSymbolTableRecord
100
AcDbLinetypeTableRecord
  2
CENTER
 70
     0
  3
____ _ ____ _ ____ _ ____ _ ____ _ ____ _ ____
 72
    65
 73
     4
 40
2.0
 49
1.25
 74
     0
 49
-0.25
 74
     0
 49
0.25
 74
     0
 49
-0.25
 74
     0
  0
LTYPE
  5
1D2
100
AcDbSymbolTableRecord
100
AcDbLinetypeTableRecord
  2
TENSEN1
 70
     0
  3

 72
    65
 73
     2
 40
0.4
 49
0.3
 74
     0
 49
-0.1
 74
     0
  0
ENDTAB
  0
TABLE
  2
LAYER
  5
1B2
100
AcDbSymbolTable
 70
     5
  0
LAYER
  5
1BE
100
AcDbSymbolTableRecord
100
AcDbLayerTableRecord
  2
0
 70
     0
 62
     7
  6
CONTINUOUS
  0
LAYER
  5
1D7
100
AcDbSymbolTableRecord
100
AcDbLayerTableRecord
  2
1
 70
     0
 62
     1
  6
CENTER
  0
LAYER
  5
1D8
100
AcDbSymbolTableRecord
100
AcDbLayerTableRecord
  2
10
 70
     0
 62
     7
  6
CONTINUOUS
  0
LAYER
  5
1D9
100
AcDbSymbolTableRecord
100
AcDbLayerTableRecord
  2
11
 70
     0
 62
     3
  6
CONTINUOUS
  0
LAYER
  5
1DA
100
AcDbSymbolTableRecord
100
AcDbLayerTableRecord
  2
2
 70
     0
 62
     2
  6
TENSEN1
  0
ENDTAB
  0
TABLE
  2
STYLE
  5
1B3
100
AcDbSymbolTable
 70
     4
  0
STYLE
  5
1BF
100
AcDbSymbolTableRecord
100
AcDbTextStyleTableRecord
  2
STANDARD
 70
     0
 40
0.0
 41
1.0
 50
0.0
 71
     0
 42
0.2
  3
TXT
  4
BIGFONT
  0
STYLE
  5
1CE
100
AcDbSymbolTableRecord
100
AcDbTextStyleTableRecord
  2
K80
 70
     0
 40
0.0
 41
0.8
 50
0.0
 71
     0
 42
0.2
  3
TXT
  4
BIGFONT
  0
STYLE
  5
1CF
100
AcDbSymbolTableRecord
100
AcDbTextStyleTableRecord
  2
07500
 70
     0
 40
0.0
 41
0.75
 50
0.0
 71
     0
 42
0.2
  3
TXT
  4
BIGFONT
  0
STYLE
  5
1D0
100
AcDbSymbolTableRecord
100
AcDbTextStyleTableRecord
  2
BIGFONT
 70
     0
 40
30.0
 41
0.8
 50
0.0
 71
     0
 42
30.0
  3
txt.shx
  4
bigfont
  0
ENDTAB
  0
TABLE
  2
VIEW
  5
1B6
100
AcDbSymbolTable
 70
     1
  0
VIEW
  5
1D3
100
AcDbSymbolTableRecord
100
AcDbViewTableRecord
  2
ALL
 70
     0
 40
1350.0
 10
1104.957983
 20
675.0
 41
0.0
 11
0.0
 21
0.0
 31
1.0
 12
0.0
 22
0.0
 32
0.0
 42
0.0
 43
0.0
 44
0.0
 50
0.0
 71
     0
  0
ENDTAB
  0
TABLE
  2
UCS
  5
1B7
100
AcDbSymbolTable
 70
     0
  0
ENDTAB
  0
TABLE
  2
APPID
  5
1B9
100
AcDbSymbolTable
 70
     1
  0
APPID
  5
1C0
100
AcDbSymbolTableRecord
100
AcDbRegAppTableRecord
  2
ACAD
 70
     0
  0
ENDTAB
  0
TABLE
  2
DIMSTYLE
  5
1BA
100
AcDbSymbolTable
 70
     1
  0
DIMSTYLE
105
1D6
100
AcDbSymbolTableRecord
100
AcDbDimStyleTableRecord
  2
STANDARD
 70
     0
  3

  4

  5

  6

  7

 40
1.0
 41
0.18
 42
0.0625
 43
0.38
 44
0.18
 45
0.0
 46
0.0
 47
0.0
 48
0.0
140
0.18
141
0.09
142
0.0
143
25.4
144
1.0
145
0.0
146
1.0
147
0.09
 71
     0
 72
     0
 73
     1
 74
     1
 75
     0
 76
     0
 77
     0
 78
     0
170
     0
171
     2
172
     0
173
     0
174
     0
175
     0
176
     0
177
     0
178
     0
270
     2
271
     4
272
     4
273
     2
274
     2
340
1D0
275
     0
280
     0
281
     0
282
     0
283
     1
284
     0
285
     0
286
     0
287
     5
288
     0
  0
ENDTAB
  0
TABLE
  2
BLOCK_RECORD
  5
1B1
100
AcDbSymbolTable
 70
     2
  0
BLOCK_RECORD
  5
1C7
100
AcDbSymbolTableRecord
100
AcDbBlockTableRecord
  2
*MODEL_SPACE
  0
BLOCK_RECORD
  5
1C4
100
AcDbSymbolTableRecord
100
AcDbBlockTableRecord
  2
*PAPER_SPACE
  0
BLOCK_RECORD
  5
1CC
100
AcDbSymbolTableRecord
100
AcDbBlockTableRecord
  2
WAKU
  0
BLOCK_RECORD
  5
1CD
100
AcDbSymbolTableRecord
100
AcDbBlockTableRecord
  2
QQ
  0
ENDTAB
  0
ENDSEC
  0
SECTION
  2
BLOCKS
  0
BLOCK
  5
1DD
100
AcDbEntity
  8
0
100
AcDbBlockBegin
  2
*MODEL_SPACE
 70
     0
 10
0.0
 20
0.0
 30
0.0
  3
*MODEL_SPACE
  1

  0
ENDBLK
  5
1DE
100
AcDbEntity
  8
0
100
AcDbBlockEnd
  0
BLOCK
  5
1DB
100
AcDbEntity
 67
     1
  8
0
100
AcDbBlockBegin
  2
*PAPER_SPACE
 70
     0
 10
0.0
 20
0.0
 30
0.0
  3
*PAPER_SPACE
  1

  0
ENDBLK
  5
1DC
100
AcDbEntity
 67
     1
  8
0
100
AcDbBlockEnd
  0
BLOCK
  5
2E
100
AcDbEntity
  8
0
100
AcDbBlockBegin
  2
WAKU
 70
     0
 10
549.0
 20
0.0
 30
0.0
  3
WAKU
  1

  0
LINE
  5
2F
100
AcDbEntity
  8
11
100
AcDbLine
 10
452.0
 20
12.0
 30
0.0
 11
549.0
 21
12.0
 31
0.0
  0
LINE
  5
30
100
AcDbEntity
  8
11
100
AcDbLine
 10
477.0
 20
0.0
 30
0.0
 11
477.0
 21
12.0
 31
0.0
  0
LINE
  5
31
100
AcDbEntity
  8
11
100
AcDbLine
 10
452.0
 20
12.0
 30
0.0
 11
452.0
 21
0.0
 31
0.0
  0
TEXT
  5
32
100
AcDbEntity
  8
11
100
AcDbText
 10
454.0
 20
8.5
 30
0.0
 40
2.5
  1
尺度
100
AcDbText
  0
TEXT
  5
33
100
AcDbEntity
  8
11
100
AcDbText
 10
479.0
 20
8.5
 30
0.0
 40
2.5
  1
図番
100
AcDbText
  0
ENDBLK
  5
34
100
AcDbEntity
  8
0
100
AcDbBlockEnd
  0
BLOCK
  5
35
100
AcDbEntity
  8
0
100
AcDbBlockBegin
  2
QQ
 70
     0
 10
270.0
 20
0.0
 30
0.0
  3
QQ
  1

  0
LINE
  5
36
100
AcDbEntity
  8
11
100
AcDbLine
 10
173.0
 20
36.0
 30
0.0
 11
270.0
 21
36.0
 31
0.0
  0
TEXT
  5
37
100
AcDbEntity
  8
11
100
AcDbText
 10
175.0
 20
32.5
 30
0.0
 40
2.5
  1
部品名称
100
AcDbText
  0
LINE
  5
38
100
AcDbEntity
  8
11
100
AcDbLine
 10
173.0
 20
36.0
 30
0.0
 11
173.0
 21
0.0
 31
0.0
  0
LINE
  5
39
100
AcDbEntity
  8
11
100
AcDbLine
 10
173.0
 20
24.0
 30
0.0
 11
270.0
 21
24.0
 31
0.0
  0
TEXT
  5
3A
100
AcDbEntity
  8
11
100
AcDbText
 10
175.0
 20
20.5
 30
0.0
 40
2.5
  1
品番
100
AcDbText
  0
LINE
  5
3B
100
AcDbEntity
  8
11
100
AcDbLine
 10
173.0
 20
12.0
 30
0.0
 11
270.0
 21
12.0
 31
0.0
  0
TEXT
  5
3C
100
AcDbEntity
  8
11
100
AcDbText
 10
175.0
 20
8.5
 30
0.0
 40
2.5
  1
尺度
100
AcDbText
  0
TEXT
  5
3D
100
AcDbEntity
  8
11
100
AcDbText
 10
200.0
 20
8.5
 30
0.0
 40
2.5
  1
図番
100
AcDbText
  0
LINE
  5
3E
100
AcDbEntity
  8
11
100
AcDbLine
 10
198.0
 20
0.0
 30
0.0
 11
198.0
 21
12.0
 31
0.0
  0
ENDBLK
  5
3F
100
AcDbEntity
  8
0
100
AcDbBlockEnd
  0
ENDSEC
  0
SECTION
  2
ENTITIES
  0
CIRCLE
  5
40
100
AcDbEntity
  8
0
100
AcDbCircle
 10
240.0
 20
300.0
 30
0.0
 40
177.5
  0
LINE
  5
41
100
AcDbEntity
  8
0
100
AcDbLine
 10
224.013205
 20
339.716367
 30
0.0
 11
225.83905
 21
438.768486
 31
0.0
  0
ARC
  5
42
100
AcDbEntity
  8
0
100
AcDbCircle
 10
217.014394
 20
339.845373
 30
0.0
 40
7.0
100
AcDbArc
 50
300.24428
 51
358.944007
  0
LINE
  5
43
100
AcDbEntity
  8
0
100
AcDbLine
 10
207.167682
 20
327.477378
 30
0.0
 11
112.399301
 21
356.349684
 31
0.0
  0
ARC
  5
44
100
AcDbEntity
  8
0
100
AcDbCircle
 10
209.207741
 20
334.173508
 30
0.0
 40
7.0
100
AcDbArc
 50
253.055993
 51
311.75572
  0
ARC
  5
45
100
AcDbEntity
  8
0
100
AcDbCircle
 10
200.569315
 20
448.349152
 30
0.0
 40
6.0
100
AcDbArc
 50
245.788386
 51
284.860954
  0
ARC
  5
46
100
AcDbEntity
  8
0
100
AcDbCircle
 10
179.533355
 20
440.739928
 30
0.0
 40
6.0
100
AcDbArc
 50
255.138453
 51
331.361547
  0
ARC
  5
47
100
AcDbEntity
  8
0
100
AcDbCircle
 10
111.096324
 20
383.343219
 30
0.0
 40
6.0
100
AcDbArc
 50
327.139046
 51
6.211614
  0
ARC
  5
48
100
AcDbEntity
  8
0
100
AcDbCircle
 10
240.0
 20
300.0
 30
0.0
 40
147.5
100
AcDbArc
 50
98.661889
 51
104.885832
  0
ARC
  5
49
100
AcDbEntity
  8
0
100
AcDbCircle
 10
240.0
 20
300.0
 30
0.0
 40
147.5
100
AcDbArc
 50
147.114168
 51
153.338111
  0
ARC
  5
4A
100
AcDbEntity
  8
0
100
AcDbCircle
 10
159.394843
 20
430.256482
 30
0.0
 40
6.0
100
AcDbArc
 50
263.638453
 51
339.861547
  0
ARC
  5
4B
100
AcDbEntity
  8
0
100
AcDbCircle
 10
141.027087
 20
416.911526
 30
0.0
 40
6.0
100
AcDbArc
 50
272.138453
 51
348.361547
  0
ARC
  5
4C
100
AcDbEntity
  8
0
100
AcDbCircle
 10
124.833595
 20
400.998226
 30
0.0
 40
6.0
100
AcDbArc
 50
280.638453
 51
356.861547
  0
ARC
  5
4D
100
AcDbEntity
  8
0
100
AcDbCircle
 10
240.0
 20
300.0
 30
0.0
 40
39.0
100
AcDbArc
 50
119.931815
 51
132.068185
  0
ARC
  5
4E
100
AcDbEntity
  8
0
100
AcDbCircle
 10
240.0
 20
300.0
 30
0.0
 40
39.0
100
AcDbArc
 50
191.931815
 51
204.068185
  0
ARC
  5
4F
100
AcDbEntity
  8
0
100
AcDbCircle
 10
108.356602
 20
221.680409
 30
0.0
 40
6.0
100
AcDbArc
 50
352.638453
 51
68.861547
  0
ARC
  5
50
100
AcDbEntity
  8
0
100
AcDbCircle
 10
98.226219
 20
241.998815
 30
0.0
 40
6.0
100
AcDbArc
 50
344.138453
 51
60.361547
  0
ARC
  5
51
100
AcDbEntity
  8
0
100
AcDbCircle
 10
91.21036
 20
263.591407
 30
0.0
 40
6.0
100
AcDbArc
 50
335.638453
 51
51.861547
  0
ARC
  5
52
100
AcDbEntity
  8
0
100
AcDbCircle
 10
240.0
 20
300.0
 30
0.0
 40
147.5
100
AcDbArc
 50
219.114168
 51
225.338111
  0
ARC
  5
53
100
AcDbEntity
  8
0
100
AcDbCircle
 10
240.0
 20
300.0
 30
0.0
 40
147.5
100
AcDbArc
 50
170.661889
 51
176.885832
  0
ARC
  5
54
100
AcDbEntity
  8
0
100
AcDbCircle
 10
120.902462
 20
203.15979
 30
0.0
 40
6.0
100
AcDbArc
 50
39.139046
 51
78.211614
  0
ARC
  5
55
100
AcDbEntity
  8
0
100
AcDbCircle
 10
87.463153
 20
285.983833
 30
0.0
 40
6.0
100
AcDbArc
 50
327.138453
 51
43.361547
  0
ARC
  5
56
100
AcDbEntity
  8
0
100
AcDbCircle
 10
86.726821
 20
308.341599
 30
0.0
 40
6.0
100
AcDbArc
 50
317.788386
 51
356.860954
  0
ARC
  5
57
100
AcDbEntity
  8
0
100
AcDbCircle
 10
197.983731
 20
281.275016
 30
0.0
 40
7.0
100
AcDbArc
 50
325.055993
 51
23.75572
  0
LINE
  5
58
100
AcDbEntity
  8
0
100
AcDbLine
 10
203.721716
 20
277.265587
 30
0.0
 11
146.977482
 21
196.057534
 31
0.0
  0
ARC
  5
59
100
AcDbEntity
  8
0
100
AcDbCircle
 10
195.001855
 20
290.452287
 30
0.0
 40
7.0
100
AcDbArc
 50
12.24428
 51
70.944007
  0
LINE
  5
5A
100
AcDbEntity
  8
0
100
AcDbLine
 10
197.287299
 20
297.068687
 30
0.0
 11
103.647353
 21
329.413957
 31
0.0
  0
ARC
  5
5B
100
AcDbEntity
  8
0
100
AcDbCircle
 10
240.0
 20
300.0
 30
0.0
 40
39.0
100
AcDbArc
 50
263.931815
 51
276.068185
  0
ARC
  5
5C
100
AcDbEntity
  8
0
100
AcDbCircle
 10
273.806311
 20
150.597604
 30
0.0
 40
6.0
100
AcDbArc
 50
64.638453
 51
140.861547
  0
ARC
  5
5D
100
AcDbEntity
  8
0
100
AcDbCircle
 10
251.351897
 20
147.24177
 30
0.0
 40
6.0
100
AcDbArc
 50
56.138453
 51
132.361547
  0
ARC
  5
5E
100
AcDbEntity
  8
0
100
AcDbCircle
 10
228.648103
 20
147.24177
 30
0.0
 40
6.0
100
AcDbArc
 50
47.638453
 51
123.861547
  0
ARC
  5
5F
100
AcDbEntity
  8
0
100
AcDbCircle
 10
240.0
 20
300.0
 30
0.0
 40
147.5
100
AcDbArc
 50
291.114168
 51
297.338111
  0
ARC
  5
60
100
AcDbEntity
  8
0
100
AcDbCircle
 10
240.0
 20
300.0
 30
0.0
 40
147.5
100
AcDbArc
 50
242.661889
 51
248.885832
  0
ARC
  5
61
100
AcDbEntity
  8
0
100
AcDbCircle
 10
295.29735
 20
156.80624
 30
0.0
 40
6.0
100
AcDbArc
 50
111.139046
 51
150.211614
  0
ARC
  5
62
100
AcDbEntity
  8
0
100
AcDbCircle
 10
206.193689
 20
150.597604
 30
0.0
 40
6.0
100
AcDbArc
 50
39.138453
 51
115.361547
  0
ARC
  5
63
100
AcDbEntity
  8
0
100
AcDbCircle
 10
184.70265
 20
156.80624
 30
0.0
 40
6.0
100
AcDbArc
 50
29.788386
 51
68.860954
  0
ARC
  5
64
100
AcDbEntity
  8
0
100
AcDbCircle
 10
244.824777
 20
254.253815
 30
0.0
 40
7.0
100
AcDbArc
 50
37.055993
 51
95.75572
  0
LINE
  5
65
100
AcDbEntity
  8
0
100
AcDbLine
 10
250.411106
 20
258.471982
 30
0.0
 11
310.109621
 21
179.410339
 31
0.0
  0
ARC
  5
66
100
AcDbEntity
  8
0
100
AcDbCircle
 10
235.175223
 20
254.253815
 30
0.0
 40
7.0
100
AcDbArc
 50
84.24428
 51
142.944007
  0
LINE
  5
67
100
AcDbEntity
  8
0
100
AcDbLine
 10
229.588894
 20
258.471982
 30
0.0
 11
169.890379
 21
179.410339
 31
0.0
  0
ARC
  5
68
100
AcDbEntity
  8
0
100
AcDbCircle
 10
240.0
 20
300.0
 30
0.0
 40
39.0
100
AcDbArc
 50
335.931815
 51
348.068185
  0
ARC
  5
69
100
AcDbEntity
  8
0
100
AcDbCircle
 10
392.536847
 20
285.983833
 30
0.0
 40
6.0
100
AcDbArc
 50
136.638453
 51
212.861547
  0
ARC
  5
6A
100
AcDbEntity
  8
0
100
AcDbCircle
 10
388.78964
 20
263.591407
 30
0.0
 40
6.0
100
AcDbArc
 50
128.138453
 51
204.361547
  0
ARC
  5
6B
100
AcDbEntity
  8
0
100
AcDbCircle
 10
381.773781
 20
241.998815
 30
0.0
 40
6.0
100
AcDbArc
 50
119.638453
 51
195.861547
  0
ARC
  5
6C
100
AcDbEntity
  8
0
100
AcDbCircle
 10
240.0
 20
300.0
 30
0.0
 40
147.5
100
AcDbArc
 50
3.114168
 51
9.338111
  0
ARC
  5
6D
100
AcDbEntity
  8
0
100
AcDbCircle
 10
240.0
 20
300.0
 30
0.0
 40
147.5
100
AcDbArc
 50
314.661889
 51
320.885832
  0
ARC
  5
6E
100
AcDbEntity
  8
0
100
AcDbCircle
 10
393.273179
 20
308.341599
 30
0.0
 40
6.0
100
AcDbArc
 50
183.139046
 51
222.211614
  0
ARC
  5
6F
100
AcDbEntity
  8
0
100
AcDbCircle
 10
371.643398
 20
221.680409
 30
0.0
 40
6.0
100
AcDbArc
 50
111.138453
 51
187.361547
  0
ARC
  5
70
100
AcDbEntity
  8
0
100
AcDbCircle
 10
359.097538
 20
203.15979
 30
0.0
 40
6.0
100
AcDbArc
 50
101.788386
 51
140.860954
  0
ARC
  5
71
100
AcDbEntity
  8
0
100
AcDbCircle
 10
284.998145
 20
290.452287
 30
0.0
 40
7.0
100
AcDbArc
 50
109.055993
 51
167.75572
  0
LINE
  5
72
100
AcDbEntity
  8
0
100
AcDbLine
 10
282.712701
 20
297.068687
 30
0.0
 11
376.352647
 21
329.413957
 31
0.0
  0
ARC
  5
73
100
AcDbEntity
  8
0
100
AcDbCircle
 10
282.016269
 20
281.275016
 30
0.0
 40
7.0
100
AcDbArc
 50
156.24428
 51
214.944007
  0
LINE
  5
74
100
AcDbEntity
  8
0
100
AcDbLine
 10
276.278284
 20
277.265587
 30
0.0
 11
333.022518
 21
196.057534
 31
0.0
  0
ARC
  5
75
100
AcDbEntity
  8
0
100
AcDbCircle
 10
240.0
 20
300.0
 30
0.0
 40
39.0
100
AcDbArc
 50
47.931815
 51
60.068185
  0
ARC
  5
76
100
AcDbEntity
  8
0
100
AcDbCircle
 10
300.466645
 20
440.739928
 30
0.0
 40
6.0
100
AcDbArc
 50
208.638453
 51
284.861547
  0
ARC
  5
77
100
AcDbEntity
  8
0
100
AcDbCircle
 10
320.605157
 20
430.256482
 30
0.0
 40
6.0
100
AcDbArc
 50
200.138453
 51
276.361547
  0
ARC
  5
78
100
AcDbEntity
  8
0
100
AcDbCircle
 10
338.972913
 20
416.911526
 30
0.0
 40
6.0
100
AcDbArc
 50
191.638453
 51
267.861547
  0
ARC
  5
79
100
AcDbEntity
  8
0
100
AcDbCircle
 10
240.0
 20
300.0
 30
0.0
 40
147.5
100
AcDbArc
 50
75.114168
 51
81.338111
  0
ARC
  5
7A
100
AcDbEntity
  8
0
100
AcDbCircle
 10
240.0
 20
300.0
 30
0.0
 40
147.5
100
AcDbArc
 50
26.661889
 51
32.885832
  0
ARC
  5
7B
100
AcDbEntity
  8
0
100
AcDbCircle
 10
279.430685
 20
448.349152
 30
0.0
 40
6.0
100
AcDbArc
 50
255.139046
 51
294.211614
  0
ARC
  5
7C
100
AcDbEntity
  8
0
100
AcDbCircle
 10
355.166405
 20
400.998226
 30
0.0
 40
6.0
100
AcDbArc
 50
183.138453
 51
259.361547
  0
ARC
  5
7D
100
AcDbEntity
  8
0
100
AcDbCircle
 10
368.903676
 20
383.343219
 30
0.0
 40
6.0
100
AcDbArc
 50
173.788386
 51
212.860954
  0
ARC
  5
7E
100
AcDbEntity
  8
0
100
AcDbCircle
 10
262.985606
 20
339.845373
 30
0.0
 40
7.0
100
AcDbArc
 50
181.055993
 51
239.75572
  0
LINE
  5
7F
100
AcDbEntity
  8
0
100
AcDbLine
 10
255.986795
 20
339.716367
 30
0.0
 11
254.16095
 21
438.768486
 31
0.0
  0
ARC
  5
80
100
AcDbEntity
  8
0
100
AcDbCircle
 10
270.792259
 20
334.173508
 30
0.0
 40
7.0
100
AcDbArc
 50
228.24428
 51
286.944007
  0
LINE
  5
81
100
AcDbEntity
  8
0
100
AcDbLine
 10
272.832318
 20
327.477378
 30
0.0
 11
367.600699
 21
356.349684
 31
0.0
  0
LINE
  5
82
100
AcDbEntity
  8
1
100
AcDbLine
 10
271.926813
 20
457.0
 30
0.0
 11
208.073187
 21
457.0
 31
0.0
  0
ARC
  5
83
100
AcDbEntity
  8
0
100
AcDbCircle
 10
114.439357
 20
363.045815
 30
0.0
 40
7.0
100
AcDbArc
 50
153.338111
 51
253.056024
  0
ARC
  5
84
100
AcDbEntity
  8
0
100
AcDbCircle
 10
101.361905
 20
322.797559
 30
0.0
 40
7.0
100
AcDbArc
 50
70.943976
 51
170.661889
  0
ARC
  5
85
100
AcDbEntity
  8
0
100
AcDbCircle
 10
218.840239
 20
438.897496
 30
0.0
 40
7.0
100
AcDbArc
 50
358.943976
 51
98.661889
  0
ARC
  5
86
100
AcDbEntity
  8
0
100
AcDbCircle
 10
261.159761
 20
438.897496
 30
0.0
 40
7.0
100
AcDbArc
 50
81.338111
 51
181.056024
  0
ARC
  5
87
100
AcDbEntity
  8
0
100
AcDbCircle
 10
365.560643
 20
363.045815
 30
0.0
 40
7.0
100
AcDbArc
 50
286.943976
 51
26.661889
  0
ARC
  5
88
100
AcDbEntity
  8
0
100
AcDbCircle
 10
378.638095
 20
322.797559
 30
0.0
 40
7.0
100
AcDbArc
 50
9.338111
 51
109.056024
  0
ARC
  5
89
100
AcDbEntity
  8
0
100
AcDbCircle
 10
141.239494
 20
200.06696
 30
0.0
 40
7.0
100
AcDbArc
 50
225.338111
 51
325.056024
  0
ARC
  5
8A
100
AcDbEntity
  8
0
100
AcDbCircle
 10
175.476706
 20
175.19217
 30
0.0
 40
7.0
100
AcDbArc
 50
142.943976
 51
242.661889
  0
ARC
  5
8B
100
AcDbEntity
  8
0
100
AcDbCircle
 10
304.523294
 20
175.19217
 30
0.0
 40
7.0
100
AcDbArc
 50
297.338111
 51
37.056024
  0
ARC
  5
8C
100
AcDbEntity
  8
0
100
AcDbCircle
 10
338.760506
 20
200.06696
 30
0.0
 40
7.0
100
AcDbArc
 50
214.943976
 51
314.661889
  0
LINE
  5
8D
100
AcDbEntity
  8
1
100
AcDbLine
 10
442.5
 20
300.0
 30
0.0
 11
37.5
 21
300.0
 31
0.0
  0
LINE
  5
8E
100
AcDbEntity
  8
1
100
AcDbLine
 10
240.0
 20
502.5
 30
0.0
 11
240.0
 21
97.5
 31
0.0
  0
CIRCLE
  5
96
100
AcDbEntity
  8
0
100
AcDbCircle
 10
240.348981
 20
300.030129
 30
0.0
 40
32.0
  0
ARC
  5
97
100
AcDbEntity
  8
0
100
AcDbCircle
 10
239.995074
 20
458.043089
 30
0.0
 40
19.782717
100
AcDbArc
 50
182.883887
 51
357.116113
  0
ARC
  5
98
100
AcDbEntity
  8
0
100
AcDbCircle
 10
263.081126
 20
455.748559
 30
0.0
 40
3.572974
100
AcDbArc
 50
78.70388
 51
158.677065
  0
ARC
  5
99
100
AcDbEntity
  8
0
100
AcDbCircle
 10
217.430199
 20
456.397556
 30
0.0
 40
2.975047
100
AcDbArc
 50
12.624399
 51
106.348292
  0
ARC
  5
9A
100
AcDbEntity
  8
0
100
AcDbCircle
 10
240.348981
 20
300.030129
 30
0.0
 40
161.0
100
AcDbArc
 50
98.828565
 51
81.498092
  0
LINE
  5
9B
100
AcDbEntity
  8
0
100
AcDbLine
 10
263.77551
 20
459.251135
 30
0.0
 11
264.167987
 21
459.251135
 31
0.0
  0
LINE
  5
9C
100
AcDbEntity
  8
0
100
AcDbLine
 10
215.631733
 20
459.116135
 30
0.0
 11
216.612208
 21
459.249752
 31
0.0
  0
POINT
  5
9D
100
AcDbEntity
  8
0
100
AcDbPoint
 10
392.197309
 20
297.274156
 30
0.0
  0
ARC
  5
9E
100
AcDbEntity
  8
0
100
AcDbCircle
 10
371.111222
 20
298.137818
 30
0.0
 40
18.895327
100
AcDbArc
 50
334.462558
 51
19.552884
  0
ARC
  5
9F
100
AcDbEntity
  8
0
100
AcDbCircle
 10
368.710335
 20
278.512202
 30
0.0
 40
19.404513
100
AcDbArc
 50
327.82661
 51
12.963445
  0
ARC
  5
A0
100
AcDbEntity
  8
0
100
AcDbCircle
 10
362.353892
 20
260.394411
 30
0.0
 40
21.006333
100
AcDbArc
 50
321.189106
 51
2.759858
  0
ARC
  5
A1
100
AcDbEntity
  8
0
100
AcDbCircle
 10
357.337517
 20
241.421864
 30
0.0
 40
18.64334
100
AcDbArc
 50
310.702985
 51
356.944761
  0
ARC
  5
A2
100
AcDbEntity
  8
0
100
AcDbCircle
 10
344.211973
 20
226.219087
 30
0.0
 40
21.97531
100
AcDbArc
 50
308.733639
 51
346.433339
  0
ARC
  5
A3
100
AcDbEntity
  8
0
100
AcDbCircle
 10
277.181014
 20
181.973764
 30
0.0
 40
25.932114
100
AcDbArc
 50
268.062015
 51
299.993111
  0
ARC
  5
A4
100
AcDbEntity
  8
0
100
AcDbCircle
 10
259.095095
 20
171.396939
 30
0.0
 40
19.772244
100
AcDbArc
 50
256.921382
 51
300.966196
  0
ARC
  5
A5
100
AcDbEntity
  8
0
100
AcDbCircle
 10
239.791232
 20
170.716774
 30
0.0
 40
20.423499
100
AcDbArc
 50
249.704323
 51
292.084871
  0
ARC
  5
A6
100
AcDbEntity
  8
0
100
AcDbCircle
 10
220.565062
 20
171.405894
 30
0.0
 40
19.820325
100
AcDbArc
 50
240.843075
 51
283.554024
  0
ARC
  5
A7
100
AcDbEntity
  8
0
100
AcDbCircle
 10
201.413237
 20
174.607911
 30
0.0
 40
18.698985
100
AcDbArc
 50
232.063686
 51
277.202655
  0
ARC
  5
A8
100
AcDbEntity
  8
0
100
AcDbCircle
 10
135.213636
 20
226.226534
 30
0.0
 40
21.611
100
AcDbArc
 50
194.135084
 51
233.024346
  0
ARC
  5
A9
100
AcDbEntity
  8
0
100
AcDbCircle
 10
123.383922
 20
241.944477
 30
0.0
 40
19.470385
100
AcDbArc
 50
185.147248
 51
228.828259
  0
ARC
  5
AA
100
AcDbEntity
  8
0
100
AcDbCircle
 10
114.838836
 20
259.47911
 30
0.0
 40
18.307037
100
AcDbArc
 50
174.683624
 51
222.490064
  0
ARC
  5
AB
100
AcDbEntity
  8
0
100
AcDbCircle
 10
114.075546
 20
279.129383
 30
0.0
 40
22.028572
100
AcDbArc
 50
170.594439
 51
209.381754
  0
ARC
  5
AC
100
AcDbEntity
  8
0
100
AcDbCircle
 10
110.774444
 20
298.178309
 30
0.0
 40
20.590478
100
AcDbArc
 50
163.088257
 51
203.43037
  0
ARC
  5
AD
100
AcDbEntity
  8
0
100
AcDbCircle
 10
135.621022
 20
378.332484
 30
0.0
 40
19.38707
100
AcDbArc
 50
120.073716
 51
163.576053
  0
ARC
  5
AE
100
AcDbEntity
  8
0
100
AcDbCircle
 10
147.930651
 20
393.755086
 30
0.0
 40
18.402667
100
AcDbArc
 50
111.30095
 51
158.022087
  0
ARC
  5
AF
100
AcDbEntity
  8
0
100
AcDbCircle
 10
162.527215
 20
406.561159
 30
0.0
 40
18.126841
100
AcDbArc
 50
102.314014
 51
149.572052
  0
ARC
  5
B0
100
AcDbEntity
  8
0
100
AcDbCircle
 10
179.099833
 20
417.032991
 30
0.0
 40
17.995888
100
AcDbArc
 50
93.751329
 51
142.15241
  0
ARC
  5
B1
100
AcDbEntity
  8
0
100
AcDbCircle
 10
198.776945
 20
420.892286
 30
0.0
 40
21.949925
100
AcDbArc
 50
92.052283
 51
129.79775
  0
ARC
  5
B2
100
AcDbEntity
  8
0
100
AcDbCircle
 10
281.650781
 20
421.781083
 30
0.0
 40
21.047895
100
AcDbArc
 50
49.861132
 51
89.484448
  0
ARC
  5
B3
100
AcDbEntity
  8
0
100
AcDbCircle
 10
300.164739
 20
415.46212
 30
0.0
 40
19.491108
100
AcDbArc
 50
41.217274
 51
84.866802
  0
ARC
  5
B4
100
AcDbEntity
  8
0
100
AcDbCircle
 10
316.201623
 20
404.585256
 30
0.0
 40
20.302935
100
AcDbArc
 50
33.332241
 51
75.8359
  0
ARC
  5
B5
100
AcDbEntity
  8
0
100
AcDbCircle
 10
332.497773
 20
394.128288
 30
0.0
 40
17.882604
100
AcDbArc
 50
20.966247
 51
69.703642
  0
ARC
  5
B6
100
AcDbEntity
  8
0
100
AcDbCircle
 10
342.083395
 20
376.125042
 30
0.0
 40
22.37509
100
AcDbArc
 50
21.361182
 51
58.045931
  0
ARC
  5
134
100
AcDbEntity
  8
0
100
AcDbCircle
 10
690.0
 20
139.0
 30
0.0
 40
16.5
100
AcDbArc
 50
180.0
 51
0.0
  0
ARC
  5
135
100
AcDbEntity
  8
0
100
AcDbCircle
 10
690.0
 20
461.0
 30
0.0
 40
16.5
100
AcDbArc
 50
0.0
 51
180.0
  0
LINE
  5
136
100
AcDbEntity
  8
1
100
AcDbLine
 10
738.0
 20
300.0
 30
0.0
 11
615.0
 21
300.0
 31
0.0
  0
LINE
  5
137
100
AcDbEntity
  8
0
100
AcDbLine
 10
673.5
 20
300.0
 30
0.0
 11
673.5
 21
139.0
 31
0.0
  0
LINE
  5
138
100
AcDbEntity
  8
0
100
AcDbLine
 10
673.5
 20
300.0
 30
0.0
 11
673.5
 21
461.0
 31
0.0
  0
LINE
  5
139
100
AcDbEntity
  8
0
100
AcDbLine
 10
724.5
 20
300.0
 30
0.0
 11
724.5
 21
271.0
 31
0.0
  0
LINE
  5
13A
100
AcDbEntity
  8
1
100
AcDbLine
 10
690.0
 20
300.0
 30
0.0
 11
690.0
 21
110.5
 31
0.0
  0
LINE
  5
13B
100
AcDbEntity
  8
0
100
AcDbLine
 10
706.5
 20
300.0
 30
0.0
 11
706.5
 21
139.0
 31
0.0
  0
LINE
  5
13C
100
AcDbEntity
  8
0
100
AcDbLine
 10
721.5
 20
268.0
 30
0.0
 11
706.5
 21
268.0
 31
0.0
  0
ARC
  5
13D
100
AcDbEntity
  8
0
100
AcDbCircle
 10
721.495141
 20
271.004859
 30
0.0
 40
3.004863
100
AcDbArc
 50
270.092659
 51
359.907341
  0
LINE
  5
13E
100
AcDbEntity
  8
0
100
AcDbLine
 10
706.5
 20
300.0
 30
0.0
 11
706.5
 21
461.0
 31
0.0
  0
LINE
  5
13F
100
AcDbEntity
  8
1
100
AcDbLine
 10
690.0
 20
300.0
 30
0.0
 11
690.0
 21
489.0
 31
0.0
  0
LINE
  5
140
100
AcDbEntity
  8
0
100
AcDbLine
 10
724.5
 20
300.0
 30
0.0
 11
724.5
 21
329.0
 31
0.0
  0
LINE
  5
141
100
AcDbEntity
  8
0
100
AcDbLine
 10
721.5
 20
332.0
 30
0.0
 11
706.5
 21
332.0
 31
0.0
  0
ARC
  5
142
100
AcDbEntity
  8
0
100
AcDbCircle
 10
721.465104
 20
328.965104
 30
0.0
 40
3.035097
100
AcDbArc
 50
0.658777
 51
89.341223
  0
LINE
  5
16F
100
AcDbEntity
  8
1
100
AcDbLine
 10
720.5
 20
456.589042
 30
0.0
 11
653.238247
 21
456.589042
 31
0.0
  0
LINE
  5
172
100
AcDbEntity
  8
2
100
AcDbLine
 10
674.5
 20
332.089042
 30
0.0
 11
674.5
 21
268.089042
 31
0.0
  0
ARC
  5
173
100
AcDbEntity
  8
2
100
AcDbCircle
 10
691.123494
 20
312.435428
 30
0.0
 40
47.359713
100
AcDbArc
 50
249.451205
 51
284.52322
  0
ARC
  5
174
100
AcDbEntity
  8
2
100
AcDbCircle
 10
690.146429
 20
292.790828
 30
0.0
 40
42.298468
100
AcDbArc
 50
72.309329
 51
111.709779
  0
CIRCLE
  5
1E5
100
AcDbEntity
  8
0
100
AcDbCircle
 10
240.0
 20
457.0
 30
0.0
 40
11.0
  0
CIRCLE
  5
1E6
100
AcDbEntity
  8
0
100
AcDbCircle
 10
240.0
 20
457.0
 30
0.0
 40
8.0
  0
CIRCLE
  5
1E7
100
AcDbEntity
  8
0
100
AcDbCircle
 10
240.0
 20
457.0
 30
0.0
 40
7.0
  0
ENDSEC
  0
SECTION
  2
OBJECTS
  0
DICTIONARY
  5
1BC
100
AcDbDictionary
  3
ACAD_GROUP
350
1BD
  3
ACAD_MLINESTYLE
350
1CA
  3
ACDBVARIABLEDICTIONARY
350
1DF
  0
DICTIONARY
  5
1BD
102
{ACAD_REACTORS
330
1BC
102
}
100
AcDbDictionary
  0
DICTIONARY
  5
1CA
102
{ACAD_REACTORS
330
1BC
102
}
100
AcDbDictionary
  3
STANDARD
350
1CB
  0
DICTIONARY
  5
1DF
102
{ACAD_REACTORS
330
1BC
102
}
100
AcDbDictionary
  3
DIMADEC
350
1E0
  0
MLINESTYLE
  5
1CB
102
{ACAD_REACTORS
330
1CA
102
}
100
AcDbMlineStyle
  2
STANDARD
 70
     0
  3

 62
   256
 51
90.0
 52
90.0
 71
     2
 49
0.5
 62
   256
  6
BYLAYER
 49
-0.5
 62
   256
  6
BYLAYER
  0
DICTIONARYVAR
  5
1E0
102
{ACAD_REACTORS
330
1DF
102
}
100
DictionaryVariables
280
     0
  1
0
  0
ENDSEC
  0
EOF
