  0
SECTION
  2
HEADER
  9
$ACADVER
  1
AC1014
  9
$ACADMAINTVER
 70
     0
  9
$DWGCODEPAGE
  3
ANSI_932
  9
$INSBASE
 10
0.0
 20
0.0
 30
0.0
  9
$EXTMIN
 10
57.5
 20
117.5
 30
0.0
  9
$EXTMAX
 10
739.550094
 20
482.5
 30
0.0
  9
$LIMMIN
 10
0.0
 20
0.0
  9
$LIMMAX
 10
880.0
 20
610.0
  9
$ORTHOMODE
 70
     1
  9
$REGENMODE
 70
     1
  9
$FILLMODE
 70
     1
  9
$QTEXTMODE
 70
     0
  9
$MIRRTEXT
 70
     1
  9
$DRAGMODE
 70
     1
  9
$LTSCALE
 40
50.0
  9
$OSMODE
 70
    32
  9
$ATTMODE
 70
     1
  9
$TEXTSIZE
 40
30.0
  9
$TRACEWID
 40
0.05
  9
$TEXTSTYLE
  7
BIGFONT
  9
$CLAYER
  8
0
  9
$CELTYPE
  6
BYLAYER
  9
$CECOLOR
 62
   256
  9
$CELTSCALE
 40
1.0
  9
$DELOBJ
 70
     1
  9
$DISPSILH
 70
     0
  9
$DIMSCALE
 40
5.0
  9
$DIMASZ
 40
3.0
  9
$DIMEXO
 40
2.0
  9
$DIMDLI
 40
0.38
  9
$DIMRND
 40
0.0
  9
$DIMDLE
 40
0.0
  9
$DIMEXE
 40
2.0
  9
$DIMTP
 40
0.0
  9
$DIMTM
 40
0.0
  9
$DIMTXT
 40
3.2
  9
$DIMCEN
 40
0.09
  9
$DIMTSZ
 40
0.0
  9
$DIMTOL
 70
     0
  9
$DIMLIM
 70
     0
  9
$DIMTIH
 70
     0
  9
$DIMTOH
 70
     0
  9
$DIMSE1
 70
     0
  9
$DIMSE2
 70
     0
  9
$DIMTAD
 70
     1
  9
$DIMZIN
 70
     0
  9
$DIMBLK
  1

  9
$DIMASO
 70
     0
  9
$DIMSHO
 70
     0
  9
$DIMPOST
  1

  9
$DIMAPOST
  1

  9
$DIMALT
 70
     0
  9
$DIMALTD
 70
     2
  9
$DIMALTF
 40
25.4
  9
$DIMLFAC
 40
1.0
  9
$DIMTOFL
 70
     0
  9
$DIMTVP
 40
1.6
  9
$DIMTIX
 70
     1
  9
$DIMSOXD
 70
     0
  9
$DIMSAH
 70
     0
  9
$DIMBLK1
  1

  9
$DIMBLK2
  1

  9
$DIMSTYLE
  2
STANDARD
  9
$DIMCLRD
 70
     0
  9
$DIMCLRE
 70
     0
  9
$DIMCLRT
 70
     0
  9
$DIMTFAC
 40
1.0
  9
$DIMGAP
 40
0.09
  9
$DIMJUST
 70
     0
  9
$DIMSD1
 70
     0
  9
$DIMSD2
 70
     0
  9
$DIMTOLJ
 70
     1
  9
$DIMTZIN
 70
     0
  9
$DIMALTZ
 70
     0
  9
$DIMALTTZ
 70
     0
  9
$DIMFIT
 70
     5
  9
$DIMUPT
 70
     0
  9
$DIMUNIT
 70
     2
  9
$DIMDEC
 70
     4
  9
$DIMTDEC
 70
     4
  9
$DIMALTU
 70
     2
  9
$DIMALTTD
 70
     2
  9
$DIMTXSTY
  7
BIGFONT
  9
$DIMAUNIT
 70
     0
  9
$LUNITS
 70
     2
  9
$LUPREC
 70
     4
  9
$SKETCHINC
 40
0.1
  9
$FILLETRAD
 40
0.0
  9
$AUNITS
 70
     0
  9
$AUPREC
 70
     0
  9
$MENU
  1
ACAD
  9
$ELEVATION
 40
0.0
  9
$PELEVATION
 40
0.0
  9
$THICKNESS
 40
0.0
  9
$LIMCHECK
 70
     0
  9
$BLIPMODE
 70
     0
  9
$CHAMFERA
 40
0.0
  9
$CHAMFERB
 40
0.0
  9
$CHAMFERC
 40
0.0
  9
$CHAMFERD
 40
0.0
  9
$SKPOLY
 70
     0
  9
$TDCREATE
 40
2450865.700178241
  9
$TDUPDATE
 40
2453089.730997893
  9
$TDINDWG
 40
0.0005902778
  9
$TDUSRTIMER
 40
0.0005902778
  9
$USRTIMER
 70
     1
  9
$ANGBASE
 50
0.0
  9
$ANGDIR
 70
     0
  9
$PDMODE
 70
     0
  9
$PDSIZE
 40
0.0
  9
$PLINEWID
 40
0.0
  9
$COORDS
 70
     2
  9
$SPLFRAME
 70
     0
  9
$SPLINETYPE
 70
     6
  9
$SPLINESEGS
 70
     8
  9
$ATTDIA
 70
     0
  9
$ATTREQ
 70
     1
  9
$HANDLING
 70
     1
  9
$HANDSEED
  5
1C4
  9
$SURFTAB1
 70
     6
  9
$SURFTAB2
 70
     6
  9
$SURFTYPE
 70
     6
  9
$SURFU
 70
     6
  9
$SURFV
 70
     6
  9
$UCSNAME
  2

  9
$UCSORG
 10
0.0
 20
0.0
 30
0.0
  9
$UCSXDIR
 10
1.0
 20
0.0
 30
0.0
  9
$UCSYDIR
 10
0.0
 20
1.0
 30
0.0
  9
$PUCSNAME
  2

  9
$PUCSORG
 10
0.0
 20
0.0
 30
0.0
  9
$PUCSXDIR
 10
1.0
 20
0.0
 30
0.0
  9
$PUCSYDIR
 10
0.0
 20
1.0
 30
0.0
  9
$USERI1
 70
     0
  9
$USERI2
 70
     0
  9
$USERI3
 70
     0
  9
$USERI4
 70
     0
  9
$USERI5
 70
     0
  9
$USERR1
 40
0.0
  9
$USERR2
 40
0.0
  9
$USERR3
 40
0.0
  9
$USERR4
 40
0.0
  9
$USERR5
 40
0.0
  9
$WORLDVIEW
 70
     1
  9
$SHADEDGE
 70
     3
  9
$SHADEDIF
 70
    70
  9
$TILEMODE
 70
     1
  9
$MAXACTVP
 70
    16
  9
$PINSBASE
 10
0.0
 20
0.0
 30
0.0
  9
$PLIMCHECK
 70
     0
  9
$PEXTMIN
 10
1.000000E+20
 20
1.000000E+20
 30
1.000000E+20
  9
$PEXTMAX
 10
-1.000000E+20
 20
-1.000000E+20
 30
-1.000000E+20
  9
$PLIMMIN
 10
0.0
 20
0.0
  9
$PLIMMAX
 10
12.0
 20
9.0
  9
$UNITMODE
 70
     0
  9
$VISRETAIN
 70
     0
  9
$PLINEGEN
 70
     1
  9
$PSLTSCALE
 70
     0
  9
$TREEDEPTH
 70
  3020
  9
$PICKSTYLE
 70
     1
  9
$CMLSTYLE
  2
STANDARD
  9
$CMLJUST
 70
     0
  9
$CMLSCALE
 40
1.0
  9
$PROXYGRAPHICS
 70
     1
  9
$MEASUREMENT
 70
     0
  0
ENDSEC
  0
SECTION
  2
CLASSES
  0
CLASS
  1
DICTIONARYVAR
  2
AcDbDictionaryVar
  3
"AutoCAD"
 90
        0
280
     0
281
     0
  0
ENDSEC
  0
SECTION
  2
TABLES
  0
TABLE
  2
VPORT
  5
18E
100
AcDbSymbolTable
 70
     1
  0
VPORT
  5
1BF
100
AcDbSymbolTableRecord
100
AcDbViewportTableRecord
  2
*ACTIVE
 70
     0
 10
0.0
 20
0.0
 11
1.0
 21
1.0
 12
540.954724
 22
339.803599
 13
0.0
 23
0.0
 14
15.0
 24
15.0
 15
30.0
 25
30.0
 16
0.0
 26
0.0
 36
1.0
 17
0.0
 27
0.0
 37
0.0
 40
679.607197
 41
1.591963
 42
50.0
 43
0.0
 44
0.0
 50
0.0
 51
0.0
 71
     0
 72
   500
 73
     1
 74
     1
 75
     0
 76
     0
 77
     0
 78
     0
  0
ENDTAB
  0
TABLE
  2
LTYPE
  5
18B
100
AcDbSymbolTable
 70
     3
  0
LTYPE
  5
197
100
AcDbSymbolTableRecord
100
AcDbLinetypeTableRecord
  2
BYBLOCK
 70
     0
  3

 72
    65
 73
     0
 40
0.0
  0
LTYPE
  5
198
100
AcDbSymbolTableRecord
100
AcDbLinetypeTableRecord
  2
BYLAYER
 70
     0
  3

 72
    65
 73
     0
 40
0.0
  0
LTYPE
  5
199
100
AcDbSymbolTableRecord
100
AcDbLinetypeTableRecord
  2
CONTINUOUS
 70
     0
  3
実線
 72
    65
 73
     0
 40
0.0
  0
LTYPE
  5
1A7
100
AcDbSymbolTableRecord
100
AcDbLinetypeTableRecord
  2
CENTER
 70
     0
  3
____ _ ____ _ ____ _ ____ _ ____ _ ____ _ ____
 72
    65
 73
     4
 40
2.0
 49
1.25
 74
     0
 49
-0.25
 74
     0
 49
0.25
 74
     0
 49
-0.25
 74
     0
  0
LTYPE
  5
1A8
100
AcDbSymbolTableRecord
100
AcDbLinetypeTableRecord
  2
TENSEN1
 70
     0
  3

 72
    65
 73
     2
 40
0.4
 49
0.3
 74
     0
 49
-0.1
 74
     0
  0
ENDTAB
  0
TABLE
  2
LAYER
  5
188
100
AcDbSymbolTable
 70
     6
  0
LAYER
  5
194
100
AcDbSymbolTableRecord
100
AcDbLayerTableRecord
  2
0
 70
     0
 62
     7
  6
CONTINUOUS
  0
LAYER
  5
1AD
100
AcDbSymbolTableRecord
100
AcDbLayerTableRecord
  2
1
 70
     0
 62
     1
  6
CENTER
  0
LAYER
  5
1AE
100
AcDbSymbolTableRecord
100
AcDbLayerTableRecord
  2
4
 70
     0
 62
     4
  6
CONTINUOUS
  0
LAYER
  5
1AF
100
AcDbSymbolTableRecord
100
AcDbLayerTableRecord
  2
10
 70
     0
 62
     7
  6
CONTINUOUS
  0
LAYER
  5
1B0
100
AcDbSymbolTableRecord
100
AcDbLayerTableRecord
  2
11
 70
     0
 62
     3
  6
CONTINUOUS
  0
LAYER
  5
1B1
100
AcDbSymbolTableRecord
100
AcDbLayerTableRecord
  2
5
 70
     0
 62
     2
  6
TENSEN1
  0
ENDTAB
  0
TABLE
  2
STYLE
  5
189
100
AcDbSymbolTable
 70
     4
  0
STYLE
  5
195
100
AcDbSymbolTableRecord
100
AcDbTextStyleTableRecord
  2
STANDARD
 70
     0
 40
0.0
 41
1.0
 50
0.0
 71
     0
 42
0.2
  3
TXT
  4
BIGFONT
  0
STYLE
  5
1A4
100
AcDbSymbolTableRecord
100
AcDbTextStyleTableRecord
  2
K80
 70
     0
 40
0.0
 41
0.8
 50
0.0
 71
     0
 42
0.2
  3
TXT
  4
BIGFONT
  0
STYLE
  5
1A5
100
AcDbSymbolTableRecord
100
AcDbTextStyleTableRecord
  2
07500
 70
     0
 40
0.0
 41
0.75
 50
0.0
 71
     0
 42
0.2
  3
TXT
  4
BIGFONT
  0
STYLE
  5
1A6
100
AcDbSymbolTableRecord
100
AcDbTextStyleTableRecord
  2
BIGFONT
 70
     0
 40
30.0
 41
0.8
 50
0.0
 71
     0
 42
30.0
  3
txt.shx
  4
bigfont
  0
ENDTAB
  0
TABLE
  2
VIEW
  5
18C
100
AcDbSymbolTable
 70
     1
  0
VIEW
  5
1A9
100
AcDbSymbolTableRecord
100
AcDbViewTableRecord
  2
ALL
 70
     0
 40
1350.0
 10
1104.957983
 20
675.0
 41
0.0
 11
0.0
 21
0.0
 31
1.0
 12
0.0
 22
0.0
 32
0.0
 42
0.0
 43
0.0
 44
0.0
 50
0.0
 71
     0
  0
ENDTAB
  0
TABLE
  2
UCS
  5
18D
100
AcDbSymbolTable
 70
     0
  0
ENDTAB
  0
TABLE
  2
APPID
  5
18F
100
AcDbSymbolTable
 70
     1
  0
APPID
  5
196
100
AcDbSymbolTableRecord
100
AcDbRegAppTableRecord
  2
ACAD
 70
     0
  0
ENDTAB
  0
TABLE
  2
DIMSTYLE
  5
190
100
AcDbSymbolTable
 70
     1
  0
DIMSTYLE
105
1AC
100
AcDbSymbolTableRecord
100
AcDbDimStyleTableRecord
  2
STANDARD
 70
     0
  3

  4

  5

  6

  7

 40
1.0
 41
0.18
 42
0.0625
 43
0.38
 44
0.18
 45
0.0
 46
0.0
 47
0.0
 48
0.0
140
0.18
141
0.09
142
0.0
143
25.4
144
1.0
145
0.0
146
1.0
147
0.09
 71
     0
 72
     0
 73
     1
 74
     1
 75
     0
 76
     0
 77
     0
 78
     0
170
     0
171
     2
172
     0
173
     0
174
     0
175
     0
176
     0
177
     0
178
     0
270
     2
271
     4
272
     4
273
     2
274
     2
340
1A6
275
     0
280
     0
281
     0
282
     0
283
     1
284
     0
285
     0
286
     0
287
     5
288
     0
  0
ENDTAB
  0
TABLE
  2
BLOCK_RECORD
  5
187
100
AcDbSymbolTable
 70
     2
  0
BLOCK_RECORD
  5
19D
100
AcDbSymbolTableRecord
100
AcDbBlockTableRecord
  2
*MODEL_SPACE
  0
BLOCK_RECORD
  5
19A
100
AcDbSymbolTableRecord
100
AcDbBlockTableRecord
  2
*PAPER_SPACE
  0
BLOCK_RECORD
  5
1A2
100
AcDbSymbolTableRecord
100
AcDbBlockTableRecord
  2
WAKU
  0
BLOCK_RECORD
  5
1A3
100
AcDbSymbolTableRecord
100
AcDbBlockTableRecord
  2
QQ
  0
ENDTAB
  0
ENDSEC
  0
SECTION
  2
BLOCKS
  0
BLOCK
  5
1B4
100
AcDbEntity
  8
0
100
AcDbBlockBegin
  2
*MODEL_SPACE
 70
     0
 10
0.0
 20
0.0
 30
0.0
  3
*MODEL_SPACE
  1

  0
ENDBLK
  5
1B5
100
AcDbEntity
  8
0
100
AcDbBlockEnd
  0
BLOCK
  5
1B2
100
AcDbEntity
 67
     1
  8
0
100
AcDbBlockBegin
  2
*PAPER_SPACE
 70
     0
 10
0.0
 20
0.0
 30
0.0
  3
*PAPER_SPACE
  1

  0
ENDBLK
  5
1B3
100
AcDbEntity
 67
     1
  8
0
100
AcDbBlockEnd
  0
BLOCK
  5
2F
100
AcDbEntity
  8
0
100
AcDbBlockBegin
  2
WAKU
 70
     0
 10
549.0
 20
0.0
 30
0.0
  3
WAKU
  1

  0
LINE
  5
30
100
AcDbEntity
  8
11
100
AcDbLine
 10
452.0
 20
12.0
 30
0.0
 11
549.0
 21
12.0
 31
0.0
  0
LINE
  5
31
100
AcDbEntity
  8
11
100
AcDbLine
 10
477.0
 20
0.0
 30
0.0
 11
477.0
 21
12.0
 31
0.0
  0
LINE
  5
32
100
AcDbEntity
  8
11
100
AcDbLine
 10
452.0
 20
12.0
 30
0.0
 11
452.0
 21
0.0
 31
0.0
  0
TEXT
  5
33
100
AcDbEntity
  8
11
100
AcDbText
 10
454.0
 20
8.5
 30
0.0
 40
2.5
  1
尺度
100
AcDbText
  0
TEXT
  5
34
100
AcDbEntity
  8
11
100
AcDbText
 10
479.0
 20
8.5
 30
0.0
 40
2.5
  1
図番
100
AcDbText
  0
ENDBLK
  5
35
100
AcDbEntity
  8
0
100
AcDbBlockEnd
  0
BLOCK
  5
36
100
AcDbEntity
  8
0
100
AcDbBlockBegin
  2
QQ
 70
     0
 10
270.0
 20
0.0
 30
0.0
  3
QQ
  1

  0
LINE
  5
37
100
AcDbEntity
  8
11
100
AcDbLine
 10
173.0
 20
36.0
 30
0.0
 11
270.0
 21
36.0
 31
0.0
  0
TEXT
  5
38
100
AcDbEntity
  8
11
100
AcDbText
 10
175.0
 20
32.5
 30
0.0
 40
2.5
  1
部品名称
100
AcDbText
  0
LINE
  5
39
100
AcDbEntity
  8
11
100
AcDbLine
 10
173.0
 20
36.0
 30
0.0
 11
173.0
 21
0.0
 31
0.0
  0
LINE
  5
3A
100
AcDbEntity
  8
11
100
AcDbLine
 10
173.0
 20
24.0
 30
0.0
 11
270.0
 21
24.0
 31
0.0
  0
TEXT
  5
3B
100
AcDbEntity
  8
11
100
AcDbText
 10
175.0
 20
20.5
 30
0.0
 40
2.5
  1
品番
100
AcDbText
  0
LINE
  5
3C
100
AcDbEntity
  8
11
100
AcDbLine
 10
173.0
 20
12.0
 30
0.0
 11
270.0
 21
12.0
 31
0.0
  0
TEXT
  5
3D
100
AcDbEntity
  8
11
100
AcDbText
 10
175.0
 20
8.5
 30
0.0
 40
2.5
  1
尺度
100
AcDbText
  0
TEXT
  5
3E
100
AcDbEntity
  8
11
100
AcDbText
 10
200.0
 20
8.5
 30
0.0
 40
2.5
  1
図番
100
AcDbText
  0
LINE
  5
3F
100
AcDbEntity
  8
11
100
AcDbLine
 10
198.0
 20
0.0
 30
0.0
 11
198.0
 21
12.0
 31
0.0
  0
ENDBLK
  5
40
100
AcDbEntity
  8
0
100
AcDbBlockEnd
  0
ENDSEC
  0
SECTION
  2
ENTITIES
  0
ARC
  5
41
100
AcDbEntity
  8
0
100
AcDbCircle
 10
267.240797
 20
331.967397
 30
0.0
 40
7.0
100
AcDbArc
 50
230.041548
 51
289.386103
  0
ARC
  5
42
100
AcDbEntity
  8
0
100
AcDbCircle
 10
261.984932
 20
335.786007
 30
0.0
 40
7.0
100
AcDbArc
 50
178.613897
 51
237.958452
  0
ARC
  5
43
100
AcDbEntity
  8
0
100
AcDbCircle
 10
240.0
 20
300.0
 30
0.0
 40
35.0
100
AcDbArc
 50
49.468795
 51
58.531205
  0
ARC
  5
44
100
AcDbEntity
  8
0
100
AcDbCircle
 10
278.820671
 20
283.970932
 30
0.0
 40
7.0
100
AcDbArc
 50
158.041548
 51
217.386103
  0
ARC
  5
45
100
AcDbEntity
  8
0
100
AcDbCircle
 10
280.828232
 20
290.149571
 30
0.0
 40
7.0
100
AcDbArc
 50
106.613897
 51
165.958452
  0
ARC
  5
46
100
AcDbEntity
  8
0
100
AcDbCircle
 10
240.0
 20
300.0
 30
0.0
 40
35.0
100
AcDbArc
 50
337.468795
 51
346.531205
  0
ARC
  5
47
100
AcDbEntity
  8
0
100
AcDbCircle
 10
236.751697
 20
258.126093
 30
0.0
 40
7.0
100
AcDbArc
 50
86.041548
 51
145.386103
  0
ARC
  5
48
100
AcDbEntity
  8
0
100
AcDbCircle
 10
243.248303
 20
258.126093
 30
0.0
 40
7.0
100
AcDbArc
 50
34.613897
 51
93.958452
  0
ARC
  5
49
100
AcDbEntity
  8
0
100
AcDbCircle
 10
240.0
 20
300.0
 30
0.0
 40
35.0
100
AcDbArc
 50
265.468795
 51
274.531205
  0
ARC
  5
4A
100
AcDbEntity
  8
0
100
AcDbCircle
 10
199.171768
 20
290.149571
 30
0.0
 40
7.0
100
AcDbArc
 50
14.041548
 51
73.386103
  0
ARC
  5
4B
100
AcDbEntity
  8
0
100
AcDbCircle
 10
201.179329
 20
283.970932
 30
0.0
 40
7.0
100
AcDbArc
 50
322.613897
 51
21.958452
  0
ARC
  5
4C
100
AcDbEntity
  8
0
100
AcDbCircle
 10
240.0
 20
300.0
 30
0.0
 40
35.0
100
AcDbArc
 50
193.468795
 51
202.531205
  0
ARC
  5
4D
100
AcDbEntity
  8
0
100
AcDbCircle
 10
240.0
 20
300.0
 30
0.0
 40
35.0
100
AcDbArc
 50
121.468795
 51
130.531205
  0
ARC
  5
4E
100
AcDbEntity
  8
0
100
AcDbCircle
 10
212.759203
 20
331.967397
 30
0.0
 40
7.0
100
AcDbArc
 50
250.613897
 51
309.958452
  0
ARC
  5
4F
100
AcDbEntity
  8
0
100
AcDbCircle
 10
218.015068
 20
335.786007
 30
0.0
 40
7.0
100
AcDbArc
 50
302.041548
 51
1.386103
  0
TEXT
  5
50
100
AcDbEntity
  8
4
100
AcDbText
 10
544.879071
 20
220.330364
 30
0.0
 40
6.4
  1
                
100
AcDbText
  0
LINE
  5
51
100
AcDbEntity
  8
1
100
AcDbLine
 10
422.5
 20
300.0
 30
0.0
 11
57.5
 21
300.0
 31
0.0
  0
LINE
  5
52
100
AcDbEntity
  8
1
100
AcDbLine
 10
240.0
 20
482.5
 30
0.0
 11
240.0
 21
117.5
 31
0.0
  0
CIRCLE
  5
5A
100
AcDbEntity
  8
0
100
AcDbCircle
 10
240.013007
 20
299.847477
 30
0.0
 40
150.0
  0
LINE
  5
5B
100
AcDbEntity
  8
0
100
AcDbLine
 10
297.185663
 20
198.67214
 30
0.0
 11
249.009293
 21
262.102397
 31
0.0
  0
LINE
  5
5C
100
AcDbEntity
  8
0
100
AcDbLine
 10
318.704653
 20
214.290412
 30
0.0
 11
273.258737
 21
279.72065
 31
0.0
  0
LINE
  5
5D
100
AcDbEntity
  8
0
100
AcDbLine
 10
353.704121
 20
322.957736
 30
0.0
 11
278.826787
 21
296.857344
 31
0.0
  0
LINE
  5
5E
100
AcDbEntity
  8
0
100
AcDbLine
 10
345.396562
 20
348.234403
 30
0.0
 11
269.564323
 21
325.364275
 31
0.0
  0
LINE
  5
5F
100
AcDbEntity
  8
0
100
AcDbLine
 10
253.30283
 20
415.213242
 30
0.0
 11
254.986981
 21
335.955334
 31
0.0
  0
LINE
  5
60
100
AcDbEntity
  8
0
100
AcDbLine
 10
226.697174
 20
415.213402
 30
0.0
 11
225.013019
 21
335.955334
 31
0.0
  0
LINE
  5
61
100
AcDbEntity
  8
0
100
AcDbLine
 10
134.561876
 20
348.246938
 30
0.0
 11
210.435677
 21
325.364275
 31
0.0
  0
LINE
  5
62
100
AcDbEntity
  8
0
100
AcDbLine
 10
126.302627
 20
322.955383
 30
0.0
 11
201.173213
 21
296.857344
 31
0.0
  0
LINE
  5
63
100
AcDbEntity
  8
0
100
AcDbLine
 10
161.357903
 20
214.380477
 30
0.0
 11
206.741263
 21
279.72065
 31
0.0
  0
LINE
  5
64
100
AcDbEntity
  8
0
100
AcDbLine
 10
182.825844
 20
198.687291
 30
0.0
 11
230.990707
 21
262.102397
 31
0.0
  0
ARC
  5
65
100
AcDbEntity
  8
0
100
AcDbCircle
 10
186.800769
 20
196.664977
 30
0.0
 40
4.568137
100
AcDbArc
 50
151.257188
 51
257.658503
  0
ARC
  5
66
100
AcDbEntity
  8
0
100
AcDbCircle
 10
158.075253
 20
219.030876
 30
0.0
 40
5.639962
100
AcDbArc
 50
229.328614
 51
305.695475
  0
ARC
  5
67
100
AcDbEntity
  8
0
100
AcDbCircle
 10
322.049024
 20
219.116511
 30
0.0
 40
5.733454
100
AcDbArc
 50
234.471121
 51
305.528879
  0
ARC
  5
68
100
AcDbEntity
  8
0
100
AcDbCircle
 10
292.576506
 20
196.742831
 30
0.0
 40
4.896777
100
AcDbArc
 50
291.993297
 51
23.69067
  0
ARC
  5
69
100
AcDbEntity
  8
0
100
AcDbCircle
 10
354.105081
 20
317.165413
 30
0.0
 40
5.745681
100
AcDbArc
 50
21.365775
 51
94.790311
  0
ARC
  5
6A
100
AcDbEntity
  8
0
100
AcDbCircle
 10
343.555397
 20
352.820002
 30
0.0
 40
4.897906
100
AcDbArc
 50
290.813948
 51
16.608439
  0
ARC
  5
6B
100
AcDbEntity
  8
0
100
AcDbCircle
 10
257.699772
 20
415.48908
 30
0.0
 40
4.345249
100
AcDbArc
 50
87.198822
 51
184.642764
  0
ARC
  5
6C
100
AcDbEntity
  8
0
100
AcDbCircle
 10
222.997469
 20
416.083626
 30
0.0
 40
3.835579
100
AcDbArc
 50
345.717277
 51
102.441136
  0
ARC
  5
6D
100
AcDbEntity
  8
0
100
AcDbCircle
 10
136.755342
 20
352.815511
 30
0.0
 40
5.040914
100
AcDbArc
 50
161.116258
 51
245.138707
  0
ARC
  5
6E
100
AcDbEntity
  8
0
100
AcDbCircle
 10
125.277635
 20
318.317825
 30
0.0
 40
4.704725
100
AcDbArc
 50
76.420462
 51
171.272855
  0
CIRCLE
  5
6F
100
AcDbEntity
  8
0
100
AcDbCircle
 10
240.155391
 20
300.177735
 30
0.0
 40
28.0
  0
ARC
  5
70
100
AcDbEntity
  8
0
100
AcDbCircle
 10
239.990619
 20
430.548598
 30
0.0
 40
16.539362
100
AcDbArc
 50
180.438885
 51
359.561115
  0
ARC
  5
72
100
AcDbEntity
  8
0
100
AcDbCircle
 10
240.155391
 20
300.177735
 30
0.0
 40
135.5
100
AcDbArc
 50
100.454943
 51
80.02842
  0
ARC
  5
73
100
AcDbEntity
  8
0
100
AcDbCircle
 10
218.631165
 20
428.8936
 30
0.0
 40
5.006835
100
AcDbArc
 50
17.345794
 51
107.804801
  0
LINE
  5
74
100
AcDbEntity
  8
0
100
AcDbLine
 10
217.1002
 20
433.701048
 30
0.0
 11
215.320425
 21
433.377662
 31
0.0
  0
ARC
  5
75
100
AcDbEntity
  8
0
100
AcDbCircle
 10
260.43856
 20
430.14152
 30
0.0
 40
3.905505
100
AcDbArc
 50
78.358717
 51
178.441611
  0
LINE
  5
76
100
AcDbEntity
  8
0
100
AcDbLine
 10
261.145727
 20
433.96669
 30
0.0
 11
263.65359
 21
433.602876
 31
0.0
  0
ARC
  5
77
100
AcDbEntity
  8
0
100
AcDbCircle
 10
328.966949
 20
234.064909
 30
0.0
 40
12.990377
100
AcDbArc
 50
285.364583
 51
2.655662
  0
ARC
  5
78
100
AcDbEntity
  8
0
100
AcDbCircle
 10
337.357262
 20
257.341384
 30
0.0
 40
17.665617
100
AcDbArc
 50
301.5653
 51
11.696739
  0
ARC
  5
79
100
AcDbEntity
  8
0
100
AcDbCircle
 10
344.459488
 20
278.42544
 30
0.0
 40
17.049738
100
AcDbArc
 50
313.238494
 51
22.905129
  0
ARC
  5
7A
100
AcDbEntity
  8
0
100
AcDbCircle
 10
348.317695
 20
301.365414
 30
0.0
 40
15.450541
100
AcDbArc
 50
323.893173
 51
36.106827
  0
ARC
  5
7B
100
AcDbEntity
  8
0
100
AcDbCircle
 10
330.272823
 20
364.342503
 30
0.0
 40
13.013106
100
AcDbArc
 50
353.999858
 51
75.785321
  0
ARC
  5
7C
100
AcDbEntity
  8
0
100
AcDbCircle
 10
313.748415
 20
382.378008
 30
0.0
 40
13.853687
100
AcDbArc
 50
5.61256
 51
91.689866
  0
ARC
  5
7D
100
AcDbEntity
  8
0
100
AcDbCircle
 10
293.059758
 20
394.075082
 30
0.0
 40
16.092383
100
AcDbArc
 50
23.378131
 51
98.543897
  0
ARC
  5
7E
100
AcDbEntity
  8
0
100
AcDbCircle
 10
271.689416
 20
402.083991
 30
0.0
 40
16.846548
100
AcDbArc
 50
39.243977
 51
106.379725
  0
ARC
  5
7F
100
AcDbEntity
  8
0
100
AcDbCircle
 10
207.296041
 20
403.979089
 30
0.0
 40
14.71206
100
AcDbArc
 50
70.222254
 51
144.464821
  0
ARC
  5
80
100
AcDbEntity
  8
0
100
AcDbCircle
 10
186.069491
 20
394.327585
 30
0.0
 40
15.138154
100
AcDbArc
 50
83.023333
 51
156.100725
  0
ARC
  5
81
100
AcDbEntity
  8
0
100
AcDbCircle
 10
166.560292
 20
380.985777
 30
0.0
 40
14.435747
100
AcDbArc
 50
94.414274
 51
170.737078
  0
ARC
  5
82
100
AcDbEntity
  8
0
100
AcDbCircle
 10
149.884491
 20
364.155102
 30
0.0
 40
13.373448
100
AcDbArc
 50
103.317439
 51
187.770189
  0
ARC
  5
83
100
AcDbEntity
  8
0
100
AcDbCircle
 10
130.942414
 20
301.310223
 30
0.0
 40
14.648944
100
AcDbArc
 50
140.226003
 51
217.107833
  0
ARC
  5
84
100
AcDbEntity
  8
0
100
AcDbCircle
 10
133.361486
 20
278.278931
 30
0.0
 40
14.986299
100
AcDbArc
 50
152.179647
 51
230.955085
  0
ARC
  5
85
100
AcDbEntity
  8
0
100
AcDbCircle
 10
142.780827
 20
257.025832
 30
0.0
 40
17.397702
100
AcDbArc
 50
170.610933
 51
239.226714
  0
ARC
  5
86
100
AcDbEntity
  8
0
100
AcDbCircle
 10
150.770822
 20
233.956358
 30
0.0
 40
12.959635
100
AcDbArc
 50
173.097894
 51
257.035476
  0
ARC
  5
87
100
AcDbEntity
  8
0
100
AcDbCircle
 10
205.494102
 20
196.7189
 30
0.0
 40
14.956708
100
AcDbArc
 50
213.300967
 51
289.015229
  0
ARC
  5
88
100
AcDbEntity
  8
0
100
AcDbCircle
 10
228.764524
 20
193.570305
 30
0.0
 40
16.60297
100
AcDbArc
 50
227.609492
 51
299.991541
  0
ARC
  5
89
100
AcDbEntity
  8
0
100
AcDbCircle
 10
251.599705
 20
195.301031
 30
0.0
 40
18.263773
100
AcDbArc
 50
241.897206
 51
309.988917
  0
ARC
  5
8A
100
AcDbEntity
  8
0
100
AcDbCircle
 10
274.460845
 20
197.549625
 30
0.0
 40
15.44637
100
AcDbArc
 50
250.360499
 51
326.082617
  0
LINE
  5
8B
100
AcDbEntity
  8
0
100
AcDbLine
 10
325.242124
 20
214.37775
 30
0.0
 11
332.395398
 21
221.52643
 31
0.0
  0
LINE
  5
8C
100
AcDbEntity
  8
0
100
AcDbLine
 10
341.87764
 20
234.549222
 30
0.0
 11
346.591038
 21
242.307475
 31
0.0
  0
LINE
  5
8D
100
AcDbEntity
  8
0
100
AcDbLine
 10
354.631545
 20
260.816461
 30
0.0
 11
356.128742
 21
266.136408
 31
0.0
  0
LINE
  5
8E
100
AcDbEntity
  8
0
100
AcDbLine
 10
360.232175
 20
284.97789
 30
0.0
 11
360.786695
 21
292.292822
 31
0.0
  0
LINE
  5
8F
100
AcDbEntity
  8
0
100
AcDbLine
 10
360.786695
 20
310.413891
 30
0.0
 11
359.400405
 21
319.335892
 31
0.0
  0
LINE
  5
90
100
AcDbEntity
  8
0
100
AcDbLine
 10
348.254604
 20
354.026389
 30
0.0
 11
343.208493
 21
363.114632
 31
0.0
  0
LINE
  5
91
100
AcDbEntity
  8
0
100
AcDbLine
 10
333.559898
 20
376.913245
 30
0.0
 11
327.515655
 21
383.674012
 31
0.0
  0
LINE
  5
92
100
AcDbEntity
  8
0
100
AcDbLine
 10
313.430913
 20
396.142639
 30
0.0
 11
307.83029
 21
400.465095
 31
0.0
  0
LINE
  5
93
100
AcDbEntity
  8
0
100
AcDbLine
 10
290.806607
 20
409.996669
 30
0.0
 11
284.762364
 21
412.712057
 31
0.0
  0
LINE
  5
94
100
AcDbEntity
  8
0
100
AcDbLine
 10
267.128709
 20
418.253674
 30
0.0
 11
257.868264
 21
419.805325
 31
0.0
  0
LINE
  5
95
100
AcDbEntity
  8
0
100
AcDbLine
 10
222.212794
 20
419.80532
 30
0.0
 11
212.286932
 21
417.810339
 31
0.0
  0
LINE
  5
96
100
AcDbEntity
  8
0
100
AcDbLine
 10
195.374156
 20
412.601222
 30
0.0
 11
187.832716
 21
409.331673
 31
0.0
  0
LINE
  5
97
100
AcDbEntity
  8
0
100
AcDbLine
 10
172.250785
 20
400.520508
 30
0.0
 11
165.430216
 21
395.366809
 31
0.0
  0
LINE
  5
98
100
AcDbEntity
  8
0
100
AcDbLine
 10
152.343598
 20
383.396924
 30
0.0
 11
146.687522
 21
377.134905
 31
0.0
  0
LINE
  5
99
100
AcDbEntity
  8
0
100
AcDbLine
 10
136.595315
 20
362.449632
 30
0.0
 11
131.881916
 21
354.358879
 31
0.0
  0
LINE
  5
9A
100
AcDbEntity
  8
0
100
AcDbLine
 10
120.625209
 20
319.114222
 30
0.0
 11
119.682523
 21
310.690969
 31
0.0
  0
LINE
  5
9B
100
AcDbEntity
  8
0
100
AcDbLine
 10
119.183457
 20
292.514482
 30
0.0
 11
120.181589
 21
285.254967
 31
0.0
  0
LINE
  5
9C
100
AcDbEntity
  8
0
100
AcDbLine
 10
123.896863
 20
266.690568
 30
0.0
 11
125.615867
 21
259.818966
 31
0.0
  0
LINE
  5
9D
100
AcDbEntity
  8
0
100
AcDbLine
 10
133.822726
 20
242.085805
 30
0.0
 11
138.037058
 21
235.491285
 31
0.0
  0
LINE
  5
9E
100
AcDbEntity
  8
0
100
AcDbLine
 10
147.796568
 20
221.360177
 30
0.0
 11
154.339869
 21
214.821075
 31
0.0
  0
LINE
  5
9F
100
AcDbEntity
  8
0
100
AcDbLine
 10
185.781007
 20
192.211297
 30
0.0
 11
192.989734
 21
188.498418
 31
0.0
  0
LINE
  5
A0
100
AcDbEntity
  8
0
100
AcDbLine
 10
210.235223
 20
182.513476
 30
0.0
 11
217.610303
 21
181.238908
 31
0.0
  0
LINE
  5
A1
100
AcDbEntity
  8
0
100
AcDbLine
 10
237.018416
 20
179.133098
 30
0.0
 11
242.951752
 21
179.188515
 31
0.0
  0
LINE
  5
A2
100
AcDbEntity
  8
0
100
AcDbLine
 10
263.247089
 20
181.183496
 30
0.0
 11
269.346786
 21
182.956812
 31
0.0
  0
LINE
  5
A3
100
AcDbEntity
  8
0
100
AcDbLine
 10
287.146794
 20
188.830919
 30
0.0
 11
294.410975
 21
192.155885
 31
0.0
  0
LINE
  5
FF
100
AcDbEntity
  8
1
100
AcDbLine
 10
204.670199
 20
429.867541
 30
0.0
 11
275.170199
 21
429.867541
 31
0.0
  0
LINE
  5
11F
100
AcDbEntity
  8
0
100
AcDbLine
 10
675.479562
 20
437.483434
 30
0.0
 11
675.479562
 21
164.562998
 31
0.0
  0
LINE
  5
120
100
AcDbEntity
  8
1
100
AcDbLine
 10
690.0
 20
458.691979
 30
0.0
 11
690.0
 21
136.098904
 31
0.0
  0
LINE
  5
121
100
AcDbEntity
  8
0
100
AcDbLine
 10
723.423919
 20
324.814099
 30
0.0
 11
723.423919
 21
274.814099
 31
0.0
  0
LINE
  5
122
100
AcDbEntity
  8
0
100
AcDbLine
 10
704.673573
 20
299.774012
 30
0.0
 11
704.673573
 21
435.274012
 31
0.0
  0
LINE
  5
123
100
AcDbEntity
  8
0
100
AcDbLine
 10
704.673573
 20
299.774012
 30
0.0
 11
704.673573
 21
164.274012
 31
0.0
  0
ARC
  5
124
100
AcDbEntity
  8
0
100
AcDbCircle
 10
690.050009
 20
164.392016
 30
0.0
 40
14.636327
100
AcDbArc
 50
180.770676
 51
359.556038
  0
LINE
  5
128
100
AcDbEntity
  8
0
100
AcDbLine
 10
720.423919
 20
271.814099
 30
0.0
 11
704.423919
 21
271.814099
 31
0.0
  0
ARC
  5
129
100
AcDbEntity
  8
0
100
AcDbCircle
 10
720.401317
 20
274.836701
 30
0.0
 40
3.022686
100
AcDbArc
 50
270.42843
 51
359.57157
  0
LINE
  5
12D
100
AcDbEntity
  8
0
100
AcDbLine
 10
720.423919
 20
327.814099
 30
0.0
 11
704.423919
 21
327.814099
 31
0.0
  0
ARC
  5
12E
100
AcDbEntity
  8
0
100
AcDbCircle
 10
720.409584
 20
324.799764
 30
0.0
 40
3.01437
100
AcDbArc
 50
0.272487
 51
89.727513
  0
ARC
  5
12F
100
AcDbEntity
  8
0
100
AcDbCircle
 10
689.923919
 20
435.314099
 30
0.0
 40
14.5
100
AcDbArc
 50
0.0
 51
180.0
  0
LINE
  5
146
100
AcDbEntity
  8
1
100
AcDbLine
 10
654.287626
 20
429.839973
 30
0.0
 11
715.927649
 21
429.839973
 31
0.0
  0
LINE
  5
147
100
AcDbEntity
  8
1
100
AcDbLine
 10
739.550094
 20
300.0
 30
0.0
 11
639.154716
 21
300.0
 31
0.0
  0
LINE
  5
14C
100
AcDbEntity
  8
5
100
AcDbLine
 10
676.693121
 20
327.775356
 30
0.0
 11
676.693121
 21
271.791001
 31
0.0
  0
ARC
  5
14D
100
AcDbEntity
  8
5
100
AcDbCircle
 10
691.285879
 20
293.660547
 30
0.0
 40
37.104835
100
AcDbArc
 50
70.63574
 51
113.159029
  0
ARC
  5
14E
100
AcDbEntity
  8
5
100
AcDbCircle
 10
691.438943
 20
304.854615
 30
0.0
 40
36.202788
100
AcDbArc
 50
245.963923
 51
289.609415
  0
CIRCLE
  5
1BC
100
AcDbEntity
  8
0
100
AcDbCircle
 10
240.0
 20
429.867541
 30
0.0
 40
10.0
  0
CIRCLE
  5
1BD
100
AcDbEntity
  8
0
100
AcDbCircle
 10
240.0
 20
429.867541
 30
0.0
 40
6.0
  0
CIRCLE
  5
1BE
100
AcDbEntity
  8
0
100
AcDbCircle
 10
240.0
 20
429.867541
 30
0.0
 40
5.0
  0
ENDSEC
  0
SECTION
  2
OBJECTS
  0
DICTIONARY
  5
192
100
AcDbDictionary
  3
ACAD_GROUP
350
193
  3
ACAD_MLINESTYLE
350
1A0
  3
ACDBVARIABLEDICTIONARY
350
1B6
  0
DICTIONARY
  5
193
102
{ACAD_REACTORS
330
192
102
}
100
AcDbDictionary
  0
DICTIONARY
  5
1A0
102
{ACAD_REACTORS
330
192
102
}
100
AcDbDictionary
  3
STANDARD
350
1A1
  0
DICTIONARY
  5
1B6
102
{ACAD_REACTORS
330
192
102
}
100
AcDbDictionary
  3
DIMADEC
350
1B7
  0
MLINESTYLE
  5
1A1
102
{ACAD_REACTORS
330
1A0
102
}
100
AcDbMlineStyle
  2
STANDARD
 70
     0
  3

 62
   256
 51
90.0
 52
90.0
 71
     2
 49
0.5
 62
   256
  6
BYLAYER
 49
-0.5
 62
   256
  6
BYLAYER
  0
DICTIONARYVAR
  5
1B7
102
{ACAD_REACTORS
330
1B6
102
}
100
DictionaryVariables
280
     0
  1
0
  0
ENDSEC
  0
EOF
