  0
SECTION
  2
HEADER
  9
$ACADVER
  1
AC1014
  9
$ACADMAINTVER
 70
     0
  9
$DWGCODEPAGE
  3
ANSI_932
  9
$INSBASE
 10
0.0
 20
0.0
 30
0.0
  9
$EXTMIN
 10
20.0
 20
80.0
 30
0.0
  9
$EXTMAX
 10
590.379873
 20
400.0
 30
0.0
  9
$LIMMIN
 10
0.0
 20
0.0
  9
$LIMMAX
 10
680.0
 20
470.0
  9
$ORTHOMODE
 70
     1
  9
$REGENMODE
 70
     1
  9
$FILLMODE
 70
     1
  9
$QTEXTMODE
 70
     0
  9
$MIRRTEXT
 70
     1
  9
$DRAGMODE
 70
     1
  9
$LTSCALE
 40
40.0
  9
$OSMODE
 70
    32
  9
$ATTMODE
 70
     1
  9
$TEXTSIZE
 40
20.0
  9
$TRACEWID
 40
0.05
  9
$TEXTSTYLE
  7
BIGFONT
  9
$CLAYER
  8
0
  9
$CELTYPE
  6
BYLAYER
  9
$CECOLOR
 62
   256
  9
$CELTSCALE
 40
1.0
  9
$DELOBJ
 70
     1
  9
$DISPSILH
 70
     0
  9
$DIMSCALE
 40
4.0
  9
$DIMASZ
 40
3.0
  9
$DIMEXO
 40
2.0
  9
$DIMDLI
 40
0.38
  9
$DIMRND
 40
0.0
  9
$DIMDLE
 40
0.0
  9
$DIMEXE
 40
2.0
  9
$DIMTP
 40
0.0
  9
$DIMTM
 40
0.0
  9
$DIMTXT
 40
3.2
  9
$DIMCEN
 40
0.09
  9
$DIMTSZ
 40
0.0
  9
$DIMTOL
 70
     0
  9
$DIMLIM
 70
     0
  9
$DIMTIH
 70
     0
  9
$DIMTOH
 70
     0
  9
$DIMSE1
 70
     0
  9
$DIMSE2
 70
     0
  9
$DIMTAD
 70
     1
  9
$DIMZIN
 70
     0
  9
$DIMBLK
  1

  9
$DIMASO
 70
     0
  9
$DIMSHO
 70
     0
  9
$DIMPOST
  1

  9
$DIMAPOST
  1

  9
$DIMALT
 70
     0
  9
$DIMALTD
 70
     2
  9
$DIMALTF
 40
25.4
  9
$DIMLFAC
 40
1.0
  9
$DIMTOFL
 70
     0
  9
$DIMTVP
 40
1.6
  9
$DIMTIX
 70
     1
  9
$DIMSOXD
 70
     0
  9
$DIMSAH
 70
     0
  9
$DIMBLK1
  1

  9
$DIMBLK2
  1

  9
$DIMSTYLE
  2
STANDARD
  9
$DIMCLRD
 70
     0
  9
$DIMCLRE
 70
     0
  9
$DIMCLRT
 70
     0
  9
$DIMTFAC
 40
1.0
  9
$DIMGAP
 40
0.09
  9
$DIMJUST
 70
     0
  9
$DIMSD1
 70
     0
  9
$DIMSD2
 70
     0
  9
$DIMTOLJ
 70
     1
  9
$DIMTZIN
 70
     0
  9
$DIMALTZ
 70
     0
  9
$DIMALTTZ
 70
     0
  9
$DIMFIT
 70
     5
  9
$DIMUPT
 70
     0
  9
$DIMUNIT
 70
     2
  9
$DIMDEC
 70
     4
  9
$DIMTDEC
 70
     4
  9
$DIMALTU
 70
     2
  9
$DIMALTTD
 70
     2
  9
$DIMTXSTY
  7
BIGFONT
  9
$DIMAUNIT
 70
     0
  9
$LUNITS
 70
     2
  9
$LUPREC
 70
     4
  9
$SKETCHINC
 40
0.1
  9
$FILLETRAD
 40
0.0
  9
$AUNITS
 70
     0
  9
$AUPREC
 70
     0
  9
$MENU
  1
ACAD
  9
$ELEVATION
 40
0.0
  9
$PELEVATION
 40
0.0
  9
$THICKNESS
 40
0.0
  9
$LIMCHECK
 70
     0
  9
$BLIPMODE
 70
     0
  9
$CHAMFERA
 40
0.0
  9
$CHAMFERB
 40
0.0
  9
$CHAMFERC
 40
0.0
  9
$CHAMFERD
 40
0.0
  9
$SKPOLY
 70
     0
  9
$TDCREATE
 40
2450865.698367245
  9
$TDUPDATE
 40
2453089.730338541
  9
$TDINDWG
 40
0.0006519560
  9
$TDUSRTIMER
 40
0.0006519560
  9
$USRTIMER
 70
     1
  9
$ANGBASE
 50
0.0
  9
$ANGDIR
 70
     0
  9
$PDMODE
 70
     0
  9
$PDSIZE
 40
0.0
  9
$PLINEWID
 40
0.0
  9
$COORDS
 70
     2
  9
$SPLFRAME
 70
     0
  9
$SPLINETYPE
 70
     6
  9
$SPLINESEGS
 70
     8
  9
$ATTDIA
 70
     0
  9
$ATTREQ
 70
     1
  9
$HANDLING
 70
     1
  9
$HANDSEED
  5
1C2
  9
$SURFTAB1
 70
     6
  9
$SURFTAB2
 70
     6
  9
$SURFTYPE
 70
     6
  9
$SURFU
 70
     6
  9
$SURFV
 70
     6
  9
$UCSNAME
  2

  9
$UCSORG
 10
0.0
 20
0.0
 30
0.0
  9
$UCSXDIR
 10
1.0
 20
0.0
 30
0.0
  9
$UCSYDIR
 10
0.0
 20
1.0
 30
0.0
  9
$PUCSNAME
  2

  9
$PUCSORG
 10
0.0
 20
0.0
 30
0.0
  9
$PUCSXDIR
 10
1.0
 20
0.0
 30
0.0
  9
$PUCSYDIR
 10
0.0
 20
1.0
 30
0.0
  9
$USERI1
 70
     0
  9
$USERI2
 70
     0
  9
$USERI3
 70
     0
  9
$USERI4
 70
     0
  9
$USERI5
 70
     0
  9
$USERR1
 40
0.0
  9
$USERR2
 40
0.0
  9
$USERR3
 40
0.0
  9
$USERR4
 40
0.0
  9
$USERR5
 40
0.0
  9
$WORLDVIEW
 70
     1
  9
$SHADEDGE
 70
     3
  9
$SHADEDIF
 70
    70
  9
$TILEMODE
 70
     1
  9
$MAXACTVP
 70
    16
  9
$PINSBASE
 10
0.0
 20
0.0
 30
0.0
  9
$PLIMCHECK
 70
     0
  9
$PEXTMIN
 10
1.000000E+20
 20
1.000000E+20
 30
1.000000E+20
  9
$PEXTMAX
 10
-1.000000E+20
 20
-1.000000E+20
 30
-1.000000E+20
  9
$PLIMMIN
 10
0.0
 20
0.0
  9
$PLIMMAX
 10
12.0
 20
9.0
  9
$UNITMODE
 70
     0
  9
$VISRETAIN
 70
     0
  9
$PLINEGEN
 70
     1
  9
$PSLTSCALE
 70
     0
  9
$TREEDEPTH
 70
  3020
  9
$PICKSTYLE
 70
     1
  9
$CMLSTYLE
  2
STANDARD
  9
$CMLJUST
 70
     0
  9
$CMLSCALE
 40
1.0
  9
$PROXYGRAPHICS
 70
     1
  9
$MEASUREMENT
 70
     0
  0
ENDSEC
  0
SECTION
  2
CLASSES
  0
CLASS
  1
DICTIONARYVAR
  2
AcDbDictionaryVar
  3
"AutoCAD"
 90
        0
280
     0
281
     0
  0
ENDSEC
  0
SECTION
  2
TABLES
  0
TABLE
  2
VPORT
  5
18D
100
AcDbSymbolTable
 70
     1
  0
VPORT
  5
1BD
100
AcDbSymbolTableRecord
100
AcDbViewportTableRecord
  2
*ACTIVE
 70
     0
 10
0.0
 20
0.0
 11
1.0
 21
1.0
 12
416.801181
 22
261.815888
 13
0.0
 23
0.0
 14
15.0
 24
15.0
 15
30.0
 25
30.0
 16
0.0
 26
0.0
 36
1.0
 17
0.0
 27
0.0
 37
0.0
 40
523.631775
 41
1.591963
 42
50.0
 43
0.0
 44
0.0
 50
0.0
 51
0.0
 71
     0
 72
   500
 73
     1
 74
     1
 75
     0
 76
     0
 77
     0
 78
     1
  0
ENDTAB
  0
TABLE
  2
LTYPE
  5
18A
100
AcDbSymbolTable
 70
     3
  0
LTYPE
  5
196
100
AcDbSymbolTableRecord
100
AcDbLinetypeTableRecord
  2
BYBLOCK
 70
     0
  3

 72
    65
 73
     0
 40
0.0
  0
LTYPE
  5
197
100
AcDbSymbolTableRecord
100
AcDbLinetypeTableRecord
  2
BYLAYER
 70
     0
  3

 72
    65
 73
     0
 40
0.0
  0
LTYPE
  5
198
100
AcDbSymbolTableRecord
100
AcDbLinetypeTableRecord
  2
CONTINUOUS
 70
     0
  3
実線
 72
    65
 73
     0
 40
0.0
  0
LTYPE
  5
1A6
100
AcDbSymbolTableRecord
100
AcDbLinetypeTableRecord
  2
CENTER
 70
     0
  3
____ _ ____ _ ____ _ ____ _ ____ _ ____ _ ____
 72
    65
 73
     4
 40
2.0
 49
1.25
 74
     0
 49
-0.25
 74
     0
 49
0.25
 74
     0
 49
-0.25
 74
     0
  0
LTYPE
  5
1A7
100
AcDbSymbolTableRecord
100
AcDbLinetypeTableRecord
  2
TENSEN1
 70
     0
  3

 72
    65
 73
     2
 40
0.4
 49
0.3
 74
     0
 49
-0.1
 74
     0
  0
ENDTAB
  0
TABLE
  2
LAYER
  5
187
100
AcDbSymbolTable
 70
     5
  0
LAYER
  5
193
100
AcDbSymbolTableRecord
100
AcDbLayerTableRecord
  2
0
 70
     0
 62
     7
  6
CONTINUOUS
  0
LAYER
  5
1AC
100
AcDbSymbolTableRecord
100
AcDbLayerTableRecord
  2
1
 70
     0
 62
     1
  6
CENTER
  0
LAYER
  5
1AD
100
AcDbSymbolTableRecord
100
AcDbLayerTableRecord
  2
10
 70
     0
 62
     7
  6
CONTINUOUS
  0
LAYER
  5
1AE
100
AcDbSymbolTableRecord
100
AcDbLayerTableRecord
  2
11
 70
     0
 62
     3
  6
CONTINUOUS
  0
LAYER
  5
1AF
100
AcDbSymbolTableRecord
100
AcDbLayerTableRecord
  2
2
 70
     0
 62
     2
  6
TENSEN1
  0
ENDTAB
  0
TABLE
  2
STYLE
  5
188
100
AcDbSymbolTable
 70
     4
  0
STYLE
  5
194
100
AcDbSymbolTableRecord
100
AcDbTextStyleTableRecord
  2
STANDARD
 70
     0
 40
0.0
 41
1.0
 50
0.0
 71
     0
 42
0.2
  3
TXT
  4
BIGFONT
  0
STYLE
  5
1A3
100
AcDbSymbolTableRecord
100
AcDbTextStyleTableRecord
  2
K80
 70
     0
 40
0.0
 41
0.8
 50
0.0
 71
     0
 42
0.2
  3
TXT
  4
BIGFONT
  0
STYLE
  5
1A4
100
AcDbSymbolTableRecord
100
AcDbTextStyleTableRecord
  2
07500
 70
     0
 40
0.0
 41
0.75
 50
0.0
 71
     0
 42
0.2
  3
TXT
  4
BIGFONT
  0
STYLE
  5
1A5
100
AcDbSymbolTableRecord
100
AcDbTextStyleTableRecord
  2
BIGFONT
 70
     0
 40
20.0
 41
0.8
 50
0.0
 71
     0
 42
20.0
  3
txt.shx
  4
bigfont
  0
ENDTAB
  0
TABLE
  2
VIEW
  5
18B
100
AcDbSymbolTable
 70
     1
  0
VIEW
  5
1A8
100
AcDbSymbolTableRecord
100
AcDbViewTableRecord
  2
ALL
 70
     0
 40
1080.0
 10
883.966387
 20
540.0
 41
0.0
 11
0.0
 21
0.0
 31
1.0
 12
0.0
 22
0.0
 32
0.0
 42
0.0
 43
0.0
 44
0.0
 50
0.0
 71
     0
  0
ENDTAB
  0
TABLE
  2
UCS
  5
18C
100
AcDbSymbolTable
 70
     0
  0
ENDTAB
  0
TABLE
  2
APPID
  5
18E
100
AcDbSymbolTable
 70
     1
  0
APPID
  5
195
100
AcDbSymbolTableRecord
100
AcDbRegAppTableRecord
  2
ACAD
 70
     0
  0
ENDTAB
  0
TABLE
  2
DIMSTYLE
  5
18F
100
AcDbSymbolTable
 70
     1
  0
DIMSTYLE
105
1AB
100
AcDbSymbolTableRecord
100
AcDbDimStyleTableRecord
  2
STANDARD
 70
     0
  3

  4

  5

  6

  7

 40
1.0
 41
0.18
 42
0.0625
 43
0.38
 44
0.18
 45
0.0
 46
0.0
 47
0.0
 48
0.0
140
0.18
141
0.09
142
0.0
143
25.4
144
1.0
145
0.0
146
1.0
147
0.09
 71
     0
 72
     0
 73
     1
 74
     1
 75
     0
 76
     0
 77
     0
 78
     0
170
     0
171
     2
172
     0
173
     0
174
     0
175
     0
176
     0
177
     0
178
     0
270
     2
271
     4
272
     4
273
     2
274
     2
340
1A5
275
     0
280
     0
281
     0
282
     0
283
     1
284
     0
285
     0
286
     0
287
     5
288
     0
  0
ENDTAB
  0
TABLE
  2
BLOCK_RECORD
  5
186
100
AcDbSymbolTable
 70
     2
  0
BLOCK_RECORD
  5
19C
100
AcDbSymbolTableRecord
100
AcDbBlockTableRecord
  2
*MODEL_SPACE
  0
BLOCK_RECORD
  5
199
100
AcDbSymbolTableRecord
100
AcDbBlockTableRecord
  2
*PAPER_SPACE
  0
BLOCK_RECORD
  5
1A1
100
AcDbSymbolTableRecord
100
AcDbBlockTableRecord
  2
WAKU
  0
BLOCK_RECORD
  5
1A2
100
AcDbSymbolTableRecord
100
AcDbBlockTableRecord
  2
QQ
  0
ENDTAB
  0
ENDSEC
  0
SECTION
  2
BLOCKS
  0
BLOCK
  5
1B2
100
AcDbEntity
  8
0
100
AcDbBlockBegin
  2
*MODEL_SPACE
 70
     0
 10
0.0
 20
0.0
 30
0.0
  3
*MODEL_SPACE
  1

  0
ENDBLK
  5
1B3
100
AcDbEntity
  8
0
100
AcDbBlockEnd
  0
BLOCK
  5
1B0
100
AcDbEntity
 67
     1
  8
0
100
AcDbBlockBegin
  2
*PAPER_SPACE
 70
     0
 10
0.0
 20
0.0
 30
0.0
  3
*PAPER_SPACE
  1

  0
ENDBLK
  5
1B1
100
AcDbEntity
 67
     1
  8
0
100
AcDbBlockEnd
  0
BLOCK
  5
2E
100
AcDbEntity
  8
0
100
AcDbBlockBegin
  2
WAKU
 70
     0
 10
549.0
 20
0.0
 30
0.0
  3
WAKU
  1

  0
LINE
  5
2F
100
AcDbEntity
  8
11
100
AcDbLine
 10
452.0
 20
12.0
 30
0.0
 11
549.0
 21
12.0
 31
0.0
  0
LINE
  5
30
100
AcDbEntity
  8
11
100
AcDbLine
 10
477.0
 20
0.0
 30
0.0
 11
477.0
 21
12.0
 31
0.0
  0
LINE
  5
31
100
AcDbEntity
  8
11
100
AcDbLine
 10
452.0
 20
12.0
 30
0.0
 11
452.0
 21
0.0
 31
0.0
  0
TEXT
  5
32
100
AcDbEntity
  8
11
100
AcDbText
 10
454.0
 20
8.5
 30
0.0
 40
2.5
  1
尺度
100
AcDbText
  0
TEXT
  5
33
100
AcDbEntity
  8
11
100
AcDbText
 10
479.0
 20
8.5
 30
0.0
 40
2.5
  1
図番
100
AcDbText
  0
ENDBLK
  5
34
100
AcDbEntity
  8
0
100
AcDbBlockEnd
  0
BLOCK
  5
35
100
AcDbEntity
  8
0
100
AcDbBlockBegin
  2
QQ
 70
     0
 10
270.0
 20
0.0
 30
0.0
  3
QQ
  1

  0
LINE
  5
36
100
AcDbEntity
  8
11
100
AcDbLine
 10
173.0
 20
36.0
 30
0.0
 11
270.0
 21
36.0
 31
0.0
  0
TEXT
  5
37
100
AcDbEntity
  8
11
100
AcDbText
 10
175.0
 20
32.5
 30
0.0
 40
2.5
  1
部品名称
100
AcDbText
  0
LINE
  5
38
100
AcDbEntity
  8
11
100
AcDbLine
 10
173.0
 20
36.0
 30
0.0
 11
173.0
 21
0.0
 31
0.0
  0
LINE
  5
39
100
AcDbEntity
  8
11
100
AcDbLine
 10
173.0
 20
24.0
 30
0.0
 11
270.0
 21
24.0
 31
0.0
  0
TEXT
  5
3A
100
AcDbEntity
  8
11
100
AcDbText
 10
175.0
 20
20.5
 30
0.0
 40
2.5
  1
品番
100
AcDbText
  0
LINE
  5
3B
100
AcDbEntity
  8
11
100
AcDbLine
 10
173.0
 20
12.0
 30
0.0
 11
270.0
 21
12.0
 31
0.0
  0
TEXT
  5
3C
100
AcDbEntity
  8
11
100
AcDbText
 10
175.0
 20
8.5
 30
0.0
 40
2.5
  1
尺度
100
AcDbText
  0
TEXT
  5
3D
100
AcDbEntity
  8
11
100
AcDbText
 10
200.0
 20
8.5
 30
0.0
 40
2.5
  1
図番
100
AcDbText
  0
LINE
  5
3E
100
AcDbEntity
  8
11
100
AcDbLine
 10
198.0
 20
0.0
 30
0.0
 11
198.0
 21
12.0
 31
0.0
  0
ENDBLK
  5
3F
100
AcDbEntity
  8
0
100
AcDbBlockEnd
  0
ENDSEC
  0
SECTION
  2
ENTITIES
  0
CIRCLE
  5
40
100
AcDbEntity
  8
0
100
AcDbCircle
 10
180.0
 20
240.0
 30
0.0
 40
140.0
  0
ARC
  5
41
100
AcDbEntity
  8
0
100
AcDbCircle
 10
160.00365
 20
271.723298
 30
0.0
 40
6.0
100
AcDbArc
 50
302.814188
 51
358.611335
  0
LINE
  5
42
100
AcDbEntity
  8
0
100
AcDbLine
 10
166.001888
 20
271.577892
 30
0.0
 11
167.818206
 21
346.501001
 31
0.0
  0
ARC
  5
43
100
AcDbEntity
  8
0
100
AcDbCircle
 10
161.815403
 20
346.458081
 30
0.0
 40
6.0
100
AcDbArc
 50
0.409665
 51
99.577456
  0
ARC
  5
44
100
AcDbEntity
  8
0
100
AcDbCircle
 10
180.0
 20
362.0
 30
0.0
 40
15.0
100
AcDbArc
 50
186.323062
 51
353.676938
  0
ARC
  5
45
100
AcDbEntity
  8
0
100
AcDbCircle
 10
156.008562
 20
268.820697
 30
0.0
 40
6.0
100
AcDbArc
 50
253.388665
 51
309.185812
  0
LINE
  5
46
100
AcDbEntity
  8
0
100
AcDbLine
 10
154.293295
 20
263.071101
 30
0.0
 11
82.47591
 21
284.496194
 31
0.0
  0
ARC
  5
47
100
AcDbEntity
  8
0
100
AcDbCircle
 10
84.371698
 20
290.191936
 30
0.0
 40
6.0
100
AcDbArc
 50
152.422544
 51
251.590335
  0
ARC
  5
48
100
AcDbEntity
  8
0
100
AcDbCircle
 10
180.0
 20
240.0
 30
0.0
 40
31.5
100
AcDbArc
 50
122.112446
 51
129.887554
  0
ARC
  5
49
100
AcDbEntity
  8
0
100
AcDbCircle
 10
180.0
 20
240.0
 30
0.0
 40
31.5
100
AcDbArc
 50
194.112446
 51
201.887554
  0
ARC
  5
4A
100
AcDbEntity
  8
0
100
AcDbCircle
 10
102.713862
 20
164.562242
 30
0.0
 40
6.0
100
AcDbArc
 50
224.422544
 51
323.590335
  0
LINE
  5
4B
100
AcDbEntity
  8
0
100
AcDbLine
 10
150.114271
 20
222.680832
 30
0.0
 11
107.545004
 21
160.999159
 31
0.0
  0
ARC
  5
4C
100
AcDbEntity
  8
0
100
AcDbCircle
 10
145.176127
 20
226.088872
 30
0.0
 40
6.0
100
AcDbArc
 50
325.388665
 51
21.185812
  0
ARC
  5
4D
100
AcDbEntity
  8
0
100
AcDbCircle
 10
73.132999
 20
255.602776
 30
0.0
 40
6.0
100
AcDbArc
 50
72.409665
 51
171.577456
  0
LINE
  5
4E
100
AcDbEntity
  8
0
100
AcDbLine
 10
145.641986
 20
236.44511
 30
0.0
 11
74.947147
 21
261.325045
 31
0.0
  0
ARC
  5
4F
100
AcDbEntity
  8
0
100
AcDbCircle
 10
143.650139
 20
230.78538
 30
0.0
 40
6.0
100
AcDbArc
 50
14.814188
 51
70.611335
  0
ARC
  5
50
100
AcDbEntity
  8
0
100
AcDbCircle
 10
180.0
 20
240.0
 30
0.0
 40
31.5
100
AcDbArc
 50
266.112446
 51
273.887554
  0
ARC
  5
51
100
AcDbEntity
  8
0
100
AcDbCircle
 10
227.862842
 20
143.184965
 30
0.0
 40
6.0
100
AcDbArc
 50
296.422544
 51
35.590335
  0
LINE
  5
52
100
AcDbEntity
  8
0
100
AcDbLine
 10
187.236309
 20
206.225065
 30
0.0
 11
232.74444
 21
146.678601
 31
0.0
  0
ARC
  5
53
100
AcDbEntity
  8
0
100
AcDbCircle
 10
182.4691
 20
202.581753
 30
0.0
 40
6.0
100
AcDbArc
 50
37.388665
 51
93.185812
  0
ARC
  5
54
100
AcDbEntity
  8
0
100
AcDbCircle
 10
132.137158
 20
143.184965
 30
0.0
 40
6.0
100
AcDbArc
 50
144.409665
 51
243.577456
  0
LINE
  5
55
100
AcDbEntity
  8
0
100
AcDbLine
 10
172.763691
 20
206.225065
 30
0.0
 11
127.25556
 21
146.678601
 31
0.0
  0
ARC
  5
56
100
AcDbEntity
  8
0
100
AcDbCircle
 10
177.5309
 20
202.581753
 30
0.0
 40
6.0
100
AcDbArc
 50
86.814188
 51
142.611335
  0
ARC
  5
57
100
AcDbEntity
  8
0
100
AcDbCircle
 10
180.0
 20
240.0
 30
0.0
 40
31.5
100
AcDbArc
 50
338.112446
 51
345.887554
  0
ARC
  5
58
100
AcDbEntity
  8
0
100
AcDbCircle
 10
286.867001
 20
255.602776
 30
0.0
 40
6.0
100
AcDbArc
 50
8.422544
 51
107.590335
  0
LINE
  5
59
100
AcDbEntity
  8
0
100
AcDbLine
 10
214.358014
 20
236.44511
 30
0.0
 11
285.052853
 21
261.325045
 31
0.0
  0
ARC
  5
5A
100
AcDbEntity
  8
0
100
AcDbCircle
 10
216.349861
 20
230.78538
 30
0.0
 40
6.0
100
AcDbArc
 50
109.388665
 51
165.185812
  0
ARC
  5
5B
100
AcDbEntity
  8
0
100
AcDbCircle
 10
257.286138
 20
164.562242
 30
0.0
 40
6.0
100
AcDbArc
 50
216.409665
 51
315.577456
  0
LINE
  5
5C
100
AcDbEntity
  8
0
100
AcDbLine
 10
209.885729
 20
222.680832
 30
0.0
 11
252.454996
 21
160.999159
 31
0.0
  0
ARC
  5
5D
100
AcDbEntity
  8
0
100
AcDbCircle
 10
214.823873
 20
226.088872
 30
0.0
 40
6.0
100
AcDbArc
 50
158.814188
 51
214.611335
  0
ARC
  5
5E
100
AcDbEntity
  8
0
100
AcDbCircle
 10
180.0
 20
240.0
 30
0.0
 40
31.5
100
AcDbArc
 50
50.112446
 51
57.887554
  0
ARC
  5
5F
100
AcDbEntity
  8
0
100
AcDbCircle
 10
198.184597
 20
346.458081
 30
0.0
 40
6.0
100
AcDbArc
 50
80.422544
 51
179.590335
  0
LINE
  5
60
100
AcDbEntity
  8
0
100
AcDbLine
 10
193.998112
 20
271.577892
 30
0.0
 11
192.181794
 21
346.501001
 31
0.0
  0
ARC
  5
61
100
AcDbEntity
  8
0
100
AcDbCircle
 10
199.99635
 20
271.723298
 30
0.0
 40
6.0
100
AcDbArc
 50
181.388665
 51
237.185812
  0
ARC
  5
62
100
AcDbEntity
  8
0
100
AcDbCircle
 10
275.628302
 20
290.191936
 30
0.0
 40
6.0
100
AcDbArc
 50
288.409665
 51
27.577456
  0
LINE
  5
63
100
AcDbEntity
  8
0
100
AcDbLine
 10
205.706705
 20
263.071101
 30
0.0
 11
277.52409
 21
284.496194
 31
0.0
  0
ARC
  5
64
100
AcDbEntity
  8
0
100
AcDbCircle
 10
203.991438
 20
268.820697
 30
0.0
 40
6.0
100
AcDbArc
 50
230.814188
 51
286.611335
  0
LINE
  5
65
100
AcDbEntity
  8
1
100
AcDbLine
 10
205.491565
 20
362.0
 30
0.0
 11
154.508435
 21
362.0
 31
0.0
  0
LINE
  5
66
100
AcDbEntity
  8
1
100
AcDbLine
 10
340.0
 20
240.0
 30
0.0
 11
20.0
 21
240.0
 31
0.0
  0
LINE
  5
67
100
AcDbEntity
  8
1
100
AcDbLine
 10
180.0
 20
400.0
 30
0.0
 11
180.0
 21
80.0
 31
0.0
  0
CIRCLE
  5
6F
100
AcDbEntity
  8
0
100
AcDbCircle
 10
180.03581
 20
240.069611
 30
0.0
 40
26.5
  0
ARC
  5
70
100
AcDbEntity
  8
0
100
AcDbCircle
 10
200.361823
 20
359.345761
 30
0.0
 40
5.501828
100
AcDbArc
 50
84.011692
 51
171.031606
  0
ARC
  5
71
100
AcDbEntity
  8
0
100
AcDbCircle
 10
159.02567
 20
358.517599
 30
0.0
 40
6.323588
100
AcDbArc
 50
14.868424
 51
85.046273
  0
ARC
  5
72
100
AcDbEntity
  8
0
100
AcDbCircle
 10
180.03581
 20
240.069611
 30
0.0
 40
126.5
100
AcDbArc
 50
99.918896
 51
80.135691
  0
LINE
  5
73
100
AcDbEntity
  8
0
100
AcDbLine
 10
159.591489
 20
364.797812
 30
0.0
 11
158.23956
 21
364.6714
 31
0.0
  0
LINE
  5
74
100
AcDbEntity
  8
0
100
AcDbLine
 10
200.910275
 20
364.817908
 30
0.0
 11
201.722068
 21
364.692709
 31
0.0
  0
ARC
  5
75
100
AcDbEntity
  8
0
100
AcDbCircle
 10
262.425798
 20
176.096825
 30
0.0
 40
13.374965
100
AcDbArc
 50
284.273356
 51
2.509232
  0
ARC
  5
76
100
AcDbEntity
  8
0
100
AcDbCircle
 10
275.06332
 20
195.686296
 30
0.0
 40
12.828914
100
AcDbArc
 50
295.133453
 51
14.28266
  0
ARC
  5
77
100
AcDbEntity
  8
0
100
AcDbCircle
 10
282.44594
 20
218.847037
 30
0.0
 40
12.84003
100
AcDbArc
 50
309.289164
 51
25.152491
  0
ARC
  5
78
100
AcDbEntity
  8
0
100
AcDbCircle
 10
285.550167
 20
243.643703
 30
0.0
 40
11.810383
100
AcDbArc
 50
322.262361
 51
42.383657
  0
ARC
  5
79
100
AcDbEntity
  8
0
100
AcDbCircle
 10
268.865628
 20
298.918514
 30
0.0
 40
10.999023
100
AcDbArc
 50
349.791117
 51
78.471986
  0
ARC
  5
7A
100
AcDbEntity
  8
0
100
AcDbCircle
 10
250.113602
 20
314.86362
 30
0.0
 40
14.65469
100
AcDbArc
 50
11.164204
 51
82.755522
  0
ARC
  5
7B
100
AcDbEntity
  8
0
100
AcDbCircle
 10
230.552051
 20
330.999668
 30
0.0
 40
13.303321
100
AcDbArc
 50
23.857707
 51
97.778695
  0
ARC
  5
7C
100
AcDbEntity
  8
0
100
AcDbCircle
 10
210.00298
 20
341.968154
 30
0.0
 40
11.337876
100
AcDbArc
 50
28.99994
 51
113.17336
  0
ARC
  5
7D
100
AcDbEntity
  8
0
100
AcDbCircle
 10
150.089835
 20
342.403612
 30
0.0
 40
11.135178
100
AcDbArc
 50
63.759576
 51
148.111777
  0
ARC
  5
7E
100
AcDbEntity
  8
0
100
AcDbCircle
 10
127.17909
 20
332.877252
 30
0.0
 40
10.94596
100
AcDbArc
 50
77.524767
 51
161.334549
  0
ARC
  5
7F
100
AcDbEntity
  8
0
100
AcDbCircle
 10
107.011271
 20
317.380203
 30
0.0
 40
11.620194
100
AcDbArc
 50
92.329817
 51
174.360287
  0
ARC
  5
80
100
AcDbEntity
  8
0
100
AcDbCircle
 10
91.287043
 20
299.791778
 30
0.0
 40
10.693836
100
AcDbArc
 50
105.308227
 51
186.338167
  0
ARC
  5
81
100
AcDbEntity
  8
0
100
AcDbCircle
 10
73.340496
 20
244.070611
 30
0.0
 40
11.193727
100
AcDbArc
 50
136.256866
 51
218.968206
  0
ARC
  5
82
100
AcDbEntity
  8
0
100
AcDbCircle
 10
75.744942
 20
219.148463
 30
0.0
 40
11.695551
100
AcDbArc
 50
151.578802
 51
231.972462
  0
ARC
  5
83
100
AcDbEntity
  8
0
100
AcDbCircle
 10
81.070245
 20
195.514554
 30
0.0
 40
9.634679
100
AcDbArc
 50
159.737411
 51
248.745621
  0
ARC
  5
84
100
AcDbEntity
  8
0
100
AcDbCircle
 10
93.977428
 20
172.133429
 30
0.0
 40
8.998747
100
AcDbArc
 50
167.937911
 51
270.204413
  0
ARC
  5
85
100
AcDbEntity
  8
0
100
AcDbCircle
 10
143.921567
 20
140.118488
 30
0.0
 40
11.756024
100
AcDbArc
 50
209.121269
 51
292.605266
  0
ARC
  5
86
100
AcDbEntity
  8
0
100
AcDbCircle
 10
167.806077
 20
135.404125
 30
0.0
 40
12.820456
100
AcDbArc
 50
222.139385
 51
303.793699
  0
ARC
  5
87
100
AcDbEntity
  8
0
100
AcDbCircle
 10
191.991078
 20
136.042088
 30
0.0
 40
13.501247
100
AcDbArc
 50
236.761159
 51
314.376103
  0
ARC
  5
88
100
AcDbEntity
  8
0
100
AcDbCircle
 10
216.130181
 20
141.865153
 30
0.0
 40
13.224096
100
AcDbArc
 50
252.320593
 51
327.746197
  0
LINE
  5
89
100
AcDbEntity
  8
0
100
AcDbLine
 10
261.519279
 20
160.330194
 30
0.0
 11
265.77784
 21
163.132809
 31
0.0
  0
LINE
  5
8A
100
AcDbEntity
  8
0
100
AcDbLine
 10
275.801035
 20
176.626884
 30
0.0
 11
280.578931
 21
184.100525
 31
0.0
  0
LINE
  5
8B
100
AcDbEntity
  8
0
100
AcDbLine
 10
287.486102
 20
198.736406
 30
0.0
 11
290.550188
 21
208.90886
 31
0.0
  0
LINE
  5
8C
100
AcDbEntity
  8
0
100
AcDbLine
 10
294.133608
 20
224.271339
 30
0.0
 11
294.912613
 21
236.467908
 31
0.0
  0
LINE
  5
8D
100
AcDbEntity
  8
0
100
AcDbLine
 10
294.341341
 20
251.518987
 30
0.0
 11
292.783332
 21
256.501412
 31
0.0
  0
LINE
  5
8E
100
AcDbEntity
  8
0
100
AcDbLine
 10
280.994396
 20
292.935408
 30
0.0
 11
279.644119
 21
296.931728
 31
0.0
  0
LINE
  5
8F
100
AcDbEntity
  8
0
100
AcDbLine
 10
271.17894
 20
309.647295
 30
0.0
 11
264.479502
 21
317.74374
 31
0.0
  0
LINE
  5
90
100
AcDbEntity
  8
0
100
AcDbLine
 10
252.119294
 20
329.369404
 30
0.0
 11
242.719303
 21
336.324038
 31
0.0
  0
LINE
  5
91
100
AcDbEntity
  8
0
100
AcDbLine
 10
228.853018
 20
344.160981
 30
0.0
 11
219.868498
 21
347.482598
 31
0.0
  0
LINE
  5
92
100
AcDbEntity
  8
0
100
AcDbLine
 10
205.534816
 20
352.465024
 30
0.0
 11
199.198911
 21
352.309324
 31
0.0
  0
LINE
  5
93
100
AcDbEntity
  8
0
100
AcDbLine
 10
160.923812
 20
352.309324
 30
0.0
 11
155.003378
 21
352.361227
 31
0.0
  0
LINE
  5
94
100
AcDbEntity
  8
0
100
AcDbLine
 10
140.669697
 20
348.313005
 30
0.0
 11
129.503964
 21
343.641983
 31
0.0
  0
LINE
  5
95
100
AcDbEntity
  8
0
100
AcDbLine
 10
116.832155
 20
336.479746
 30
0.0
 11
106.497365
 21
328.954203
 31
0.0
  0
LINE
  5
96
100
AcDbEntity
  8
0
100
AcDbLine
 10
95.383564
 20
318.626049
 30
0.0
 11
88.528325
 21
310.114403
 31
0.0
  0
LINE
  5
97
100
AcDbEntity
  8
0
100
AcDbLine
 10
80.58248
 20
298.696342
 30
0.0
 11
79.076402
 21
292.987311
 31
0.0
  0
LINE
  5
98
100
AcDbEntity
  8
0
100
AcDbLine
 10
67.183604
 20
256.553319
 30
0.0
 11
65.262061
 21
251.778496
 31
0.0
  0
LINE
  5
99
100
AcDbEntity
  8
0
100
AcDbLine
 10
64.638851
 20
237.038817
 30
0.0
 11
65.469787
 21
224.738451
 31
0.0
  0
LINE
  5
9A
100
AcDbEntity
  8
0
100
AcDbLine
 10
68.533867
 20
209.946869
 30
0.0
 11
72.013425
 21
198.788309
 31
0.0
  0
LINE
  5
9B
100
AcDbEntity
  8
0
100
AcDbLine
 10
77.466456
 20
186.591744
 30
0.0
 11
85.204562
 21
174.031876
 31
0.0
  0
LINE
  5
9C
100
AcDbEntity
  8
0
100
AcDbLine
 10
93.98135
 20
163.080918
 30
0.0
 11
98.499575
 21
160.330202
 31
0.0
  0
LINE
  5
9D
100
AcDbEntity
  8
0
100
AcDbLine
 10
133.710582
 20
134.276263
 30
0.0
 11
129.45202
 21
137.857381
 31
0.0
  0
LINE
  5
9E
100
AcDbEntity
  8
0
100
AcDbLine
 10
158.27519
 20
126.750724
 30
0.0
 11
148.355865
 21
129.241939
 31
0.0
  0
LINE
  5
9F
100
AcDbEntity
  8
0
100
AcDbLine
 10
184.657478
 20
124.726617
 30
0.0
 11
174.893954
 21
124.674718
 31
0.0
  0
LINE
  5
A0
100
AcDbEntity
  8
0
100
AcDbLine
 10
201.328173
 20
126.283624
 30
0.0
 11
212.130366
 21
129.19004
 31
0.0
  0
LINE
  5
A1
100
AcDbEntity
  8
0
100
AcDbLine
 10
227.243058
 20
134.691468
 30
0.0
 11
230.462945
 21
137.805487
 31
0.0
  0
ARC
  5
11E
100
AcDbEntity
  8
0
100
AcDbCircle
 10
539.887506
 20
114.301368
 30
0.0
 40
13.5
100
AcDbArc
 50
180.0
 51
0.0
  0
ARC
  5
11F
100
AcDbEntity
  8
0
100
AcDbCircle
 10
539.887506
 20
367.301368
 30
0.0
 40
13.5
100
AcDbArc
 50
0.0
 51
180.0
  0
ARC
  5
120
100
AcDbEntity
  8
2
100
AcDbCircle
 10
541.746035
 20
232.463091
 30
0.0
 40
37.527388
100
AcDbArc
 50
71.925867
 51
112.381921
  0
ARC
  5
121
100
AcDbEntity
  8
2
100
AcDbCircle
 10
541.213741
 20
243.039364
 30
0.0
 40
32.188804
100
AcDbArc
 50
244.697648
 51
292.22465
  0
LINE
  5
122
100
AcDbEntity
  8
0
100
AcDbLine
 10
526.387506
 20
240.801368
 30
0.0
 11
526.387506
 21
114.301368
 31
0.0
  0
LINE
  5
123
100
AcDbEntity
  8
2
100
AcDbLine
 10
527.456408
 20
267.024067
 30
0.0
 11
527.456408
 21
213.938593
 31
0.0
  0
LINE
  5
126
100
AcDbEntity
  8
1
100
AcDbLine
 10
540.0
 20
396.015586
 30
0.0
 11
540.0
 21
80.292533
 31
0.0
  0
LINE
  5
129
100
AcDbEntity
  8
0
100
AcDbLine
 10
526.387506
 20
240.801368
 30
0.0
 11
526.387506
 21
367.301368
 31
0.0
  0
LINE
  5
12E
100
AcDbEntity
  8
0
100
AcDbLine
 10
572.516981
 20
240.710286
 30
0.0
 11
572.516981
 21
217.210286
 31
0.0
  0
LINE
  5
12F
100
AcDbEntity
  8
0
100
AcDbLine
 10
553.387506
 20
240.801368
 30
0.0
 11
553.387506
 21
114.301368
 31
0.0
  0
ARC
  5
130
100
AcDbEntity
  8
0
100
AcDbCircle
 10
569.535858
 20
217.191409
 30
0.0
 40
2.981183
100
AcDbArc
 50
269.637202
 51
0.362798
  0
LINE
  5
131
100
AcDbEntity
  8
0
100
AcDbLine
 10
569.351857
 20
214.258989
 30
0.0
 11
553.391263
 21
214.258989
 31
0.0
  0
LINE
  5
132
100
AcDbEntity
  8
0
100
AcDbLine
 10
553.387506
 20
240.801368
 30
0.0
 11
553.387506
 21
367.301368
 31
0.0
  0
ARC
  5
133
100
AcDbEntity
  8
0
100
AcDbCircle
 10
569.494279
 20
264.187584
 30
0.0
 40
3.022787
100
AcDbArc
 50
0.430311
 51
89.569689
  0
LINE
  5
134
100
AcDbEntity
  8
0
100
AcDbLine
 10
569.351857
 20
267.311217
 30
0.0
 11
553.391263
 21
267.311217
 31
0.0
  0
LINE
  5
135
100
AcDbEntity
  8
0
100
AcDbLine
 10
572.516981
 20
240.710286
 30
0.0
 11
572.516981
 21
264.210286
 31
0.0
  0
LINE
  5
14F
100
AcDbEntity
  8
1
100
AcDbLine
 10
508.974479
 20
362.054795
 30
0.0
 11
562.622318
 21
362.054795
 31
0.0
  0
LINE
  5
150
100
AcDbEntity
  8
1
100
AcDbLine
 10
590.379873
 20
240.0
 30
0.0
 11
508.957704
 21
240.0
 31
0.0
  0
CIRCLE
  5
1BA
100
AcDbEntity
  8
0
100
AcDbCircle
 10
180.0
 20
362.0
 30
0.0
 40
8.0
  0
CIRCLE
  5
1BB
100
AcDbEntity
  8
0
100
AcDbCircle
 10
180.0
 20
362.0
 30
0.0
 40
5.0
  0
CIRCLE
  5
1BC
100
AcDbEntity
  8
0
100
AcDbCircle
 10
180.0
 20
362.0
 30
0.0
 40
4.0
  0
ENDSEC
  0
SECTION
  2
OBJECTS
  0
DICTIONARY
  5
191
100
AcDbDictionary
  3
ACAD_GROUP
350
192
  3
ACAD_MLINESTYLE
350
19F
  3
ACDBVARIABLEDICTIONARY
350
1B4
  0
DICTIONARY
  5
192
102
{ACAD_REACTORS
330
191
102
}
100
AcDbDictionary
  0
DICTIONARY
  5
19F
102
{ACAD_REACTORS
330
191
102
}
100
AcDbDictionary
  3
STANDARD
350
1A0
  0
DICTIONARY
  5
1B4
102
{ACAD_REACTORS
330
191
102
}
100
AcDbDictionary
  3
DIMADEC
350
1B5
  0
MLINESTYLE
  5
1A0
102
{ACAD_REACTORS
330
19F
102
}
100
AcDbMlineStyle
  2
STANDARD
 70
     0
  3

 62
   256
 51
90.0
 52
90.0
 71
     2
 49
0.5
 62
   256
  6
BYLAYER
 49
-0.5
 62
   256
  6
BYLAYER
  0
DICTIONARYVAR
  5
1B5
102
{ACAD_REACTORS
330
1B4
102
}
100
DictionaryVariables
280
     0
  1
0
  0
ENDSEC
  0
EOF
