  0
SECTION
  2
HEADER
  9
$ACADVER
  1
AC1014
  9
$ACADMAINTVER
 70
     0
  9
$DWGCODEPAGE
  3
ANSI_932
  9
$INSBASE
 10
0.0
 20
0.0
 30
0.0
  9
$EXTMIN
 10
30.5
 20
93.0
 30
0.0
  9
$EXTMAX
 10
270.5
 20
238.0
 30
0.0
  9
$LIMMIN
 10
0.0
 20
0.0
  9
$LIMMAX
 10
400.0
 20
280.0
  9
$ORTHOMODE
 70
     1
  9
$REGENMODE
 70
     1
  9
$FILLMODE
 70
     0
  9
$QTEXTMODE
 70
     0
  9
$MIRRTEXT
 70
     1
  9
$DRAGMODE
 70
     2
  9
$LTSCALE
 40
1.0
  9
$OSMODE
 70
    32
  9
$ATTMODE
 70
     1
  9
$TEXTSIZE
 40
5.0
  9
$TRACEWID
 40
0.05
  9
$TEXTSTYLE
  7
BIGFONT
  9
$CLAYER
  8
3
  9
$CELTYPE
  6
BYLAYER
  9
$CECOLOR
 62
   256
  9
$CELTSCALE
 40
1.0
  9
$DELOBJ
 70
     1
  9
$DISPSILH
 70
     0
  9
$DIMSCALE
 40
0.0
  9
$DIMASZ
 40
2.5
  9
$DIMEXO
 40
1.0
  9
$DIMDLI
 40
0.38
  9
$DIMRND
 40
0.0
  9
$DIMDLE
 40
0.0
  9
$DIMEXE
 40
1.0
  9
$DIMTP
 40
0.0
  9
$DIMTM
 40
0.0
  9
$DIMTXT
 40
5.0
  9
$DIMCEN
 40
0.09
  9
$DIMTSZ
 40
0.0
  9
$DIMTOL
 70
     0
  9
$DIMLIM
 70
     0
  9
$DIMTIH
 70
     0
  9
$DIMTOH
 70
     1
  9
$DIMSE1
 70
     0
  9
$DIMSE2
 70
     0
  9
$DIMTAD
 70
     0
  9
$DIMZIN
 70
     8
  9
$DIMBLK
  1

  9
$DIMASO
 70
     1
  9
$DIMSHO
 70
     1
  9
$DIMPOST
  1

  9
$DIMAPOST
  1

  9
$DIMALT
 70
     0
  9
$DIMALTD
 70
     2
  9
$DIMALTF
 40
25.4
  9
$DIMLFAC
 40
1.0
  9
$DIMTOFL
 70
     0
  9
$DIMTVP
 40
0.0
  9
$DIMTIX
 70
     0
  9
$DIMSOXD
 70
     0
  9
$DIMSAH
 70
     0
  9
$DIMBLK1
  1

  9
$DIMBLK2
  1

  9
$DIMSTYLE
  2
STANDARD
  9
$DIMCLRD
 70
     0
  9
$DIMCLRE
 70
     0
  9
$DIMCLRT
 70
     0
  9
$DIMTFAC
 40
1.0
  9
$DIMGAP
 40
0.09
  9
$DIMJUST
 70
     0
  9
$DIMSD1
 70
     0
  9
$DIMSD2
 70
     0
  9
$DIMTOLJ
 70
     1
  9
$DIMTZIN
 70
     8
  9
$DIMALTZ
 70
     0
  9
$DIMALTTZ
 70
     0
  9
$DIMFIT
 70
     3
  9
$DIMUPT
 70
     1
  9
$DIMUNIT
 70
     2
  9
$DIMDEC
 70
     1
  9
$DIMTDEC
 70
     1
  9
$DIMALTU
 70
     2
  9
$DIMALTTD
 70
     2
  9
$DIMTXSTY
  7
STANDARD
  9
$DIMAUNIT
 70
     0
  9
$LUNITS
 70
     2
  9
$LUPREC
 70
     2
  9
$SKETCHINC
 40
0.1
  9
$FILLETRAD
 40
1.5
  9
$AUNITS
 70
     0
  9
$AUPREC
 70
     0
  9
$MENU
  1
acad
  9
$ELEVATION
 40
0.0
  9
$PELEVATION
 40
0.0
  9
$THICKNESS
 40
0.0
  9
$LIMCHECK
 70
     0
  9
$BLIPMODE
 70
     1
  9
$CHAMFERA
 40
0.0
  9
$CHAMFERB
 40
0.0
  9
$CHAMFERC
 40
0.0
  9
$CHAMFERD
 40
0.0
  9
$SKPOLY
 70
     0
  9
$TDCREATE
 40
2449283.567812500
  9
$TDUPDATE
 40
2453089.714677731
  9
$TDINDWG
 40
0.9737378472
  9
$TDUSRTIMER
 40
0.9737378472
  9
$USRTIMER
 70
     1
  9
$ANGBASE
 50
0.0
  9
$ANGDIR
 70
     0
  9
$PDMODE
 70
     0
  9
$PDSIZE
 40
0.0
  9
$PLINEWID
 40
0.0
  9
$COORDS
 70
     2
  9
$SPLFRAME
 70
     0
  9
$SPLINETYPE
 70
     6
  9
$SPLINESEGS
 70
     8
  9
$ATTDIA
 70
     0
  9
$ATTREQ
 70
     1
  9
$HANDLING
 70
     1
  9
$HANDSEED
  5
1285
  9
$SURFTAB1
 70
     6
  9
$SURFTAB2
 70
     6
  9
$SURFTYPE
 70
     6
  9
$SURFU
 70
     6
  9
$SURFV
 70
     6
  9
$UCSNAME
  2

  9
$UCSORG
 10
0.0
 20
0.0
 30
0.0
  9
$UCSXDIR
 10
1.0
 20
0.0
 30
0.0
  9
$UCSYDIR
 10
0.0
 20
1.0
 30
0.0
  9
$PUCSNAME
  2

  9
$PUCSORG
 10
0.0
 20
0.0
 30
0.0
  9
$PUCSXDIR
 10
1.0
 20
0.0
 30
0.0
  9
$PUCSYDIR
 10
0.0
 20
1.0
 30
0.0
  9
$USERI1
 70
     0
  9
$USERI2
 70
     0
  9
$USERI3
 70
     0
  9
$USERI4
 70
     0
  9
$USERI5
 70
     0
  9
$USERR1
 40
0.0
  9
$USERR2
 40
0.0
  9
$USERR3
 40
0.0
  9
$USERR4
 40
0.0
  9
$USERR5
 40
0.0
  9
$WORLDVIEW
 70
     1
  9
$SHADEDGE
 70
     3
  9
$SHADEDIF
 70
    70
  9
$TILEMODE
 70
     1
  9
$MAXACTVP
 70
    16
  9
$PINSBASE
 10
0.0
 20
0.0
 30
0.0
  9
$PLIMCHECK
 70
     0
  9
$PEXTMIN
 10
1.000000E+20
 20
1.000000E+20
 30
1.000000E+20
  9
$PEXTMAX
 10
-1.000000E+20
 20
-1.000000E+20
 30
-1.000000E+20
  9
$PLIMMIN
 10
0.0
 20
0.0
  9
$PLIMMAX
 10
12.0
 20
9.0
  9
$UNITMODE
 70
     0
  9
$VISRETAIN
 70
     0
  9
$PLINEGEN
 70
     0
  9
$PSLTSCALE
 70
     1
  9
$TREEDEPTH
 70
  3020
  9
$PICKSTYLE
 70
     1
  9
$CMLSTYLE
  2
STANDARD
  9
$CMLJUST
 70
     0
  9
$CMLSCALE
 40
1.0
  9
$PROXYGRAPHICS
 70
     1
  9
$MEASUREMENT
 70
     0
  0
ENDSEC
  0
SECTION
  2
CLASSES
  0
CLASS
  1
LWPOLYLINE
  2
AcDbPolyline
  3
"AutoCAD"
 90
        0
280
     0
281
     1
  0
CLASS
  1
DICTIONARYVAR
  2
AcDbDictionaryVar
  3
"AutoCAD"
 90
        0
280
     0
281
     0
  0
CLASS
  1
HATCH
  2
AcDbHatch
  3
"ACAD_SEDONA"
 90
        0
280
     0
281
     1
  0
ENDSEC
  0
SECTION
  2
TABLES
  0
TABLE
  2
VPORT
  5
3CD
100
AcDbSymbolTable
 70
     1
  0
VPORT
  5
1272
100
AcDbSymbolTableRecord
100
AcDbViewportTableRecord
  2
*ACTIVE
 70
     0
 10
0.0
 20
0.0
 11
1.0
 21
1.0
 12
215.246112
 22
195.31987
 13
0.0
 23
0.0
 14
1.0
 24
1.0
 15
5.0
 25
5.0
 16
0.0
 26
0.0
 36
1.0
 17
0.0
 27
0.0
 37
0.0
 40
230.323159
 41
1.591963
 42
50.0
 43
0.0
 44
0.0
 50
0.0
 51
0.0
 71
     0
 72
 20000
 73
     1
 74
     1
 75
     0
 76
     0
 77
     0
 78
     0
  0
ENDTAB
  0
TABLE
  2
LTYPE
  5
3CA
100
AcDbSymbolTable
 70
    29
  0
LTYPE
  5
3D7
100
AcDbSymbolTableRecord
100
AcDbLinetypeTableRecord
  2
BYBLOCK
 70
     0
  3

 72
    65
 73
     0
 40
0.0
  0
LTYPE
  5
3D8
100
AcDbSymbolTableRecord
100
AcDbLinetypeTableRecord
  2
BYLAYER
 70
     0
  3

 72
    65
 73
     0
 40
0.0
  0
LTYPE
  5
3D9
100
AcDbSymbolTableRecord
100
AcDbLinetypeTableRecord
  2
CONTINUOUS
 70
     0
  3
Solid line
 72
    65
 73
     0
 40
0.0
  0
LTYPE
  5
3F5
100
AcDbSymbolTableRecord
100
AcDbLinetypeTableRecord
  2
BORDER
 70
     0
  3
__ __ . __ __ . __ __ . __ __ . __ __ . __ __ .
 72
    65
 73
     6
 40
1.75
 49
0.5
 74
     0
 49
-0.25
 74
     0
 49
0.5
 74
     0
 49
-0.25
 74
     0
 49
0.0
 74
     0
 49
-0.25
 74
     0
  0
LTYPE
  5
3F6
100
AcDbSymbolTableRecord
100
AcDbLinetypeTableRecord
  2
BORDER2
 70
     0
  3
__.__.__.__.__.__.__.__.__.__.__.__.__.__.__.__
 72
    65
 73
     6
 40
0.875
 49
0.25
 74
     0
 49
-0.125
 74
     0
 49
0.25
 74
     0
 49
-0.125
 74
     0
 49
0.0
 74
     0
 49
-0.125
 74
     0
  0
LTYPE
  5
3F7
100
AcDbSymbolTableRecord
100
AcDbLinetypeTableRecord
  2
BORDERX2
 70
     0
  3
____  ____  .  ____  ____  .  ____  ____  .  __
 72
    65
 73
     6
 40
3.5
 49
1.0
 74
     0
 49
-0.5
 74
     0
 49
1.0
 74
     0
 49
-0.5
 74
     0
 49
0.0
 74
     0
 49
-0.5
 74
     0
  0
LTYPE
  5
3F8
100
AcDbSymbolTableRecord
100
AcDbLinetypeTableRecord
  2
CENTER
 70
     0
  3
____ _ ____ _ ____ _ ____ _ ____ _ ____ _ ____ 
 72
    65
 73
     4
 40
2.0
 49
1.25
 74
     0
 49
-0.25
 74
     0
 49
0.25
 74
     0
 49
-0.25
 74
     0
  0
LTYPE
  5
3F9
100
AcDbSymbolTableRecord
100
AcDbLinetypeTableRecord
  2
CENTER2
 70
     0
  3
___ _ ___ _ ___ _ ___ _ ___ _ ___ _ ___ _ ___ _
 72
    65
 73
     4
 40
1.125
 49
0.75
 74
     0
 49
-0.125
 74
     0
 49
0.125
 74
     0
 49
-0.125
 74
     0
  0
LTYPE
  5
3FA
100
AcDbSymbolTableRecord
100
AcDbLinetypeTableRecord
  2
CENTERX2
 70
     0
  3
________  __  ________  __  ________  __  _____
 72
    65
 73
     4
 40
4.0
 49
2.5
 74
     0
 49
-0.5
 74
     0
 49
0.5
 74
     0
 49
-0.5
 74
     0
  0
LTYPE
  5
3FB
100
AcDbSymbolTableRecord
100
AcDbLinetypeTableRecord
  2
DASHDOT
 70
     0
  3
__ . __ . __ . __ . __ . __ . __ . __ . __ . __
 72
    65
 73
     4
 40
1.0
 49
0.5
 74
     0
 49
-0.25
 74
     0
 49
0.0
 74
     0
 49
-0.25
 74
     0
  0
LTYPE
  5
3FC
100
AcDbSymbolTableRecord
100
AcDbLinetypeTableRecord
  2
DASHDOT2
 70
     0
  3
_._._._._._._._._._._._._._._._._._._._._._._._
 72
    65
 73
     4
 40
0.5
 49
0.25
 74
     0
 49
-0.125
 74
     0
 49
0.0
 74
     0
 49
-0.125
 74
     0
  0
LTYPE
  5
3FD
100
AcDbSymbolTableRecord
100
AcDbLinetypeTableRecord
  2
DASHDOTX2
 70
     0
  3
____  .  ____  .  ____  .  ____  .  ____  .  __
 72
    65
 73
     4
 40
2.0
 49
1.0
 74
     0
 49
-0.5
 74
     0
 49
0.0
 74
     0
 49
-0.5
 74
     0
  0
LTYPE
  5
3FE
100
AcDbSymbolTableRecord
100
AcDbLinetypeTableRecord
  2
DASHED
 70
     0
  3
__ __ __ __ __ __ __ __ __ __ __ __ __ __ __ __
 72
    65
 73
     2
 40
0.75
 49
0.5
 74
     0
 49
-0.25
 74
     0
  0
LTYPE
  5
3FF
100
AcDbSymbolTableRecord
100
AcDbLinetypeTableRecord
  2
DASHED2
 70
     0
  3
_ _ _ _ _ _ _ _ _ _ _ _ _ _ _ _ _ _ _ _ _ _ _ _
 72
    65
 73
     2
 40
0.375
 49
0.25
 74
     0
 49
-0.125
 74
     0
  0
LTYPE
  5
400
100
AcDbSymbolTableRecord
100
AcDbLinetypeTableRecord
  2
DASHEDX2
 70
     0
  3
____  ____  ____  ____  ____  ____  ____  ____ 
 72
    65
 73
     2
 40
1.5
 49
1.0
 74
     0
 49
-0.5
 74
     0
  0
LTYPE
  5
401
100
AcDbSymbolTableRecord
100
AcDbLinetypeTableRecord
  2
DIVIDE
 70
     0
  3
____ . . ____ . . ____ . . ____ . . ____ . . __
 72
    65
 73
     6
 40
1.25
 49
0.5
 74
     0
 49
-0.25
 74
     0
 49
0.0
 74
     0
 49
-0.25
 74
     0
 49
0.0
 74
     0
 49
-0.25
 74
     0
  0
LTYPE
  5
402
100
AcDbSymbolTableRecord
100
AcDbLinetypeTableRecord
  2
DIVIDE2
 70
     0
  3
__..__..__..__..__..__..__..__..__..__..__..__.
 72
    65
 73
     6
 40
0.625
 49
0.25
 74
     0
 49
-0.125
 74
     0
 49
0.0
 74
     0
 49
-0.125
 74
     0
 49
0.0
 74
     0
 49
-0.125
 74
     0
  0
LTYPE
  5
403
100
AcDbSymbolTableRecord
100
AcDbLinetypeTableRecord
  2
DIVIDEX2
 70
     0
  3
________  .  .  ________  .  .  ________  .  . 
 72
    65
 73
     6
 40
2.5
 49
1.0
 74
     0
 49
-0.5
 74
     0
 49
0.0
 74
     0
 49
-0.5
 74
     0
 49
0.0
 74
     0
 49
-0.5
 74
     0
  0
LTYPE
  5
404
100
AcDbSymbolTableRecord
100
AcDbLinetypeTableRecord
  2
DOT
 70
     0
  3
. . . . . . . . . . . . . . . . . . . . . . . .
 72
    65
 73
     2
 40
0.25
 49
0.0
 74
     0
 49
-0.25
 74
     0
  0
LTYPE
  5
405
100
AcDbSymbolTableRecord
100
AcDbLinetypeTableRecord
  2
DOT2
 70
     0
  3
...............................................
 72
    65
 73
     2
 40
0.125
 49
0.0
 74
     0
 49
-0.125
 74
     0
  0
LTYPE
  5
406
100
AcDbSymbolTableRecord
100
AcDbLinetypeTableRecord
  2
DOTX2
 70
     0
  3
.  .  .  .  .  .  .  .  .  .  .  .  .  .  .  . 
 72
    65
 73
     2
 40
0.5
 49
0.0
 74
     0
 49
-0.5
 74
     0
  0
LTYPE
  5
407
100
AcDbSymbolTableRecord
100
AcDbLinetypeTableRecord
  2
HIDDEN
 70
     0
  3
__ __ __ __ __ __ __ __ __ __ __ __ __ __ __ __
 72
    65
 73
     2
 40
0.375
 49
0.25
 74
     0
 49
-0.125
 74
     0
  0
LTYPE
  5
408
100
AcDbSymbolTableRecord
100
AcDbLinetypeTableRecord
  2
HIDDEN2
 70
     0
  3
_ _ _ _ _ _ _ _ _ _ _ _ _ _ _ _ _ _ _ _ _ _ _ _
 72
    65
 73
     2
 40
0.1875
 49
0.125
 74
     0
 49
-0.0625
 74
     0
  0
LTYPE
  5
409
100
AcDbSymbolTableRecord
100
AcDbLinetypeTableRecord
  2
HIDDENX2
 70
     0
  3
____ ____ ____ ____ ____ ____ ____ ____ ____ __
 72
    65
 73
     2
 40
0.75
 49
0.5
 74
     0
 49
-0.25
 74
     0
  0
LTYPE
  5
40A
100
AcDbSymbolTableRecord
100
AcDbLinetypeTableRecord
  2
PHANTOM
 70
     0
  3
______  __  __  ______  __  __  ______  __  __ 
 72
    65
 73
     6
 40
2.5
 49
1.25
 74
     0
 49
-0.25
 74
     0
 49
0.25
 74
     0
 49
-0.25
 74
     0
 49
0.25
 74
     0
 49
-0.25
 74
     0
  0
LTYPE
  5
40B
100
AcDbSymbolTableRecord
100
AcDbLinetypeTableRecord
  2
PHANTOM2
 70
     0
  3
___ _ _ ___ _ _ ___ _ _ ___ _ _ ___ _ _ ___ _ _
 72
    65
 73
     6
 40
1.25
 49
0.625
 74
     0
 49
-0.125
 74
     0
 49
0.125
 74
     0
 49
-0.125
 74
     0
 49
0.125
 74
     0
 49
-0.125
 74
     0
  0
LTYPE
  5
40C
100
AcDbSymbolTableRecord
100
AcDbLinetypeTableRecord
  2
PHANTOMX2
 70
     0
  3
____________    ____    ____    ____________   
 72
    65
 73
     6
 40
5.0
 49
2.5
 74
     0
 49
-0.5
 74
     0
 49
0.5
 74
     0
 49
-0.5
 74
     0
 49
0.5
 74
     0
 49
-0.5
 74
     0
  0
LTYPE
  5
40D
100
AcDbSymbolTableRecord
100
AcDbLinetypeTableRecord
  2
TENSEN
 70
     0
  3

 72
    65
 73
     2
 40
4.0
 49
3.0
 74
     0
 49
-1.0
 74
     0
  0
LTYPE
  5
40E
100
AcDbSymbolTableRecord
100
AcDbLinetypeTableRecord
  2
ITTEN
 70
     0
  3

 72
    65
 73
     4
 40
8.0
 49
5.0
 74
     0
 49
-1.0
 74
     0
 49
1.0
 74
     0
 49
-1.0
 74
     0
  0
LTYPE
  5
40F
100
AcDbSymbolTableRecord
100
AcDbLinetypeTableRecord
  2
TENSEN3
 70
     0
  3

 72
    65
 73
     2
 40
4.0
 49
3.0
 74
     0
 49
-1.0
 74
     0
  0
LTYPE
  5
410
100
AcDbSymbolTableRecord
100
AcDbLinetypeTableRecord
  2
ITTEN1
 70
     0
  3

 72
    65
 73
     4
 40
8.2
 49
5.0
 74
     0
 49
-1.0
 74
     0
 49
1.2
 74
     0
 49
-1.0
 74
     0
  0
ENDTAB
  0
TABLE
  2
LAYER
  5
3C7
100
AcDbSymbolTable
 70
    12
  0
LAYER
  5
3D4
100
AcDbSymbolTableRecord
100
AcDbLayerTableRecord
  2
0
 70
     0
 62
     7
  6
CONTINUOUS
  0
LAYER
  5
416
100
AcDbSymbolTableRecord
100
AcDbLayerTableRecord
  2
DAI
 70
     0
 62
     8
  6
CONTINUOUS
  0
LAYER
  5
417
100
AcDbSymbolTableRecord
100
AcDbLayerTableRecord
  2
1
 70
     0
 62
     1
  6
ITTEN1
  0
LAYER
  5
418
100
AcDbSymbolTableRecord
100
AcDbLayerTableRecord
  2
2
 70
     0
 62
     2
  6
TENSEN
  0
LAYER
  5
419
100
AcDbSymbolTableRecord
100
AcDbLayerTableRecord
  2
3
 70
     0
 62
     3
  6
CONTINUOUS
  0
LAYER
  5
41A
100
AcDbSymbolTableRecord
100
AcDbLayerTableRecord
  2
4
 70
     0
 62
     6
  6
CONTINUOUS
  0
LAYER
  5
41B
100
AcDbSymbolTableRecord
100
AcDbLayerTableRecord
  2
5
 70
     0
 62
     6
  6
TENSEN3
  0
LAYER
  5
41C
100
AcDbSymbolTableRecord
100
AcDbLayerTableRecord
  2
6
 70
     0
 62
     6
  6
ITTEN
  0
LAYER
  5
41D
100
AcDbSymbolTableRecord
100
AcDbLayerTableRecord
  2
7
 70
     0
 62
     3
  6
TENSEN
  0
LAYER
  5
41E
100
AcDbSymbolTableRecord
100
AcDbLayerTableRecord
  2
8
 70
     0
 62
     3
  6
ITTEN1
  0
LAYER
  5
41F
100
AcDbSymbolTableRecord
100
AcDbLayerTableRecord
  2
DEFPOINTS
 70
     0
 62
     7
  6
CONTINUOUS
  0
LAYER
  5
420
100
AcDbSymbolTableRecord
100
AcDbLayerTableRecord
  2
ASHADE
 70
     0
 62
     7
  6
CONTINUOUS
  0
ENDTAB
  0
TABLE
  2
STYLE
  5
3C8
100
AcDbSymbolTable
 70
    20
  0
STYLE
  5
3D5
100
AcDbSymbolTableRecord
100
AcDbTextStyleTableRecord
  2
STANDARD
 70
     0
 40
0.0
 41
1.0
 50
0.0
 71
     0
 42
0.2
  3
txt
  4

  0
STYLE
  5
3E2
100
AcDbSymbolTableRecord
100
AcDbTextStyleTableRecord
  2
TEXT-1
 70
     0
 40
0.0
 41
1.0
 50
0.0
 71
     0
 42
0.2
  3
italicc.shx
  4

  0
STYLE
  5
3E3
100
AcDbSymbolTableRecord
100
AcDbTextStyleTableRecord
  2
TEST1
 70
     0
 40
0.0
 41
1.0
 50
0.0
 71
     0
 42
0.2
  3
italicc.shx
  4

  0
STYLE
  5
3E4
100
AcDbSymbolTableRecord
100
AcDbTextStyleTableRecord
  2
TEST2
 70
     0
 40
10.0
 41
1.0
 50
0.0
 71
     0
 42
10.0
  3
txt
  4
extfont
  0
STYLE
  5
3E5
100
AcDbSymbolTableRecord
100
AcDbTextStyleTableRecord
  2
BIGFONT
 70
     0
 40
5.0
 41
0.7
 50
0.0
 71
     0
 42
5.0
  3
txt.shx
  4
extfont.shx
  0
STYLE
  5
3E6
100
AcDbSymbolTableRecord
100
AcDbTextStyleTableRecord
  2
ROMAND
 70
     0
 40
4.0
 41
0.6
 50
0.0
 71
     0
 42
4.0
  3
romand
  4

  0
STYLE
  5
3E7
100
AcDbSymbolTableRecord
100
AcDbTextStyleTableRecord
  2
EXTFONT
 70
     0
 40
3.5
 41
0.5
 50
0.0
 71
     0
 42
3.5
  3
txt.shx
  4
extfont
  0
STYLE
  5
3E8
100
AcDbSymbolTableRecord
100
AcDbTextStyleTableRecord
  2
ROMANS
 70
     0
 40
2.5
 41
0.6
 50
0.0
 71
     0
 42
2.5
  3
romans
  4

  0
STYLE
  5
3E9
100
AcDbSymbolTableRecord
100
AcDbTextStyleTableRecord
  2
SCRIPTC
 70
     0
 40
20.0
 41
1.0
 50
0.0
 71
     0
 42
20.0
  3
complex.shx
  4

  0
STYLE
  5
3EA
100
AcDbSymbolTableRecord
100
AcDbTextStyleTableRecord
  2
SCRIPTS
 70
     0
 40
20.0
 41
1.0
 50
0.0
 71
     0
 42
20.0
  3
scripts
  4

  0
STYLE
  5
3EB
100
AcDbSymbolTableRecord
100
AcDbTextStyleTableRecord
  2
ROMANT
 70
     0
 40
20.0
 41
1.0
 50
0.0
 71
     0
 42
20.0
  3
romant
  4

  0
STYLE
  5
3EC
100
AcDbSymbolTableRecord
100
AcDbTextStyleTableRecord
  2
GOTHICE
 70
     0
 40
20.0
 41
1.0
 50
0.0
 71
     0
 42
20.0
  3
gothice
  4

  0
STYLE
  5
3ED
100
AcDbSymbolTableRecord
100
AcDbTextStyleTableRecord
  2
GOTHICG
 70
     0
 40
20.0
 41
1.0
 50
0.0
 71
     0
 42
20.0
  3
gothicg
  4

  0
STYLE
  5
3EE
100
AcDbSymbolTableRecord
100
AcDbTextStyleTableRecord
  2
SANSSERIF
 70
     0
 40
20.0
 41
1.0
 50
0.0
 71
     0
 42
20.0
  3
sas_____.pfb
  4

  0
STYLE
  5
3EF
100
AcDbSymbolTableRecord
100
AcDbTextStyleTableRecord
  2
TECHNICBOLD
 70
     0
 40
20.0
 41
1.0
 50
0.0
 71
     0
 42
20.0
  3
teb_____.pfb
  4

  0
STYLE
  5
3F0
100
AcDbSymbolTableRecord
100
AcDbTextStyleTableRecord
  2
TXT
 70
     0
 40
20.0
 41
1.0
 50
0.0
 71
     0
 42
20.0
  3
txt
  4

  0
STYLE
  5
3F1
100
AcDbSymbolTableRecord
100
AcDbTextStyleTableRecord
  2
MONOTXT
 70
     0
 40
20.0
 41
1.0
 50
0.0
 71
     0
 42
20.0
  3
monotxt
  4

  0
STYLE
  5
3F2
100
AcDbSymbolTableRecord
100
AcDbTextStyleTableRecord
  2
TECHNICLIGHT
 70
     0
 40
3.6
 41
0.8
 50
0.0
 71
     0
 42
3.6
  3
tel_____.pfb
  4

  0
STYLE
  5
3F3
100
AcDbSymbolTableRecord
100
AcDbTextStyleTableRecord
  2
GREEKS
 70
     0
 40
20.0
 41
1.0
 50
0.0
 71
     0
 42
20.0
  3
greeks
  4

  0
STYLE
  5
3F4
100
AcDbSymbolTableRecord
100
AcDbTextStyleTableRecord
  2
ASHADE
 70
     0
 40
0.2
 41
1.0
 50
0.0
 71
     0
 42
5.0
  3
simplex
  4

  0
ENDTAB
  0
TABLE
  2
VIEW
  5
3CB
100
AcDbSymbolTable
 70
     1
  0
VIEW
  5
411
100
AcDbSymbolTableRecord
100
AcDbViewTableRecord
  2
OLE1
 70
     0
 40
108.5
 10
105.318611
 20
217.75
 41
173.637221
 11
0.0
 21
0.0
 31
1.0
 12
0.0
 22
0.0
 32
0.0
 42
50.0
 43
0.0
 44
0.0
 50
0.0
 71
     0
  0
ENDTAB
  0
TABLE
  2
UCS
  5
3CC
100
AcDbSymbolTable
 70
     0
  0
ENDTAB
  0
TABLE
  2
APPID
  5
3CE
100
AcDbSymbolTable
 70
     2
  0
APPID
  5
3D6
100
AcDbSymbolTableRecord
100
AcDbRegAppTableRecord
  2
ACAD
 70
     0
  0
APPID
  5
414
100
AcDbSymbolTableRecord
100
AcDbRegAppTableRecord
  2
AVE_RENDER
 70
     0
  0
ENDTAB
  0
TABLE
  2
DIMSTYLE
  5
3CF
100
AcDbSymbolTable
 70
     1
  0
DIMSTYLE
105
425
100
AcDbSymbolTableRecord
100
AcDbDimStyleTableRecord
  2
STANDARD
 70
     0
  3

  4

  5

  6

  7

 40
1.0
 41
0.18
 42
0.0625
 43
0.38
 44
0.18
 45
0.0
 46
0.0
 47
0.0
 48
0.0
140
0.18
141
0.09
142
0.0
143
25.4
144
1.0
145
0.0
146
1.0
147
0.09
 71
     0
 72
     0
 73
     1
 74
     1
 75
     0
 76
     0
 77
     0
 78
     0
170
     0
171
     2
172
     0
173
     0
174
     0
175
     0
176
     0
177
     0
178
     0
270
     2
271
     4
272
     4
273
     2
274
     2
340
3D5
275
     0
280
     0
281
     0
282
     0
283
     1
284
     0
285
     0
286
     0
287
     3
288
     0
  0
ENDTAB
  0
TABLE
  2
BLOCK_RECORD
  5
3C6
100
AcDbSymbolTable
 70
     3
  0
BLOCK_RECORD
  5
3DD
100
AcDbSymbolTableRecord
100
AcDbBlockTableRecord
  2
*MODEL_SPACE
  0
BLOCK_RECORD
  5
3DA
100
AcDbSymbolTableRecord
100
AcDbBlockTableRecord
  2
*PAPER_SPACE
  0
BLOCK_RECORD
  5
3E1
100
AcDbSymbolTableRecord
100
AcDbBlockTableRecord
  2
AVE_RENDER
  0
BLOCK_RECORD
  5
1182
100
AcDbSymbolTableRecord
100
AcDbBlockTableRecord
  2
A$C31B725D5
  0
BLOCK_RECORD
  5
11DB
100
AcDbSymbolTableRecord
100
AcDbBlockTableRecord
  2
A$C5CFE5BB2
  0
ENDTAB
  0
ENDSEC
  0
SECTION
  2
BLOCKS
  0
BLOCK
  5
423
100
AcDbEntity
  8
0
100
AcDbBlockBegin
  2
*MODEL_SPACE
 70
     0
 10
0.0
 20
0.0
 30
0.0
  3
*MODEL_SPACE
  1

  0
ENDBLK
  5
424
100
AcDbEntity
  8
0
100
AcDbBlockEnd
  0
BLOCK
  5
421
100
AcDbEntity
 67
     1
  8
0
100
AcDbBlockBegin
  2
*PAPER_SPACE
 70
     0
 10
0.0
 20
0.0
 30
0.0
  3
*PAPER_SPACE
  1

  0
ENDBLK
  5
422
100
AcDbEntity
 67
     1
  8
0
100
AcDbBlockEnd
  0
BLOCK
  5
F6
100
AcDbEntity
  8
0
100
AcDbBlockBegin
  2
AVE_RENDER
 70
     0
 10
0.0
 20
0.0
 30
0.0
  3
AVE_RENDER
  1
AVE_RENDER
  0
ENDBLK
  5
F7
100
AcDbEntity
  8
0
100
AcDbBlockEnd
  0
BLOCK
  5
1184
100
AcDbEntity
  8
0
100
AcDbBlockBegin
  2
A$C31B725D5
 70
     0
 10
0.0
 20
0.0
 30
0.0
  3
A$C31B725D5
  1

  0
TEXT
  5
1183
100
AcDbEntity
  8
0
100
AcDbText
 10
0.0
 20
0.0
 30
0.0
 40
5.0
  1
平型ハンドル車
 41
0.7
  7
BIGFONT
100
AcDbText
  0
ENDBLK
  5
1185
100
AcDbEntity
  8
0
100
AcDbBlockEnd
  0
BLOCK
  5
11E6
100
AcDbEntity
  8
0
100
AcDbBlockBegin
  2
A$C5CFE5BB2
 70
     0
 10
0.0
 20
0.0
 30
0.0
  3
A$C5CFE5BB2
  1

  0
ARC
  5
11DC
100
AcDbEntity
  8
3
100
AcDbCircle
 10
26.505888
 20
-9.518297
 30
0.0
 40
25.508766
100
AcDbArc
 50
61.953
 51
131.810447
  0
ARC
  5
11DD
100
AcDbEntity
  8
3
100
AcDbCircle
 10
26.505888
 20
25.507847
 30
0.0
 40
25.508766
100
AcDbArc
 50
228.189553
 51
298.047
  0
LINE
  5
11DE
100
AcDbEntity
  8
1
100
AcDbLine
 10
53.5
 20
7.994775
 30
0.0
 11
0.0
 21
7.994775
 31
0.0
  0
ARC
  5
11DF
100
AcDbEntity
  8
3
100
AcDbCircle
 10
10.125
 20
7.994775
 30
0.0
 40
1.625
100
AcDbArc
 50
112.619865
 51
247.380135
  0
ARC
  5
11E0
100
AcDbEntity
  8
3
100
AcDbCircle
 10
45.0
 20
33.619775
 30
0.0
 40
21.625
100
AcDbArc
 50
252.507675
 51
287.492325
  0
ARC
  5
11E1
100
AcDbEntity
  8
3
100
AcDbCircle
 10
45.0
 20
-17.630225
 30
0.0
 40
21.625
100
AcDbArc
 50
72.507675
 51
107.492325
  0
LINE
  5
11E2
100
AcDbEntity
  8
1
100
AcDbLine
 10
53.5
 20
7.994775
 30
0.0
 11
74.5
 21
7.994775
 31
0.0
  0
LINE
  5
11E3
100
AcDbEntity
  8
3
100
AcDbLine
 10
51.5
 20
2.994775
 30
0.0
 11
51.5
 21
12.994775
 31
0.0
  0
LINE
  5
11E4
100
AcDbEntity
  8
3
100
AcDbLine
 10
58.5
 20
2.994775
 30
0.0
 11
51.5
 21
2.994775
 31
0.0
  0
LINE
  5
11E5
100
AcDbEntity
  8
3
100
AcDbLine
 10
51.5
 20
12.994775
 30
0.0
 11
58.5
 21
12.994775
 31
0.0
  0
ENDBLK
  5
11E7
100
AcDbEntity
  8
0
100
AcDbBlockEnd
  0
ENDSEC
  0
SECTION
  2
ENTITIES
  0
INSERT
  5
F8
100
AcDbEntity
  8
ASHADE
 62
     1
100
AcDbBlockReference
  2
AVE_RENDER
 10
0.0
 20
0.0
 30
0.0
1001
AVE_RENDER
1002
{
1070
     2
1000
Pref
1070
    30
1070
    20
1070
     0
1070
     0
1000

1070
    10
1070
     0
1070
    30
1040
1.0
1070
     1
1040
0.3
1040
0.7
1040
0.0
1040
10.0
1010
-1.0
1020
-1.0
1030
-1.0
1040
0.3
1070
    49
1002
}
  0
INSERT
  5
F9
100
AcDbEntity
  8
ASHADE
 62
     3
100
AcDbBlockReference
  2
AVE_RENDER
 10
0.0
 20
0.0
 30
0.0
1001
AVE_RENDER
1002
{
1070
     0
1000
Full Opt
1070
     0
1070
     1
1070
     1
1070
     1
1070
     0
1070
     0
1070
     0
1070
     1
1070
     1
1040
0.0001
1040
0.0001
1002
}
  0
INSERT
  5
FA
100
AcDbEntity
  8
ASHADE
 62
     4
100
AcDbBlockReference
  2
AVE_RENDER
 10
0.0
 20
0.0
 30
0.0
1001
AVE_RENDER
1002
{
1070
     0
1000
Quick Opt
1070
     0
1070
     1
1070
     1
1070
     1
1070
     0
1070
     0
1070
     1
1002
}
  0
LINE
  5
A2C
100
AcDbEntity
  8
1
100
AcDbLine
 10
30.5
 20
165.0
 30
0.0
 11
99.0
 21
165.0
 31
0.0
  0
LINE
  5
A2D
100
AcDbEntity
  8
1
100
AcDbLine
 10
99.0
 20
165.0
 30
0.0
 11
99.0
 21
238.0
 31
0.0
  0
ARC
  5
A30
100
AcDbEntity
  8
3
100
AcDbCircle
 10
99.0
 20
165.0
 30
0.0
 40
62.5
100
AcDbArc
 50
90.0
 51
270.0
  0
LINE
  5
A37
100
AcDbEntity
  8
1
100
AcDbLine
 10
84.0
 20
216.0
 30
0.0
 11
99.0
 21
216.0
 31
0.0
  0
ARC
  5
A3A
100
AcDbEntity
  8
3
100
AcDbCircle
 10
99.0
 20
165.0
 30
0.0
 40
54.5
100
AcDbArc
 50
104.227269
 51
270.0
  0
ARC
  5
A3B
100
AcDbEntity
  8
3
100
AcDbCircle
 10
99.0
 20
165.0
 30
0.0
 40
46.5
100
AcDbArc
 50
100.532644
 51
199.467356
  0
LINE
  5
A45
100
AcDbEntity
  8
1
100
AcDbLine
 10
230.552538
 20
165.0
 30
0.0
 11
270.5
 21
165.0
 31
0.0
  0
LINE
  5
A46
100
AcDbEntity
  8
1
100
AcDbLine
 10
242.0
 20
96.0
 30
0.0
 11
242.0
 21
233.0
 31
0.0
  0
ARC
  5
A49
100
AcDbEntity
  8
3
100
AcDbCircle
 10
242.0
 20
219.5
 30
0.0
 40
8.0
100
AcDbArc
 50
0.0
 51
180.0
  0
LINE
  5
A4A
100
AcDbEntity
  8
3
100
AcDbLine
 10
234.0
 20
219.5
 30
0.0
 11
234.0
 21
165.0
 31
0.0
  0
LINE
  5
A4B
100
AcDbEntity
  8
3
100
AcDbLine
 10
250.0
 20
219.5
 30
0.0
 11
250.0
 21
206.361842
 31
0.0
  0
LINE
  5
A50
100
AcDbEntity
  8
3
100
AcDbLine
 10
251.0
 20
182.5
 30
0.0
 11
251.0
 21
184.0
 31
0.0
  0
LINE
  5
A53
100
AcDbEntity
  8
3
100
AcDbLine
 10
234.0
 20
165.0
 30
0.0
 11
234.0
 21
182.0
 31
0.0
  0
ARC
  5
A7B
100
AcDbEntity
  8
3
100
AcDbCircle
 10
251.545877
 20
216.183611
 30
0.0
 40
3.658986
100
AcDbArc
 50
114.991763
 51
134.090024
  0
LINE
  5
A95
100
AcDbEntity
  8
3
100
AcDbLine
 10
250.0
 20
110.5
 30
0.0
 11
250.0
 21
140.482159
 31
0.0
  0
LINE
  5
A96
100
AcDbEntity
  8
3
100
AcDbLine
 10
234.0
 20
110.5
 30
0.0
 11
234.0
 21
165.0
 31
0.0
  0
ARC
  5
A99
100
AcDbEntity
  8
3
100
AcDbCircle
 10
242.5
 20
163.0625
 30
0.0
 40
19.0625
100
AcDbArc
 50
246.83112
 51
296.48104
  0
LINE
  5
A9B
100
AcDbEntity
  8
3
100
AcDbLine
 10
251.0
 20
147.5
 30
0.0
 11
251.0
 21
146.0
 31
0.0
  0
LINE
  5
AA0
100
AcDbEntity
  8
3
100
AcDbLine
 10
234.0
 20
165.0
 30
0.0
 11
234.0
 21
148.0
 31
0.0
  0
ARC
  5
AA3
100
AcDbEntity
  8
3
100
AcDbCircle
 10
251.545877
 20
113.816389
 30
0.0
 40
3.658986
100
AcDbArc
 50
192.892298
 51
245.008237
  0
ARC
  5
AA4
100
AcDbEntity
  8
3
100
AcDbCircle
 10
232.454123
 20
113.816389
 30
0.0
 40
3.658986
100
AcDbArc
 50
294.991763
 51
347.107702
  0
ARC
  5
AA5
100
AcDbEntity
  8
3
100
AcDbCircle
 10
242.0
 20
112.5
 30
0.0
 40
6.0
100
AcDbArc
 50
4.780192
 51
175.219808
  0
ARC
  5
AA8
100
AcDbEntity
  8
3
100
AcDbCircle
 10
242.0
 20
110.5
 30
0.0
 40
8.0
100
AcDbArc
 50
180.0
 51
360.0
  0
LINE
  5
AA9
100
AcDbEntity
  8
3
100
AcDbLine
 10
251.0
 20
147.5
 30
0.0
 11
261.5
 21
147.5
 31
0.0
  0
LINE
  5
AAA
100
AcDbEntity
  8
3
100
AcDbLine
 10
263.0
 20
149.0
 30
0.0
 11
263.0
 21
165.0
 31
0.0
  0
ARC
  5
AAB
100
AcDbEntity
  8
3
100
AcDbCircle
 10
261.5
 20
149.0
 30
0.0
 40
1.5
100
AcDbArc
 50
270.0
 51
0.0
  0
LINE
  5
AAC
100
AcDbEntity
  8
3
100
AcDbLine
 10
263.0
 20
181.0
 30
0.0
 11
263.0
 21
165.0
 31
0.0
  0
LINE
  5
AAD
100
AcDbEntity
  8
3
100
AcDbLine
 10
251.0
 20
182.5
 30
0.0
 11
261.5
 21
182.5
 31
0.0
  0
ARC
  5
AAE
100
AcDbEntity
  8
3
100
AcDbCircle
 10
261.5
 20
181.0
 30
0.0
 40
1.5
100
AcDbArc
 50
0.0
 51
90.0
  0
ARC
  5
AC9
100
AcDbEntity
  8
3
100
AcDbCircle
 10
99.0
 20
165.0
 30
0.0
 40
21.0
100
AcDbArc
 50
236.654906
 51
270.0
  0
ARC
  5
ACA
100
AcDbEntity
  8
3
100
AcDbCircle
 10
99.0
 20
165.0
 30
0.0
 40
19.0
100
AcDbArc
 50
90.0
 51
270.0
  0
LINE
  5
ACB
100
AcDbEntity
  8
3
100
AcDbLine
 10
89.57907
 20
183.76822
 30
0.0
 11
90.5
 21
210.716518
 31
0.0
  0
ARC
  5
AD3
100
AcDbEntity
  8
3
100
AcDbCircle
 10
90.719788
 20
185.360488
 30
0.0
 40
1.958713
100
AcDbArc
 50
234.38176
 51
295.755727
  0
ARC
  5
AD5
100
AcDbEntity
  8
3
100
AcDbCircle
 10
99.0
 20
165.080008
 30
0.0
 40
19.951108
100
AcDbArc
 50
90.0
 51
111.861509
  0
LINE
  5
AD6
100
AcDbEntity
  8
3
100
AcDbLine
 10
78.03578
 20
163.774655
 30
0.0
 11
55.158334
 21
149.502957
 31
0.0
  0
LINE
  5
AD7
100
AcDbEntity
  8
3
100
AcDbLine
 10
87.45671
 20
147.457125
 30
0.0
 11
63.658334
 21
134.780525
 31
0.0
  0
ARC
  5
AD8
100
AcDbEntity
  8
3
100
AcDbCircle
 10
98.930711
 20
164.959996
 30
0.0
 40
19.951108
100
AcDbArc
 50
188.138491
 51
231.861509
  0
ARC
  5
AD9
100
AcDbEntity
  8
3
100
AcDbCircle
 10
77.227195
 20
161.99063
 30
0.0
 40
1.958713
100
AcDbArc
 50
4.244273
 51
65.61824
  0
ARC
  5
ADA
100
AcDbEntity
  8
3
100
AcDbCircle
 10
85.507406
 20
147.648883
 30
0.0
 40
1.958713
100
AcDbArc
 50
354.38176
 51
55.755727
  0
ARC
  5
ADB
100
AcDbEntity
  8
3
100
AcDbCircle
 10
86.523392
 20
157.796627
 30
0.0
 40
34.135554
100
AcDbArc
 50
199.349232
 51
220.650768
  0
ARC
  5
AE8
100
AcDbEntity
  8
3
100
AcDbCircle
 10
99.0
 20
165.0
 30
0.0
 40
46.5
100
AcDbArc
 50
220.532644
 51
270.0
  0
ARC
  5
AEB
100
AcDbEntity
  8
3
100
AcDbCircle
 10
93.434625
 20
210.03462
 30
0.0
 40
3.012807
100
AcDbArc
 50
143.2509
 51
166.918723
  0
ARC
  5
AEC
100
AcDbEntity
  8
3
100
AcDbCircle
 10
57.216187
 20
147.302446
 30
0.0
 40
3.012807
100
AcDbArc
 50
133.081277
 51
195.710336
  0
ARC
  5
AED
100
AcDbEntity
  8
3
100
AcDbCircle
 10
62.781563
 20
137.662934
 30
0.0
 40
3.012807
100
AcDbArc
 50
224.289664
 51
286.918723
  0
ARC
  5
AEE
100
AcDbEntity
  8
3
100
AcDbCircle
 10
99.0
 20
165.0
 30
0.0
 40
21.0
100
AcDbArc
 50
116.654906
 51
183.345094
  0
LINE
  5
AF1
100
AcDbEntity
  8
3
100
AcDbLine
 10
249.0
 20
218.811668
 30
0.0
 11
249.0
 21
210.0
 31
0.0
  0
LINE
  5
B06
100
AcDbEntity
  8
3
100
AcDbLine
 10
234.0
 20
134.780525
 30
0.0
 11
234.0
 21
137.980525
 31
0.0
  0
LINE
  5
B40
100
AcDbEntity
  8
1
100
AcDbLine
 10
99.0
 20
165.0
 30
0.0
 11
35.780146
 21
128.5
 31
0.0
  0
LINE
  5
B5D
100
AcDbEntity
  8
1
100
AcDbLine
 10
99.0
 20
165.0
 30
0.0
 11
99.0
 21
93.0
 31
0.0
  0
LINE
  5
B9B
100
AcDbEntity
  8
3
100
AcDbLine
 10
234.0
 20
182.0
 30
0.0
 11
235.0
 21
184.462594
 31
0.0
  0
LINE
  5
B9C
100
AcDbEntity
  8
3
100
AcDbLine
 10
234.0
 20
148.0
 30
0.0
 11
235.0
 21
145.537406
 31
0.0
  0
LINE
  5
D20
100
AcDbEntity
  8
1
100
AcDbLine
 10
242.0
 20
110.5
 30
0.0
 11
231.149998
 21
110.553171
 31
0.0
  0
LINE
  5
D21
100
AcDbEntity
  8
1
100
AcDbLine
 10
242.0
 20
110.5
 30
0.0
 11
248.188639
 21
110.553171
 31
0.0
  0
LINE
  5
D22
100
AcDbEntity
  8
1
100
AcDbLine
 10
242.0
 20
112.5
 30
0.0
 11
237.283311
 21
112.513912
 31
0.0
  0
LINE
  5
D23
100
AcDbEntity
  8
1
100
AcDbLine
 10
242.0
 20
112.5
 30
0.0
 11
246.624146
 21
112.513912
 31
0.0
  0
HATCH
  5
EAE
100
AcDbEntity
  8
0
  6
CONTINUOUS
100
AcDbHatch
 10
0.0
 20
0.0
 30
0.0
210
0.0
220
0.0
230
1.0
  2
ANSI31
 70
     0
 71
     0
 91
        7
 92
        7
 72
     1
 73
     1
 93
       12
 10
262.9999999999999
 20
165.0
 42
0.0
 10
241.5
 20
165.0
 42
0.0
 10
241.5
 20
163.7746552230707
 42
-0.2721596082980698
 10
244.6483072701649
 20
161.9253196319411
 42
-0.2498418479505638
 10
244.6996602578422
 20
149.4072238118318
 42
-0.1759538270673097
 10
242.9022995188798
 20
147.7399432486012
 42
-0.0620936201109865
 10
241.5
 20
147.0422796021932
 42
0.0
 10
241.5
 20
144.026247578633
 42
0.1293808649254978
 10
251.0
 20
145.9999999999999
 42
0.0
 10
251.0
 20
147.5
 42
0.0
 10
261.5
 20
147.5
 42
0.4142135623730951
 10
262.9999999999999
 20
149.0
 42
0.0
 97
        0
 92
        7
 72
     1
 73
     1
 93
        6
 10
241.5
 20
165.0
 42
0.0
 10
233.9999999999999
 20
165.0
 42
0.0
 10
233.9999999999999
 20
157.270011778561
 42
0.0
 10
236.6619141878134
 20
160.1511255403871
 42
0.050659441681317
 10
238.5765144498573
 20
162.2754545881572
 42
-0.241277940474536
 10
241.5
 20
163.7746552230707
 42
0.0
 97
        0
 92
        7
 72
     1
 73
     1
 93
       14
 10
234.9999999999999
 20
145.5374063839876
 42
0.0324315232587184
 10
237.3292764512209
 20
144.7146793056477
 42
0.0
 10
239.419485842388
 20
146.1124462100204
 42
-0.0752527437237129
 10
241.0740288351336
 20
146.9094008113962
 42
0.0176274973545809
 10
241.5
 20
147.0422796021932
 42
0.0
 10
241.5
 20
147.4571250920255
 42
-0.2754795702407734
 10
238.3436837383937
 20
149.3453779418196
 42
0.0009565591874279
 10
238.367537992075
 20
149.3018123963288
 42
0.271762934324019
 10
241.5
 20
147.4571250920255
 42
0.0
 10
241.5
 20
163.7746552230707
 42
0.2375528082741129
 10
238.6064440578731
 20
162.3164614724272
 42
-0.0515587960841011
 10
236.6619141878135
 20
160.1511255403872
 42
0.0
 10
233.9999999999999
 20
157.270011778561
 42
0.0
 10
234.0
 20
147.9999999999998
 42
0.0
 97
        0
 92
        7
 72
     1
 73
     1
 93
        4
 10
244.6996602578428
 20
149.4072238118329
 42
0.2498418479505401
 10
244.6483072701649
 20
161.9253196319411
 42
0.2721596082980711
 10
241.5
 20
163.7746552230707
 42
0.0
 10
241.5
 20
147.4571250920255
 42
0.2815326192276521
 97
        0
 92
        7
 72
     1
 73
     1
 93
        4
 10
241.9999999999999
 20
102.5
 42
0.4142135623730924
 10
250.0
 20
110.4999999999999
 42
-0.231401098189398
 10
247.9791303715507
 20
112.9999999999999
 42
0.3899832787427757
 10
241.9999999999999
 20
118.5
 42
0.0
 97
        0
 92
        7
 72
     1
 73
     1
 93
        4
 10
242.0
 20
118.5
 42
0.389983278742777
 10
236.0208696284493
 20
113.0
 42
-0.2249662648716755
 10
234.0806660971535
 20
110.5388092186417
 42
0.0
 10
242.0
 20
110.5
 42
0.0
 97
        0
 92
        7
 72
     1
 73
     1
 93
        4
 10
234.0806660971535
 20
110.5388092186417
 42
-0.0061164277429119
 10
233.9999999999999
 20
110.4999999999999
 42
0.4142135623730951
 10
241.9999999999999
 20
102.4999999999999
 42
0.0
 10
242.0
 20
110.5
 42
0.0
 97
        0
 75
     0
 76
     1
 52
0.0
 41
12.0
 77
     0
 78
     1
 53
45.0
 43
0.0
 44
0.0
 45
-1.060660171779821
 46
1.060660171779821
 79
     0
 47
0.1604
 98
        7
 10
274.534263
 20
154.621809
 10
255.278408
 20
163.123022
 10
254.797012
 20
153.980208
 10
263.141216
 20
157.188213
 10
243.724896
 20
115.323752
 10
239.71326
 20
115.323752
 10
238.910933
 20
107.624541
  0
ARC
  5
F99
100
AcDbEntity
  8
3
100
AcDbCircle
 10
99.0
 20
216.0
 30
0.0
 40
9.0
100
AcDbArc
 50
186.37937
 51
270.0
  0
ARC
  5
FB1
100
AcDbEntity
  8
3
100
AcDbCircle
 10
85.39577
 20
212.532558
 30
0.0
 40
5.3
100
AcDbArc
 50
27.746152
 51
87.731007
  0
ARC
  5
FEF
100
AcDbEntity
  8
3
100
AcDbCircle
 10
99.0
 20
165.0
 30
0.0
 40
17.5
100
AcDbArc
 50
90.0
 51
270.0
  0
LINE
  5
FFC
100
AcDbEntity
  8
1
100
AcDbLine
 10
230.0
 20
216.0
 30
0.0
 11
253.0
 21
216.0
 31
0.0
  0
LINE
  5
101F
100
AcDbEntity
  8
3
100
AcDbLine
 10
234.0
 20
207.0
 30
0.0
 11
237.631678
 21
206.638248
 31
0.0
  0
LINE
  5
1020
100
AcDbEntity
  8
3
100
AcDbLine
 10
249.0
 20
210.0
 30
0.0
 11
249.0
 21
208.5
 31
0.0
  0
LINE
  5
1021
100
AcDbEntity
  8
3
100
AcDbLine
 10
249.0
 20
208.5
 30
0.0
 11
248.452213
 21
208.27621
 31
0.0
  0
ARC
  5
10AA
100
AcDbEntity
  8
3
100
AcDbCircle
 10
243.41492
 20
170.674498
 30
0.0
 40
15.333051
100
AcDbArc
 50
60.350806
 51
75.515475
  0
LINE
  5
10B7
100
AcDbEntity
  8
3
100
AcDbLine
 10
247.25
 20
185.520191
 30
0.0
 11
246.353223
 21
207.536999
 31
0.0
  0
LINE
  5
10B8
100
AcDbEntity
  8
3
100
AcDbLine
 10
237.75
 20
185.262794
 30
0.0
 11
237.631678
 21
206.638248
 31
0.0
  0
ARC
  5
10BB
100
AcDbEntity
  8
2
100
AcDbCircle
 10
242.484267
 20
159.620593
 30
0.0
 40
4.154092
100
AcDbArc
 50
34.894296
 51
145.105704
  0
ARC
  5
10BC
100
AcDbEntity
  8
2
100
AcDbCircle
 10
242.47283
 20
151.051412
 30
0.0
 40
3.594389
100
AcDbArc
 50
199.135411
 51
342.009913
  0
ARC
  5
10BD
100
AcDbEntity
  8
2
100
AcDbCircle
 10
252.618656
 20
155.935082
 30
0.0
 40
14.836513
100
AcDbArc
 50
155.88427
 51
204.11573
  0
ARC
  5
10BE
100
AcDbEntity
  8
2
100
AcDbCircle
 10
233.243175
 20
155.969138
 30
0.0
 40
14.011245
100
AcDbArc
 50
334.51873
 51
25.48127
  0
ARC
  5
10C7
100
AcDbEntity
  8
3
100
AcDbCircle
 10
242.022971
 20
137.811929
 30
0.0
 40
3.03149
100
AcDbArc
 50
198.843594
 51
341.156406
  0
ARC
  5
10C8
100
AcDbEntity
  8
3
100
AcDbCircle
 10
234.148931
 20
142.420576
 30
0.0
 40
12.109353
100
AcDbArc
 50
332.519739
 51
2.22239
  0
ARC
  5
10C9
100
AcDbEntity
  8
3
100
AcDbCircle
 10
249.851069
 20
142.420576
 30
0.0
 40
12.109353
100
AcDbArc
 50
172.620685
 51
207.480261
  0
LINE
  5
10D5
100
AcDbEntity
  8
3
100
AcDbLine
 10
250.0
 20
140.482159
 30
0.0
 11
250.0
 21
145.537406
 31
0.0
  0
LINE
  5
10F7
100
AcDbEntity
  8
3
100
AcDbLine
 10
248.452213
 20
208.27621
 30
0.0
 11
246.353223
 21
207.536999
 31
0.0
  0
LINE
  5
10F8
100
AcDbEntity
  8
3
100
AcDbLine
 10
250.0
 20
206.361842
 30
0.0
 11
250.0
 21
184.462594
 31
0.0
  0
ARC
  5
1103
100
AcDbEntity
  8
3
100
AcDbCircle
 10
244.022987
 20
158.579328
 30
0.0
 40
27.410905
100
AcDbArc
 50
103.229378
 51
109.218714
  0
LINE
  5
1158
100
AcDbEntity
  8
2
100
AcDbLine
 10
237.793714
 20
142.57962
 30
0.0
 11
237.793714
 21
156.298454
 31
0.0
  0
LINE
  5
1159
100
AcDbEntity
  8
2
100
AcDbLine
 10
246.311111
 20
141.712025
 30
0.0
 11
247.179125
 21
154.834389
 31
0.0
  0
ARC
  5
11AC
100
AcDbEntity
  8
3
100
AcDbCircle
 10
99.0
 20
165.0
 30
0.0
 40
62.5
100
AcDbArc
 50
270.0
 51
90.0
  0
LINE
  5
11AD
100
AcDbEntity
  8
1
100
AcDbLine
 10
99.0
 20
165.0
 30
0.0
 11
162.219854
 21
128.5
 31
0.0
  0
ARC
  5
11AE
100
AcDbEntity
  8
3
100
AcDbCircle
 10
111.476608
 20
157.796627
 30
0.0
 40
34.135554
100
AcDbArc
 50
319.349232
 51
340.650768
  0
LINE
  5
11AF
100
AcDbEntity
  8
3
100
AcDbLine
 10
110.54329
 20
147.457125
 30
0.0
 11
134.341666
 21
134.780525
 31
0.0
  0
ARC
  5
11B0
100
AcDbEntity
  8
3
100
AcDbCircle
 10
99.0
 20
165.0
 30
0.0
 40
54.5
100
AcDbArc
 50
270.0
 51
75.772731
  0
ARC
  5
11B1
100
AcDbEntity
  8
3
100
AcDbCircle
 10
99.0
 20
165.0
 30
0.0
 40
46.5
100
AcDbArc
 50
270.0
 51
319.467356
  0
ARC
  5
11B2
100
AcDbEntity
  8
3
100
AcDbCircle
 10
135.218437
 20
137.662934
 30
0.0
 40
3.012807
100
AcDbArc
 50
253.081277
 51
315.710336
  0
LINE
  5
11B3
100
AcDbEntity
  8
1
100
AcDbLine
 10
167.5
 20
165.0
 30
0.0
 11
99.0
 21
165.0
 31
0.0
  0
LINE
  5
11B4
100
AcDbEntity
  8
3
100
AcDbLine
 10
119.96422
 20
163.774655
 30
0.0
 11
142.841666
 21
149.502957
 31
0.0
  0
ARC
  5
11B5
100
AcDbEntity
  8
3
100
AcDbCircle
 10
99.0
 20
165.0
 30
0.0
 40
46.5
100
AcDbArc
 50
340.532644
 51
79.467356
  0
ARC
  5
11B6
100
AcDbEntity
  8
3
100
AcDbCircle
 10
140.783813
 20
147.302446
 30
0.0
 40
3.012807
100
AcDbArc
 50
344.289664
 51
46.918723
  0
LINE
  5
11B7
100
AcDbEntity
  8
1
100
AcDbLine
 10
99.0
 20
165.0
 30
0.0
 11
99.0
 21
238.0
 31
0.0
  0
ARC
  5
11B8
100
AcDbEntity
  8
3
100
AcDbCircle
 10
99.0
 20
165.0
 30
0.0
 40
19.0
100
AcDbArc
 50
270.0
 51
90.0
  0
ARC
  5
11B9
100
AcDbEntity
  8
3
100
AcDbCircle
 10
99.0
 20
165.080008
 30
0.0
 40
19.951108
100
AcDbArc
 50
68.138491
 51
90.0
  0
ARC
  5
11BA
100
AcDbEntity
  8
3
100
AcDbCircle
 10
99.0
 20
165.0
 30
0.0
 40
21.0
100
AcDbArc
 50
356.654906
 51
63.345094
  0
ARC
  5
11BB
100
AcDbEntity
  8
3
100
AcDbCircle
 10
107.280212
 20
185.360488
 30
0.0
 40
1.958713
100
AcDbArc
 50
244.244273
 51
305.61824
  0
ARC
  5
11BC
100
AcDbEntity
  8
3
100
AcDbCircle
 10
99.0
 20
165.0
 30
0.0
 40
17.5
100
AcDbArc
 50
270.0
 51
90.0
  0
ARC
  5
11BD
100
AcDbEntity
  8
3
100
AcDbCircle
 10
99.069289
 20
164.959996
 30
0.0
 40
19.951108
100
AcDbArc
 50
308.138491
 51
351.861509
  0
ARC
  5
11BE
100
AcDbEntity
  8
3
100
AcDbCircle
 10
99.0
 20
165.0
 30
0.0
 40
21.0
100
AcDbArc
 50
270.0
 51
303.345094
  0
ARC
  5
11BF
100
AcDbEntity
  8
3
100
AcDbCircle
 10
112.492594
 20
147.648883
 30
0.0
 40
1.958713
100
AcDbArc
 50
124.244273
 51
185.61824
  0
ARC
  5
11C0
100
AcDbEntity
  8
3
100
AcDbCircle
 10
120.772805
 20
161.99063
 30
0.0
 40
1.958713
100
AcDbArc
 50
114.38176
 51
175.755727
  0
ARC
  5
11C1
100
AcDbEntity
  8
3
100
AcDbCircle
 10
99.0
 20
216.0
 30
0.0
 40
9.0
100
AcDbArc
 50
270.0
 51
353.62063
  0
LINE
  5
11C2
100
AcDbEntity
  8
3
100
AcDbLine
 10
108.42093
 20
183.76822
 30
0.0
 11
107.5
 21
210.716518
 31
0.0
  0
LINE
  5
11C3
100
AcDbEntity
  8
1
100
AcDbLine
 10
114.0
 20
216.0
 30
0.0
 11
99.0
 21
216.0
 31
0.0
  0
ARC
  5
11C4
100
AcDbEntity
  8
3
100
AcDbCircle
 10
104.565375
 20
210.03462
 30
0.0
 40
3.012807
100
AcDbArc
 50
13.081277
 51
36.7491
  0
ARC
  5
11C5
100
AcDbEntity
  8
3
100
AcDbCircle
 10
112.60423
 20
212.532558
 30
0.0
 40
5.3
100
AcDbArc
 50
92.268993
 51
152.253848
  0
LINE
  5
11EF
100
AcDbEntity
  8
1
100
AcDbLine
 10
231.0
 20
216.0
 30
0.0
 11
252.0
 21
216.0
 31
0.0
  0
CIRCLE
  5
1263
100
AcDbEntity
  8
3
100
AcDbCircle
 10
99.0
 20
216.0
 30
0.0
 40
4.0
  0
CIRCLE
  5
1264
100
AcDbEntity
  8
3
100
AcDbCircle
 10
99.0
 20
216.0
 30
0.0
 40
2.5
  0
CIRCLE
  5
1265
100
AcDbEntity
  8
3
100
AcDbCircle
 10
99.0
 20
216.0
 30
0.0
 40
2.0
  0
LINE
  5
1266
100
AcDbEntity
  8
3
100
AcDbLine
 10
234.0
 20
211.0
 30
0.0
 11
235.0
 21
211.0
 31
0.0
  0
LINE
  5
1267
100
AcDbEntity
  8
3
100
AcDbLine
 10
235.0
 20
211.0
 30
0.0
 11
236.0
 21
211.0
 31
0.0
  0
LINE
  5
1268
100
AcDbEntity
  8
3
100
AcDbLine
 10
236.0
 20
211.0
 30
0.0
 11
236.0
 21
221.0
 31
0.0
  0
LINE
  5
1269
100
AcDbEntity
  8
3
100
AcDbLine
 10
236.0
 20
221.0
 30
0.0
 11
234.141883
 21
221.0
 31
0.0
  0
LINE
  5
126A
100
AcDbEntity
  8
3
100
AcDbLine
 10
236.0
 20
216.0
 30
0.0
 11
236.0
 21
218.5
 31
0.0
  0
LINE
  5
126B
100
AcDbEntity
  8
3
100
AcDbLine
 10
236.0
 20
218.5
 30
0.0
 11
249.0
 21
218.5
 31
0.0
  0
LINE
  5
126D
100
AcDbEntity
  8
3
100
AcDbLine
 10
249.0
 20
213.5
 30
0.0
 11
236.0
 21
213.5
 31
0.0
  0
LINE
  5
126F
100
AcDbEntity
  8
3
100
AcDbLine
 10
236.0
 20
218.0
 30
0.0
 11
249.0
 21
218.0
 31
0.0
  0
LINE
  5
1271
100
AcDbEntity
  8
3
100
AcDbLine
 10
249.0
 20
214.0
 30
0.0
 11
236.0
 21
214.0
 31
0.0
  0
ENDSEC
  0
SECTION
  2
OBJECTS
  0
DICTIONARY
  5
3D1
100
AcDbDictionary
  3
ACAD_GROUP
350
3D2
  3
ACAD_MLINESTYLE
350
3D3
  3
ACDBVARIABLEDICTIONARY
350
E1C
  0
DICTIONARY
  5
3D2
102
{ACAD_REACTORS
330
3D1
102
}
100
AcDbDictionary
  0
DICTIONARY
  5
3D3
102
{ACAD_REACTORS
330
3D1
102
}
100
AcDbDictionary
  3
STANDARD
350
3E0
  0
DICTIONARY
  5
E1C
102
{ACAD_REACTORS
330
3D1
102
}
100
AcDbDictionary
  3
SORTENTS
350
E1D
  0
MLINESTYLE
  5
3E0
102
{ACAD_REACTORS
330
3D3
102
}
100
AcDbMlineStyle
  2
STANDARD
 70
     0
  3

 62
     0
 51
90.0
 52
90.0
 71
     2
 49
0.5
 62
   256
  6
BYLAYER
 49
-0.5
 62
   256
  6
BYLAYER
  0
DICTIONARYVAR
  5
E1D
102
{ACAD_REACTORS
330
E1C
102
}
100
DictionaryVariables
280
     0
  1
96
  0
ENDSEC
  0
EOF
