  0
SECTION
  2
HEADER
  9
$ACADVER
  1
AC1014
  9
$ACADMAINTVER
 70
     0
  9
$DWGCODEPAGE
  3
ANSI_932
  9
$INSBASE
 10
0.0
 20
0.0
 30
0.0
  9
$EXTMIN
 10
20.0
 20
20.0
 30
0.0
  9
$EXTMAX
 10
237.5
 20
140.0
 30
0.0
  9
$LIMMIN
 10
0.0
 20
0.0
  9
$LIMMAX
 10
250.0
 20
160.0
  9
$ORTHOMODE
 70
     1
  9
$REGENMODE
 70
     1
  9
$FILLMODE
 70
     1
  9
$QTEXTMODE
 70
     0
  9
$MIRRTEXT
 70
     1
  9
$DRAGMODE
 70
     1
  9
$LTSCALE
 40
20.0
  9
$OSMODE
 70
    32
  9
$ATTMODE
 70
     1
  9
$TEXTSIZE
 40
8.5
  9
$TRACEWID
 40
0.05
  9
$TEXTSTYLE
  7
BIGFONT
  9
$CLAYER
  8
0
  9
$CELTYPE
  6
BYLAYER
  9
$CECOLOR
 62
   256
  9
$CELTSCALE
 40
1.0
  9
$DELOBJ
 70
     1
  9
$DISPSILH
 70
     0
  9
$DIMSCALE
 40
2.0
  9
$DIMASZ
 40
3.0
  9
$DIMEXO
 40
2.0
  9
$DIMDLI
 40
0.38
  9
$DIMRND
 40
0.0
  9
$DIMDLE
 40
0.0
  9
$DIMEXE
 40
2.0
  9
$DIMTP
 40
0.0
  9
$DIMTM
 40
0.0
  9
$DIMTXT
 40
3.2
  9
$DIMCEN
 40
0.09
  9
$DIMTSZ
 40
0.0
  9
$DIMTOL
 70
     0
  9
$DIMLIM
 70
     0
  9
$DIMTIH
 70
     0
  9
$DIMTOH
 70
     0
  9
$DIMSE1
 70
     0
  9
$DIMSE2
 70
     0
  9
$DIMTAD
 70
     1
  9
$DIMZIN
 70
     0
  9
$DIMBLK
  1

  9
$DIMASO
 70
     0
  9
$DIMSHO
 70
     0
  9
$DIMPOST
  1

  9
$DIMAPOST
  1

  9
$DIMALT
 70
     0
  9
$DIMALTD
 70
     2
  9
$DIMALTF
 40
25.4
  9
$DIMLFAC
 40
1.0
  9
$DIMTOFL
 70
     0
  9
$DIMTVP
 40
1.6
  9
$DIMTIX
 70
     1
  9
$DIMSOXD
 70
     0
  9
$DIMSAH
 70
     0
  9
$DIMBLK1
  1

  9
$DIMBLK2
  1

  9
$DIMSTYLE
  2
STANDARD
  9
$DIMCLRD
 70
     0
  9
$DIMCLRE
 70
     0
  9
$DIMCLRT
 70
     0
  9
$DIMTFAC
 40
1.0
  9
$DIMGAP
 40
0.09
  9
$DIMJUST
 70
     0
  9
$DIMSD1
 70
     0
  9
$DIMSD2
 70
     0
  9
$DIMTOLJ
 70
     1
  9
$DIMTZIN
 70
     0
  9
$DIMALTZ
 70
     0
  9
$DIMALTTZ
 70
     0
  9
$DIMFIT
 70
     5
  9
$DIMUPT
 70
     0
  9
$DIMUNIT
 70
     2
  9
$DIMDEC
 70
     4
  9
$DIMTDEC
 70
     4
  9
$DIMALTU
 70
     2
  9
$DIMALTTD
 70
     2
  9
$DIMTXSTY
  7
BIGFONT
  9
$DIMAUNIT
 70
     0
  9
$LUNITS
 70
     2
  9
$LUPREC
 70
     4
  9
$SKETCHINC
 40
0.1
  9
$FILLETRAD
 40
0.0
  9
$AUNITS
 70
     0
  9
$AUPREC
 70
     0
  9
$MENU
  1
ACAD
  9
$ELEVATION
 40
0.0
  9
$PELEVATION
 40
0.0
  9
$THICKNESS
 40
0.0
  9
$LIMCHECK
 70
     0
  9
$BLIPMODE
 70
     0
  9
$CHAMFERA
 40
0.0
  9
$CHAMFERB
 40
0.0
  9
$CHAMFERC
 40
0.0
  9
$CHAMFERD
 40
0.0
  9
$SKPOLY
 70
     0
  9
$TDCREATE
 40
2450865.684213310
  9
$TDUPDATE
 40
2453089.712018229
  9
$TDINDWG
 40
0.0007060185
  9
$TDUSRTIMER
 40
0.0007060185
  9
$USRTIMER
 70
     1
  9
$ANGBASE
 50
0.0
  9
$ANGDIR
 70
     0
  9
$PDMODE
 70
     0
  9
$PDSIZE
 40
0.0
  9
$PLINEWID
 40
0.0
  9
$COORDS
 70
     2
  9
$SPLFRAME
 70
     0
  9
$SPLINETYPE
 70
     6
  9
$SPLINESEGS
 70
     8
  9
$ATTDIA
 70
     0
  9
$ATTREQ
 70
     1
  9
$HANDLING
 70
     1
  9
$HANDSEED
  5
15A
  9
$SURFTAB1
 70
     6
  9
$SURFTAB2
 70
     6
  9
$SURFTYPE
 70
     6
  9
$SURFU
 70
     6
  9
$SURFV
 70
     6
  9
$UCSNAME
  2

  9
$UCSORG
 10
0.0
 20
0.0
 30
0.0
  9
$UCSXDIR
 10
1.0
 20
0.0
 30
0.0
  9
$UCSYDIR
 10
0.0
 20
1.0
 30
0.0
  9
$PUCSNAME
  2

  9
$PUCSORG
 10
0.0
 20
0.0
 30
0.0
  9
$PUCSXDIR
 10
1.0
 20
0.0
 30
0.0
  9
$PUCSYDIR
 10
0.0
 20
1.0
 30
0.0
  9
$USERI1
 70
     0
  9
$USERI2
 70
     0
  9
$USERI3
 70
     0
  9
$USERI4
 70
     0
  9
$USERI5
 70
     0
  9
$USERR1
 40
0.0
  9
$USERR2
 40
0.0
  9
$USERR3
 40
0.0
  9
$USERR4
 40
0.0
  9
$USERR5
 40
0.0
  9
$WORLDVIEW
 70
     1
  9
$SHADEDGE
 70
     3
  9
$SHADEDIF
 70
    70
  9
$TILEMODE
 70
     1
  9
$MAXACTVP
 70
    16
  9
$PINSBASE
 10
0.0
 20
0.0
 30
0.0
  9
$PLIMCHECK
 70
     0
  9
$PEXTMIN
 10
1.000000E+20
 20
1.000000E+20
 30
1.000000E+20
  9
$PEXTMAX
 10
-1.000000E+20
 20
-1.000000E+20
 30
-1.000000E+20
  9
$PLIMMIN
 10
0.0
 20
0.0
  9
$PLIMMAX
 10
12.0
 20
9.0
  9
$UNITMODE
 70
     0
  9
$VISRETAIN
 70
     0
  9
$PLINEGEN
 70
     1
  9
$PSLTSCALE
 70
     0
  9
$TREEDEPTH
 70
  3020
  9
$PICKSTYLE
 70
     1
  9
$CMLSTYLE
  2
STANDARD
  9
$CMLJUST
 70
     0
  9
$CMLSCALE
 40
1.0
  9
$PROXYGRAPHICS
 70
     1
  9
$MEASUREMENT
 70
     0
  0
ENDSEC
  0
SECTION
  2
CLASSES
  0
CLASS
  1
DICTIONARYVAR
  2
AcDbDictionaryVar
  3
"AutoCAD"
 90
        0
280
     0
281
     0
  0
ENDSEC
  0
SECTION
  2
TABLES
  0
TABLE
  2
VPORT
  5
120
100
AcDbSymbolTable
 70
     1
  0
VPORT
  5
154
100
AcDbSymbolTableRecord
100
AcDbViewportTableRecord
  2
*ACTIVE
 70
     0
 10
0.0
 20
0.0
 11
1.0
 21
1.0
 12
141.889764
 22
89.128813
 13
0.0
 23
0.0
 14
5.0
 24
5.0
 15
10.0
 25
10.0
 16
0.0
 26
0.0
 36
1.0
 17
0.0
 27
0.0
 37
0.0
 40
178.257626
 41
1.591963
 42
50.0
 43
0.0
 44
0.0
 50
0.0
 51
0.0
 71
     0
 72
  1000
 73
     1
 74
     1
 75
     0
 76
     0
 77
     0
 78
     2
  0
ENDTAB
  0
TABLE
  2
LTYPE
  5
11D
100
AcDbSymbolTable
 70
     4
  0
LTYPE
  5
129
100
AcDbSymbolTableRecord
100
AcDbLinetypeTableRecord
  2
BYBLOCK
 70
     0
  3

 72
    65
 73
     0
 40
0.0
  0
LTYPE
  5
12A
100
AcDbSymbolTableRecord
100
AcDbLinetypeTableRecord
  2
BYLAYER
 70
     0
  3

 72
    65
 73
     0
 40
0.0
  0
LTYPE
  5
12B
100
AcDbSymbolTableRecord
100
AcDbLinetypeTableRecord
  2
CONTINUOUS
 70
     0
  3
実線
 72
    65
 73
     0
 40
0.0
  0
LTYPE
  5
13A
100
AcDbSymbolTableRecord
100
AcDbLinetypeTableRecord
  2
CENTER
 70
     0
  3
____ _ ____ _ ____ _ ____ _ ____ _ ____ _ ____
 72
    65
 73
     4
 40
2.0
 49
1.25
 74
     0
 49
-0.25
 74
     0
 49
0.25
 74
     0
 49
-0.25
 74
     0
  0
LTYPE
  5
13B
100
AcDbSymbolTableRecord
100
AcDbLinetypeTableRecord
  2
ITTEN1
 70
     0
  3

 72
    65
 73
     4
 40
8.2
 49
5.0
 74
     0
 49
-1.0
 74
     0
 49
1.2
 74
     0
 49
-1.0
 74
     0
  0
LTYPE
  5
13C
100
AcDbSymbolTableRecord
100
AcDbLinetypeTableRecord
  2
TENSEN1
 70
     0
  3

 72
    65
 73
     2
 40
0.4
 49
0.3
 74
     0
 49
-0.1
 74
     0
  0
ENDTAB
  0
TABLE
  2
LAYER
  5
11A
100
AcDbSymbolTable
 70
     5
  0
LAYER
  5
126
100
AcDbSymbolTableRecord
100
AcDbLayerTableRecord
  2
0
 70
     0
 62
     7
  6
CONTINUOUS
  0
LAYER
  5
141
100
AcDbSymbolTableRecord
100
AcDbLayerTableRecord
  2
1
 70
     0
 62
     1
  6
CENTER
  0
LAYER
  5
142
100
AcDbSymbolTableRecord
100
AcDbLayerTableRecord
  2
10
 70
     0
 62
     7
  6
CONTINUOUS
  0
LAYER
  5
143
100
AcDbSymbolTableRecord
100
AcDbLayerTableRecord
  2
11
 70
     0
 62
     3
  6
CONTINUOUS
  0
LAYER
  5
144
100
AcDbSymbolTableRecord
100
AcDbLayerTableRecord
  2
2
 70
     0
 62
     2
  6
TENSEN1
  0
ENDTAB
  0
TABLE
  2
STYLE
  5
11B
100
AcDbSymbolTable
 70
     5
  0
STYLE
  5
127
100
AcDbSymbolTableRecord
100
AcDbTextStyleTableRecord
  2
STANDARD
 70
     0
 40
0.0
 41
1.0
 50
0.0
 71
     0
 42
0.2
  3
TXT
  4
BIGFONT
  0
STYLE
  5
136
100
AcDbSymbolTableRecord
100
AcDbTextStyleTableRecord
  2
K80
 70
     0
 40
0.0
 41
0.8
 50
0.0
 71
     0
 42
0.2
  3
TXT
  4
BIGFONT
  0
STYLE
  5
137
100
AcDbSymbolTableRecord
100
AcDbTextStyleTableRecord
  2
07500
 70
     0
 40
0.0
 41
0.75
 50
0.0
 71
     0
 42
0.2
  3
TXT
  4
BIGFONT
  0
STYLE
  5
138
100
AcDbSymbolTableRecord
100
AcDbTextStyleTableRecord
  2
EXTFONT
 70
     0
 40
11.0
 41
1.0
 50
0.0
 71
     0
 42
11.0
  3
txt.shx
  4
extfont
  0
STYLE
  5
139
100
AcDbSymbolTableRecord
100
AcDbTextStyleTableRecord
  2
BIGFONT
 70
     0
 40
8.5
 41
0.8
 50
0.0
 71
     0
 42
8.5
  3
txt.shx
  4
bigfont
  0
ENDTAB
  0
TABLE
  2
VIEW
  5
11E
100
AcDbSymbolTable
 70
     1
  0
VIEW
  5
13D
100
AcDbSymbolTableRecord
100
AcDbViewTableRecord
  2
ALL
 70
     0
 40
540.0
 10
441.983193
 20
270.0
 41
0.0
 11
0.0
 21
0.0
 31
1.0
 12
0.0
 22
0.0
 32
0.0
 42
0.0
 43
0.0
 44
0.0
 50
0.0
 71
     0
  0
ENDTAB
  0
TABLE
  2
UCS
  5
11F
100
AcDbSymbolTable
 70
     0
  0
ENDTAB
  0
TABLE
  2
APPID
  5
121
100
AcDbSymbolTable
 70
     1
  0
APPID
  5
128
100
AcDbSymbolTableRecord
100
AcDbRegAppTableRecord
  2
ACAD
 70
     0
  0
ENDTAB
  0
TABLE
  2
DIMSTYLE
  5
122
100
AcDbSymbolTable
 70
     1
  0
DIMSTYLE
105
140
100
AcDbSymbolTableRecord
100
AcDbDimStyleTableRecord
  2
STANDARD
 70
     0
  3

  4

  5

  6

  7

 40
1.0
 41
0.18
 42
0.0625
 43
0.38
 44
0.18
 45
0.0
 46
0.0
 47
0.0
 48
0.0
140
0.18
141
0.09
142
0.0
143
25.4
144
1.0
145
0.0
146
1.0
147
0.09
 71
     0
 72
     0
 73
     1
 74
     1
 75
     0
 76
     0
 77
     0
 78
     0
170
     0
171
     2
172
     0
173
     0
174
     0
175
     0
176
     0
177
     0
178
     0
270
     2
271
     4
272
     4
273
     2
274
     2
340
139
275
     0
280
     0
281
     0
282
     0
283
     1
284
     0
285
     0
286
     0
287
     5
288
     0
  0
ENDTAB
  0
TABLE
  2
BLOCK_RECORD
  5
119
100
AcDbSymbolTable
 70
     2
  0
BLOCK_RECORD
  5
12F
100
AcDbSymbolTableRecord
100
AcDbBlockTableRecord
  2
*MODEL_SPACE
  0
BLOCK_RECORD
  5
12C
100
AcDbSymbolTableRecord
100
AcDbBlockTableRecord
  2
*PAPER_SPACE
  0
BLOCK_RECORD
  5
134
100
AcDbSymbolTableRecord
100
AcDbBlockTableRecord
  2
WAKU
  0
BLOCK_RECORD
  5
135
100
AcDbSymbolTableRecord
100
AcDbBlockTableRecord
  2
QQ
  0
ENDTAB
  0
ENDSEC
  0
SECTION
  2
BLOCKS
  0
BLOCK
  5
147
100
AcDbEntity
  8
0
100
AcDbBlockBegin
  2
*MODEL_SPACE
 70
     0
 10
0.0
 20
0.0
 30
0.0
  3
*MODEL_SPACE
  1

  0
ENDBLK
  5
148
100
AcDbEntity
  8
0
100
AcDbBlockEnd
  0
BLOCK
  5
145
100
AcDbEntity
 67
     1
  8
0
100
AcDbBlockBegin
  2
*PAPER_SPACE
 70
     0
 10
0.0
 20
0.0
 30
0.0
  3
*PAPER_SPACE
  1

  0
ENDBLK
  5
146
100
AcDbEntity
 67
     1
  8
0
100
AcDbBlockEnd
  0
BLOCK
  5
30
100
AcDbEntity
  8
0
100
AcDbBlockBegin
  2
WAKU
 70
     0
 10
549.0
 20
0.0
 30
0.0
  3
WAKU
  1

  0
LINE
  5
31
100
AcDbEntity
  8
11
100
AcDbLine
 10
452.0
 20
12.0
 30
0.0
 11
549.0
 21
12.0
 31
0.0
  0
LINE
  5
32
100
AcDbEntity
  8
11
100
AcDbLine
 10
477.0
 20
0.0
 30
0.0
 11
477.0
 21
12.0
 31
0.0
  0
LINE
  5
33
100
AcDbEntity
  8
11
100
AcDbLine
 10
452.0
 20
12.0
 30
0.0
 11
452.0
 21
0.0
 31
0.0
  0
TEXT
  5
34
100
AcDbEntity
  8
11
100
AcDbText
 10
454.0
 20
8.5
 30
0.0
 40
2.5
  1
尺度
100
AcDbText
  0
TEXT
  5
35
100
AcDbEntity
  8
11
100
AcDbText
 10
479.0
 20
8.5
 30
0.0
 40
2.5
  1
図番
100
AcDbText
  0
ENDBLK
  5
36
100
AcDbEntity
  8
0
100
AcDbBlockEnd
  0
BLOCK
  5
37
100
AcDbEntity
  8
0
100
AcDbBlockBegin
  2
QQ
 70
     0
 10
270.0
 20
0.0
 30
0.0
  3
QQ
  1

  0
LINE
  5
38
100
AcDbEntity
  8
11
100
AcDbLine
 10
173.0
 20
36.0
 30
0.0
 11
270.0
 21
36.0
 31
0.0
  0
TEXT
  5
39
100
AcDbEntity
  8
11
100
AcDbText
 10
175.0
 20
32.5
 30
0.0
 40
2.5
  1
部品名称
100
AcDbText
  0
LINE
  5
3A
100
AcDbEntity
  8
11
100
AcDbLine
 10
173.0
 20
36.0
 30
0.0
 11
173.0
 21
0.0
 31
0.0
  0
LINE
  5
3B
100
AcDbEntity
  8
11
100
AcDbLine
 10
173.0
 20
24.0
 30
0.0
 11
270.0
 21
24.0
 31
0.0
  0
TEXT
  5
3C
100
AcDbEntity
  8
11
100
AcDbText
 10
175.0
 20
20.5
 30
0.0
 40
2.5
  1
品番
100
AcDbText
  0
LINE
  5
3D
100
AcDbEntity
  8
11
100
AcDbLine
 10
173.0
 20
12.0
 30
0.0
 11
270.0
 21
12.0
 31
0.0
  0
TEXT
  5
3E
100
AcDbEntity
  8
11
100
AcDbText
 10
175.0
 20
8.5
 30
0.0
 40
2.5
  1
尺度
100
AcDbText
  0
TEXT
  5
3F
100
AcDbEntity
  8
11
100
AcDbText
 10
200.0
 20
8.5
 30
0.0
 40
2.5
  1
図番
100
AcDbText
  0
LINE
  5
40
100
AcDbEntity
  8
11
100
AcDbLine
 10
198.0
 20
0.0
 30
0.0
 11
198.0
 21
12.0
 31
0.0
  0
ENDBLK
  5
41
100
AcDbEntity
  8
0
100
AcDbBlockEnd
  0
ENDSEC
  0
SECTION
  2
ENTITIES
  0
CIRCLE
  5
42
100
AcDbEntity
  8
0
100
AcDbCircle
 10
80.0
 20
80.0
 30
0.0
 40
50.0
  0
LINE
  5
43
100
AcDbEntity
  8
1
100
AcDbLine
 10
237.5
 20
80.0
 30
0.0
 11
192.5
 21
80.0
 31
0.0
  0
CIRCLE
  5
44
100
AcDbEntity
  8
0
100
AcDbCircle
 10
80.0
 20
80.0
 30
0.0
 40
15.25
  0
LINE
  5
45
100
AcDbEntity
  8
0
100
AcDbLine
 10
71.505779
 20
97.104023
 30
0.0
 11
72.04357
 21
106.784252
 31
0.0
  0
ARC
  5
46
100
AcDbEntity
  8
0
100
AcDbCircle
 10
66.513477
 20
97.381374
 30
0.0
 40
5.0
100
AcDbArc
 50
307.998261
 51
356.82017
  0
ARC
  5
47
100
AcDbEntity
  8
0
100
AcDbCircle
 10
67.051268
 20
107.061604
 30
0.0
 40
5.0
100
AcDbArc
 50
356.820148
 51
115.525747
  0
LINE
  5
48
100
AcDbEntity
  8
0
100
AcDbLine
 10
60.940371
 20
78.804199
 30
0.0
 11
52.825942
 21
73.498345
 31
0.0
  0
ARC
  5
49
100
AcDbEntity
  8
0
100
AcDbCircle
 10
58.204028
 20
82.988985
 30
0.0
 40
5.0
100
AcDbArc
 50
303.17983
 51
352.001739
  0
ARC
  5
4A
100
AcDbEntity
  8
0
100
AcDbCircle
 10
50.089597
 20
77.683129
 30
0.0
 40
5.0
100
AcDbArc
 50
184.474253
 51
303.179852
  0
ARC
  5
4B
100
AcDbEntity
  8
0
100
AcDbCircle
 10
80.0
 20
80.0
 30
0.0
 40
35.0
100
AcDbArc
 50
115.564271
 51
184.435729
  0
ARC
  5
4C
100
AcDbEntity
  8
0
100
AcDbCircle
 10
80.0
 20
80.0
 30
0.0
 40
17.0
100
AcDbArc
 50
127.752733
 51
172.247267
  0
ARC
  5
4D
100
AcDbEntity
  8
0
100
AcDbCircle
 10
80.0
 20
80.0
 30
0.0
 40
17.0
100
AcDbArc
 50
247.752733
 51
292.247267
  0
ARC
  5
4E
100
AcDbEntity
  8
0
100
AcDbCircle
 10
80.0
 20
80.0
 30
0.0
 40
35.0
100
AcDbArc
 50
235.564271
 51
304.435729
  0
ARC
  5
4F
100
AcDbEntity
  8
0
100
AcDbCircle
 10
96.961671
 20
55.255267
 30
0.0
 40
5.0
100
AcDbArc
 50
304.474253
 51
63.179852
  0
ARC
  5
50
100
AcDbEntity
  8
0
100
AcDbCircle
 10
88.30945
 20
59.629642
 30
0.0
 40
5.0
100
AcDbArc
 50
63.17983
 51
112.001739
  0
LINE
  5
51
100
AcDbEntity
  8
0
100
AcDbLine
 10
90.565408
 20
64.091777
 30
0.0
 11
99.217628
 21
59.717403
 31
0.0
  0
ARC
  5
52
100
AcDbEntity
  8
0
100
AcDbCircle
 10
63.038329
 20
55.255267
 30
0.0
 40
5.0
100
AcDbArc
 50
116.820148
 51
235.525747
  0
ARC
  5
53
100
AcDbEntity
  8
0
100
AcDbCircle
 10
71.69055
 20
59.629642
 30
0.0
 40
5.0
100
AcDbArc
 50
67.998261
 51
116.82017
  0
LINE
  5
54
100
AcDbEntity
  8
0
100
AcDbLine
 10
69.434592
 20
64.091777
 30
0.0
 11
60.782372
 21
59.717403
 31
0.0
  0
ARC
  5
55
100
AcDbEntity
  8
0
100
AcDbCircle
 10
80.0
 20
80.0
 30
0.0
 40
17.0
100
AcDbArc
 50
7.752733
 51
52.247267
  0
ARC
  5
56
100
AcDbEntity
  8
0
100
AcDbCircle
 10
80.0
 20
80.0
 30
0.0
 40
35.0
100
AcDbArc
 50
355.564271
 51
64.435729
  0
ARC
  5
57
100
AcDbEntity
  8
0
100
AcDbCircle
 10
92.948732
 20
107.061604
 30
0.0
 40
5.0
100
AcDbArc
 50
64.474253
 51
183.179852
  0
ARC
  5
58
100
AcDbEntity
  8
0
100
AcDbCircle
 10
93.486523
 20
97.381374
 30
0.0
 40
5.0
100
AcDbArc
 50
183.17983
 51
232.001739
  0
LINE
  5
59
100
AcDbEntity
  8
0
100
AcDbLine
 10
88.494221
 20
97.104023
 30
0.0
 11
87.95643
 21
106.784252
 31
0.0
  0
ARC
  5
5A
100
AcDbEntity
  8
0
100
AcDbCircle
 10
109.910403
 20
77.683129
 30
0.0
 40
5.0
100
AcDbArc
 50
236.820148
 51
355.525747
  0
ARC
  5
5B
100
AcDbEntity
  8
0
100
AcDbCircle
 10
101.795972
 20
82.988985
 30
0.0
 40
5.0
100
AcDbArc
 50
187.998261
 51
236.82017
  0
LINE
  5
5C
100
AcDbEntity
  8
0
100
AcDbLine
 10
99.059629
 20
78.804199
 30
0.0
 11
107.174058
 21
73.498345
 31
0.0
  0
ARC
  5
5D
100
AcDbEntity
  8
0
100
AcDbCircle
 10
80.0
 20
120.0
 30
0.0
 40
7.0
100
AcDbArc
 50
190.003341
 51
349.996659
  0
LINE
  5
5E
100
AcDbEntity
  8
1
100
AcDbLine
 10
210.0
 20
140.0
 30
0.0
 11
210.0
 21
20.0
 31
0.0
  0
LINE
  5
5F
100
AcDbEntity
  8
1
100
AcDbLine
 10
89.999998
 20
120.0
 30
0.0
 11
69.999998
 21
120.0
 31
0.0
  0
LINE
  5
7D
100
AcDbEntity
  8
1
100
AcDbLine
 10
140.0
 20
80.0
 30
0.0
 11
20.0
 21
80.0
 31
0.0
  0
LINE
  5
7E
100
AcDbEntity
  8
1
100
AcDbLine
 10
80.0
 20
140.0
 30
0.0
 11
80.0
 21
20.0
 31
0.0
  0
LINE
  5
88
100
AcDbEntity
  8
0
100
AcDbLine
 10
201.994984
 20
79.901765
 30
0.0
 11
201.994984
 21
121.901765
 31
0.0
  0
LINE
  5
89
100
AcDbEntity
  8
0
100
AcDbLine
 10
201.994984
 20
79.901765
 30
0.0
 11
201.994984
 21
37.901765
 31
0.0
  0
LINE
  5
8A
100
AcDbEntity
  8
0
100
AcDbLine
 10
217.994984
 20
79.901765
 30
0.0
 11
217.994984
 21
121.901765
 31
0.0
  0
LINE
  5
8B
100
AcDbEntity
  8
0
100
AcDbLine
 10
217.994984
 20
79.901765
 30
0.0
 11
217.994984
 21
37.901765
 31
0.0
  0
ARC
  5
8C
100
AcDbEntity
  8
0
100
AcDbCircle
 10
209.994984
 20
121.901765
 30
0.0
 40
8.0
100
AcDbArc
 50
0.0
 51
180.0
  0
ARC
  5
8D
100
AcDbEntity
  8
0
100
AcDbCircle
 10
209.994984
 20
37.901765
 30
0.0
 40
8.0
100
AcDbArc
 50
180.0
 51
0.0
  0
LINE
  5
8E
100
AcDbEntity
  8
0
100
AcDbLine
 10
228.994984
 20
93.901765
 30
0.0
 11
228.994984
 21
65.901765
 31
0.0
  0
LINE
  5
8F
100
AcDbEntity
  8
0
100
AcDbLine
 10
228.994984
 20
65.901765
 30
0.0
 11
227.994984
 21
64.901765
 31
0.0
  0
LINE
  5
90
100
AcDbEntity
  8
0
100
AcDbLine
 10
227.994984
 20
64.901765
 30
0.0
 11
219.994984
 21
64.901765
 31
0.0
  0
LINE
  5
91
100
AcDbEntity
  8
0
100
AcDbLine
 10
228.994984
 20
93.901765
 30
0.0
 11
227.994984
 21
94.901765
 31
0.0
  0
LINE
  5
92
100
AcDbEntity
  8
0
100
AcDbLine
 10
227.994984
 20
94.901765
 30
0.0
 11
219.994984
 21
94.901765
 31
0.0
  0
LINE
  5
93
100
AcDbEntity
  8
0
100
AcDbLine
 10
219.994984
 20
95.901765
 30
0.0
 11
219.994984
 21
63.901765
 31
0.0
  0
LINE
  5
94
100
AcDbEntity
  8
0
100
AcDbLine
 10
219.994984
 20
63.901765
 30
0.0
 11
217.994984
 21
62.901765
 31
0.0
  0
LINE
  5
95
100
AcDbEntity
  8
0
100
AcDbLine
 10
219.994984
 20
95.901765
 30
0.0
 11
217.994984
 21
96.901765
 31
0.0
  0
ARC
  5
A5
100
AcDbEntity
  8
0
100
AcDbCircle
 10
89.353489
 20
118.358367
 30
0.0
 40
2.508328
100
AcDbArc
 50
71.766442
 51
170.766209
  0
ARC
  5
A6
100
AcDbEntity
  8
0
100
AcDbCircle
 10
70.696804
 20
118.519965
 30
0.0
 40
2.407378
100
AcDbArc
 50
5.74297
 51
106.910855
  0
ARC
  5
A7
100
AcDbEntity
  8
0
100
AcDbCircle
 10
79.879017
 20
80.047818
 30
0.0
 40
42.0
100
AcDbArc
 50
102.914072
 51
76.791893
  0
LINE
  5
B4
100
AcDbEntity
  8
1
100
AcDbLine
 10
221.994984
 20
120.151765
 30
0.0
 11
189.78272
 21
120.151765
 31
0.0
  0
ARC
  5
DD
100
AcDbEntity
  8
2
100
AcDbCircle
 10
211.16165
 20
86.568432
 30
0.0
 40
12.388391
100
AcDbArc
 50
56.523722
 51
137.726311
  0
ARC
  5
DE
100
AcDbEntity
  8
2
100
AcDbCircle
 10
211.16165
 20
73.235099
 30
0.0
 40
12.388391
100
AcDbArc
 50
222.273689
 51
303.476278
  0
CIRCLE
  5
14F
100
AcDbEntity
  8
0
100
AcDbCircle
 10
80.0
 20
120.0
 30
0.0
 40
3.5
  0
CIRCLE
  5
150
100
AcDbEntity
  8
0
100
AcDbCircle
 10
80.0
 20
120.0
 30
0.0
 40
2.0
  0
CIRCLE
  5
153
100
AcDbEntity
  8
0
100
AcDbCircle
 10
80.0
 20
120.0
 30
0.0
 40
1.5
  0
ENDSEC
  0
SECTION
  2
OBJECTS
  0
DICTIONARY
  5
124
100
AcDbDictionary
  3
ACAD_GROUP
350
125
  3
ACAD_MLINESTYLE
350
132
  3
ACDBVARIABLEDICTIONARY
350
149
  0
DICTIONARY
  5
125
102
{ACAD_REACTORS
330
124
102
}
100
AcDbDictionary
  0
DICTIONARY
  5
132
102
{ACAD_REACTORS
330
124
102
}
100
AcDbDictionary
  3
STANDARD
350
133
  0
DICTIONARY
  5
149
102
{ACAD_REACTORS
330
124
102
}
100
AcDbDictionary
  3
DIMADEC
350
14A
  0
MLINESTYLE
  5
133
102
{ACAD_REACTORS
330
132
102
}
100
AcDbMlineStyle
  2
STANDARD
 70
     0
  3

 62
   256
 51
90.0
 52
90.0
 71
     2
 49
0.5
 62
   256
  6
BYLAYER
 49
-0.5
 62
   256
  6
BYLAYER
  0
DICTIONARYVAR
  5
14A
102
{ACAD_REACTORS
330
149
102
}
100
DictionaryVariables
280
     0
  1
0
  0
ENDSEC
  0
EOF
