  0
SECTION
  2
HEADER
  9
$ACADVER
  1
AC1015
  9
$ACADMAINTVER
 70
    13
  9
$DWGCODEPAGE
  3
ANSI_932
  9
$INSBASE
 10
0.0
 20
0.0
 30
0.0
  9
$EXTMIN
 10
20.0
 20
30.0
 30
0.0
  9
$EXTMAX
 10
271.7318619705435
 20
169.2204238261985
 30
0.0
  9
$LIMMIN
 10
0.0
 20
0.0
  9
$LIMMAX
 10
250.0
 20
160.0
  9
$ORTHOMODE
 70
     1
  9
$REGENMODE
 70
     1
  9
$FILLMODE
 70
     1
  9
$QTEXTMODE
 70
     0
  9
$MIRRTEXT
 70
     1
  9
$LTSCALE
 40
20.0
  9
$ATTMODE
 70
     1
  9
$TEXTSIZE
 40
0.2
  9
$TRACEWID
 40
0.05
  9
$TEXTSTYLE
  7
STANDARD
  9
$CLAYER
  8
0
  9
$CELTYPE
  6
BYLAYER
  9
$CECOLOR
 62
   256
  9
$CELTSCALE
 40
1.0
  9
$DISPSILH
 70
     0
  9
$DIMSCALE
 40
2.0
  9
$DIMASZ
 40
3.0
  9
$DIMEXO
 40
2.0
  9
$DIMDLI
 40
0.38
  9
$DIMRND
 40
0.0
  9
$DIMDLE
 40
0.0
  9
$DIMEXE
 40
2.0
  9
$DIMTP
 40
0.0
  9
$DIMTM
 40
0.0
  9
$DIMTXT
 40
3.2
  9
$DIMCEN
 40
0.09
  9
$DIMTSZ
 40
0.0
  9
$DIMTOL
 70
     0
  9
$DIMLIM
 70
     0
  9
$DIMTIH
 70
     0
  9
$DIMTOH
 70
     0
  9
$DIMSE1
 70
     0
  9
$DIMSE2
 70
     0
  9
$DIMTAD
 70
     1
  9
$DIMZIN
 70
     0
  9
$DIMBLK
  1

  9
$DIMASO
 70
     0
  9
$DIMSHO
 70
     0
  9
$DIMPOST
  1

  9
$DIMAPOST
  1

  9
$DIMALT
 70
     0
  9
$DIMALTD
 70
     2
  9
$DIMALTF
 40
25.4
  9
$DIMLFAC
 40
1.0
  9
$DIMTOFL
 70
     0
  9
$DIMTVP
 40
1.6
  9
$DIMTIX
 70
     1
  9
$DIMSOXD
 70
     0
  9
$DIMSAH
 70
     0
  9
$DIMBLK1
  1

  9
$DIMBLK2
  1

  9
$DIMSTYLE
  2
STANDARD
  9
$DIMCLRD
 70
     0
  9
$DIMCLRE
 70
     0
  9
$DIMCLRT
 70
     0
  9
$DIMTFAC
 40
1.0
  9
$DIMGAP
 40
0.09
  9
$DIMJUST
 70
     0
  9
$DIMSD1
 70
     0
  9
$DIMSD2
 70
     0
  9
$DIMTOLJ
 70
     1
  9
$DIMTZIN
 70
     0
  9
$DIMALTZ
 70
     0
  9
$DIMALTTZ
 70
     0
  9
$DIMUPT
 70
     0
  9
$DIMDEC
 70
     4
  9
$DIMTDEC
 70
     4
  9
$DIMALTU
 70
     2
  9
$DIMALTTD
 70
     2
  9
$DIMTXSTY
  7
BIGFONT
  9
$DIMAUNIT
 70
     0
  9
$DIMADEC
 70
     0
  9
$DIMALTRND
 40
0.0
  9
$DIMAZIN
 70
     0
  9
$DIMDSEP
 70
    46
  9
$DIMATFIT
 70
     3
  9
$DIMFRAC
 70
     0
  9
$DIMLDRBLK
  1

  9
$DIMLUNIT
 70
     2
  9
$DIMLWD
 70
    -2
  9
$DIMLWE
 70
    -2
  9
$DIMTMOVE
 70
     0
  9
$LUNITS
 70
     2
  9
$LUPREC
 70
     4
  9
$SKETCHINC
 40
0.1
  9
$FILLETRAD
 40
0.0
  9
$AUNITS
 70
     0
  9
$AUPREC
 70
     0
  9
$MENU
  1
ACAD
  9
$ELEVATION
 40
0.0
  9
$PELEVATION
 40
0.0
  9
$THICKNESS
 40
0.0
  9
$LIMCHECK
 70
     0
  9
$CHAMFERA
 40
0.0
  9
$CHAMFERB
 40
0.0
  9
$CHAMFERC
 40
0.0
  9
$CHAMFERD
 40
0.0
  9
$SKPOLY
 70
     0
  9
$TDCREATE
 40
2450857.470087153
  9
$TDUCREATE
 40
2450857.095087152
  9
$TDUPDATE
 40
2456448.403394629
  9
$TDUUPDATE
 40
2456448.028394629
  9
$TDINDWG
 40
0.0102249653
  9
$TDUSRTIMER
 40
0.0102249653
  9
$USRTIMER
 70
     1
  9
$ANGBASE
 50
0.0
  9
$ANGDIR
 70
     0
  9
$PDMODE
 70
     0
  9
$PDSIZE
 40
0.0
  9
$PLINEWID
 40
0.0
  9
$SPLFRAME
 70
     0
  9
$SPLINETYPE
 70
     6
  9
$SPLINESEGS
 70
     8
  9
$HANDSEED
  5
29F
  9
$SURFTAB1
 70
     6
  9
$SURFTAB2
 70
     6
  9
$SURFTYPE
 70
     6
  9
$SURFU
 70
     6
  9
$SURFV
 70
     6
  9
$UCSBASE
  2

  9
$UCSNAME
  2

  9
$UCSORG
 10
0.0
 20
0.0
 30
0.0
  9
$UCSXDIR
 10
1.0
 20
0.0
 30
0.0
  9
$UCSYDIR
 10
0.0
 20
1.0
 30
0.0
  9
$UCSORTHOREF
  2

  9
$UCSORTHOVIEW
 70
     0
  9
$UCSORGTOP
 10
0.0
 20
0.0
 30
0.0
  9
$UCSORGBOTTOM
 10
0.0
 20
0.0
 30
0.0
  9
$UCSORGLEFT
 10
0.0
 20
0.0
 30
0.0
  9
$UCSORGRIGHT
 10
0.0
 20
0.0
 30
0.0
  9
$UCSORGFRONT
 10
0.0
 20
0.0
 30
0.0
  9
$UCSORGBACK
 10
0.0
 20
0.0
 30
0.0
  9
$PUCSBASE
  2

  9
$PUCSNAME
  2

  9
$PUCSORG
 10
0.0
 20
0.0
 30
0.0
  9
$PUCSXDIR
 10
1.0
 20
0.0
 30
0.0
  9
$PUCSYDIR
 10
0.0
 20
1.0
 30
0.0
  9
$PUCSORTHOREF
  2

  9
$PUCSORTHOVIEW
 70
     0
  9
$PUCSORGTOP
 10
0.0
 20
0.0
 30
0.0
  9
$PUCSORGBOTTOM
 10
0.0
 20
0.0
 30
0.0
  9
$PUCSORGLEFT
 10
0.0
 20
0.0
 30
0.0
  9
$PUCSORGRIGHT
 10
0.0
 20
0.0
 30
0.0
  9
$PUCSORGFRONT
 10
0.0
 20
0.0
 30
0.0
  9
$PUCSORGBACK
 10
0.0
 20
0.0
 30
0.0
  9
$USERI1
 70
     0
  9
$USERI2
 70
     0
  9
$USERI3
 70
     0
  9
$USERI4
 70
     0
  9
$USERI5
 70
     0
  9
$USERR1
 40
0.0
  9
$USERR2
 40
0.0
  9
$USERR3
 40
0.0
  9
$USERR4
 40
0.0
  9
$USERR5
 40
0.0
  9
$WORLDVIEW
 70
     1
  9
$SHADEDGE
 70
     3
  9
$SHADEDIF
 70
    70
  9
$TILEMODE
 70
     1
  9
$MAXACTVP
 70
    16
  9
$PINSBASE
 10
0.0
 20
0.0
 30
0.0
  9
$PLIMCHECK
 70
     0
  9
$PEXTMIN
 10
1.000000000000000E+20
 20
1.000000000000000E+20
 30
1.000000000000000E+20
  9
$PEXTMAX
 10
-1.000000000000000E+20
 20
-1.000000000000000E+20
 30
-1.000000000000000E+20
  9
$PLIMMIN
 10
0.0
 20
0.0
  9
$PLIMMAX
 10
12.0
 20
9.0
  9
$UNITMODE
 70
     0
  9
$VISRETAIN
 70
     0
  9
$PLINEGEN
 70
     1
  9
$PSLTSCALE
 70
     0
  9
$TREEDEPTH
 70
  3020
  9
$CMLSTYLE
  2
STANDARD
  9
$CMLJUST
 70
     0
  9
$CMLSCALE
 40
1.0
  9
$PROXYGRAPHICS
 70
     1
  9
$MEASUREMENT
 70
     0
  9
$CELWEIGHT
370
    -1
  9
$ENDCAPS
280
     0
  9
$JOINSTYLE
280
     0
  9
$LWDISPLAY
290
     0
  9
$INSUNITS
 70
     0
  9
$HYPERLINKBASE
  1

  9
$STYLESHEET
  1

  9
$XEDIT
290
     1
  9
$CEPSNTYPE
380
     0
  9
$PSTYLEMODE
290
     1
  9
$FINGERPRINTGUID
  2
{76252F70-08C1-4C91-AAEA-E4CC3A93F695}
  9
$VERSIONGUID
  2
{1C0EAF68-005E-4697-B907-1E2ACD5328EE}
  9
$EXTNAMES
290
     1
  9
$PSVPSCALE
 40
0.0
  9
$OLESTARTUP
290
     0
  0
ENDSEC
  0
SECTION
  2
CLASSES
  0
CLASS
  1
DICTIONARYVAR
  2
AcDbDictionaryVar
  3
AutoCAD 2000
 90
        0
280
     0
281
     0
  0
CLASS
  1
ACDBDICTIONARYWDFLT
  2
AcDbDictionaryWithDefault
  3
AutoCAD 2000
 90
        0
280
     0
281
     0
  0
CLASS
  1
ACDBPLACEHOLDER
  2
AcDbPlaceHolder
  3
AutoCAD 2000
 90
        0
280
     0
281
     0
  0
CLASS
  1
LAYOUT
  2
AcDbLayout
  3
AutoCAD 2000
 90
        0
280
     0
281
     0
  0
CLASS
  1
AMGSETTINGSOBJ
  2
AmgSettingsObj
  3
"AcadM|Product Description: AutoCAD Mechanical 2000|Company: Autodesk"
 90
        0
280
     0
281
     0
  0
CLASS
  1
ACME_DOCUMENT
  2
AcMeDbDoc
  3
AcMeServices
 90
        0
280
     0
281
     0
  0
CLASS
  1
ACMESCOPE
  2
AcMeScope
  3
AcMeServices
 90
        0
280
     0
281
     0
  0
CLASS
  1
ACMECOMMANDHISTORY
  2
AcMeCommandHistory
  3
AcMeServices
 90
        0
280
     0
281
     0
  0
CLASS
  1
ACIMSYSVARMAN
  2
AcImSysVarManager
  3
AcMeServices
 90
        0
280
     0
281
     0
  0
CLASS
  1
ACIMREALSYSVAR
  2
AcImRealSysVar
  3
AcMeServices
 90
        0
280
     0
281
     0
  0
CLASS
  1
ACIMINTSYSVAR
  2
AcImIntSysVar
  3
AcMeServices
 90
        0
280
     0
281
     0
  0
CLASS
  1
ACMEDRAWINGMAN
  2
AcMeDrawingMan
  3
AcMeServices
 90
        0
280
     0
281
     0
  0
CLASS
  1
ACMEVIEW
  2
AcMeView
  3
AcMeServices
 90
        0
280
     0
281
     0
  0
CLASS
  1
ACDBENTITYCACHE
  2
AcMeEntityCache
  3
AcMeServices
 90
        0
280
     0
281
     0
  0
CLASS
  1
GSMANAGER
  2
AcMeGSManager
  3
AcMeServices
 90
        0
280
     0
281
     0
  0
CLASS
  1
AMDTINTERNALREACTOR
  2
AmdtInternalReactor
  3
AcMeServices
 90
        0
280
     0
281
     0
  0
CLASS
  1
ACMESTATEMGR
  2
AcMeStateMgr
  3
AcMeServices
 90
        0
280
     0
281
     0
  0
CLASS
  1
ACGREFMASTER
  2
AcGrefMaster
  3
AcAttribServices
 90
        0
280
     0
281
     0
  0
CLASS
  1
AM_DRAWING_MGR
  2
AcDmDwgMgr
  3
AcMechDwgViewMgmt
 90
        0
280
     0
281
     0
  0
CLASS
  1
AM_DWG_DOCUMENT
  2
AcDmDwgDocument
  3
AcMechDwgViewMgmt
 90
        0
280
     0
281
     0
  0
CLASS
  1
AM_DWG_SHEET
  2
AcDmSheet
  3
AcMechDwgViewMgmt
 90
        0
280
     0
281
     0
  0
CLASS
  1
AM_VIEWDIMPARMAP
  2
AcDmViewDimParMap
  3
AcMechDwgViewMgmt
 90
        0
280
     0
281
     0
  0
CLASS
  1
AM_DWGMGR_NAME
  2
AcDmDwgMgrName
  3
AcMechDwgViewMgmt
 90
        0
280
     0
281
     0
  0
CLASS
  1
ACME_DATABASE
  2
AcMeDbDatabase
  3
AcMeServices
 90
        0
280
     0
281
     0
  0
CLASS
  1
ACRFINSADJUSTERMGR
  2
AcRfInsAdjusterMgr
  3
AcMeServices
 90
        0
280
     0
281
     0
  0
CLASS
  1
ACGREFACADMASTER
  2
AcGrefacadMaster
  3
AcGrefServices
 90
        0
280
     0
281
     0
  0
CLASS
  1
AMDTMENUSTATEMGR
  2
AmdtMenuStateMgr
  3
McadcomServices
 90
        0
280
     0
281
     0
  0
CLASS
  1
AMDTMCOMMENUSTATE
  2
AmdtMcomMenuState
  3
McadcomServices
 90
        0
280
     0
281
     0
  0
CLASS
  1
AMIMASTER
  2
AmiMaster
  3
AmiServices
 90
        0
280
     0
281
     0
  0
CLASS
  1
ASAPP
  2
AcAsAppObject
  3
AutoSurfServices
 90
        0
280
     0
281
     0
  0
CLASS
  1
IM_STATIC_MAN
  2
AcImStaticVarManager
  3
AcMeServices
 90
        0
280
     0
281
     0
  0
CLASS
  1
ACIMSTRSYSVAR
  2
AcImStrSysVar
  3
AcMeServices
 90
        0
280
     0
281
     0
  0
CLASS
  1
ACIMDBLSTATICVAR
  2
AcImDblStaticVar
  3
AcMeServices
 90
        0
280
     0
281
     0
  0
CLASS
  1
ACIMSTRSTATICVAR
  2
AcImStrStaticVar
  3
AcMeServices
 90
        0
280
     0
281
     0
  0
CLASS
  1
ACIMINTSTATICVAR
  2
AcImIntStaticVar
  3
AcMeServices
 90
        0
280
     0
281
     0
  0
CLASS
  1
ACASGREFMASTER
  2
AcAsGrefMaster
  3
AutoSurfResolverServices
 90
        0
280
     0
281
     0
  0
CLASS
  1
ACADGREFMODULE
  2
AcAdGrefModule
  3
AdGrefServices
 90
        0
280
     0
281
     0
  0
CLASS
  1
AMDTMAPISURFMOUDULE
  2
AmdtMApiSurfModule
  3
MApiSurfServices
 90
        0
280
     0
281
     0
  0
CLASS
  1
MAPIAMMOUDLE
  2
MApiAmModule
  3
MApiAmServices
 90
        0
280
     0
281
     0
  0
CLASS
  1
AMDTADMENUSTATE
  2
AmdtAdMenuState
  3
DesignerServices
 90
        0
280
     0
281
     0
  0
CLASS
  1
ADAPPL
  2
AcAdAppl
  3
DesignerServices
 90
        0
280
     0
281
     0
  0
CLASS
  1
DEPMGR
  2
AcAdDepMgr
  3
DesignerServices
 90
        0
280
     0
281
     0
  0
CLASS
  1
PARAMMGR
  2
AcAdParamMgr
  3
DesignerServices
 90
        0
280
     0
281
     0
  0
CLASS
  1
PARAMSCOPE
  2
AcAdParamScope
  3
DesignerServices
 90
        0
280
     0
281
     0
  0
CLASS
  1
NAMEDAPPL
  2
AcAdNamedAppl
  3
DesignerServices
 90
        0
280
     0
281
     0
  0
CLASS
  1
AMDTDMMENUSTATE
  2
AmdtDmMenuState
  3
AcMechDwgViewMgmt
 90
        0
280
     0
281
     0
  0
CLASS
  1
MAPIADMODULE
  2
MApiAdModule
  3
MApiAdServices
 90
        0
280
     0
281
     0
  0
CLASS
  1
AMDTAMMENUSTATE
  2
AmdtAmMenuState
  3
DesignerAssemblies
 90
        0
280
     0
281
     0
  0
CLASS
  1
ACAMPROJECT
  2
AcAmProject
  3
DesignerAssemblies
 90
        0
280
     0
281
     0
  0
CLASS
  1
ACAMGRCOMPDEF
  2
AcAmGrCompDef
  3
DesignerAssemblies
 90
        0
280
     0
281
     0
  0
CLASS
  1
ACCMCONTEXT
  2
AcCmContext
  3
DesignerAssemblies
 90
        0
280
     0
281
     0
  0
CLASS
  1
ACAMCOMPDEF
  2
AcAmCompDef
  3
DesignerAssemblies
 90
        0
280
     0
281
     0
  0
CLASS
  1
ACAMCOMPDEFMGR
  2
AcAmCompDefMgr
  3
DesignerAssemblies
 90
        0
280
     0
281
     0
  0
CLASS
  1
AMCONTEXTMGR
  2
AcAmContextMgr
  3
DesignerAssemblies
 90
        0
280
     0
281
     0
  0
CLASS
  1
ACAMCONTEXTMODELER
  2
AcAmContextModeler
  3
DesignerAssemblies
 90
        0
280
     0
281
     0
  0
CLASS
  1
ACMDATADICTIONARY
  2
AcmDataDictionary
  3
"AcmSymBB|Product Description: AutoCAD Mechanical 2000|Company: Autodesk"
 90
        0
280
     0
281
     0
  0
CLASS
  1
ACMDATAENTRYBLOCK
  2
AcmDataEntryBlock
  3
"AcmSymBB|Product Description: AutoCAD Mechanical 2000|Company: Autodesk"
 90
        0
280
     0
281
     0
  0
CLASS
  1
CATALOGSTATE
  2
AcAmCatalogState
  3
DesignerAssemblies
 90
        0
280
     0
281
     0
  0
CLASS
  1
ACAMGRCOMPDEFSET
  2
AcAmGrCompDefSet
  3
DesignerAssemblies
 90
        0
280
     0
281
     0
  0
CLASS
  1
AMDTBROWSERDBTAB
  2
AmdtBrowserDbTab
  3
McadcomServices
 90
        0
280
     0
281
     0
  0
CLASS
  1
CBROWSERAPPOBJECT
  2
CBrowserAppObject
  3
McadcomServices
 90
        0
280
     0
281
     0
  0
CLASS
  1
DM_PLACEHOLDER
  2
AcDmSelsetPlaceholder
  3
AcMechDwgViewMgmt
 90
        0
280
     0
281
     0
  0
CLASS
  1
AMGOBJPROPCFG
  2
AmgObjPropCfg
  3
"AmgLay|Product Description: AutoCAD Mechanical 2000|Company: Autodesk"
 90
        1
280
     0
281
     0
  0
CLASS
  1
ACAMGFILTERDAT
  2
AcAmgFilterDat
  3
"AcadM|Product Description: AutoCAD Mechanical 2000|Company: Autodesk"
 90
        0
280
     0
281
     0
  0
CLASS
  1
LAYER_INDEX
  2
AcDbLayerIndex
  3
AutoCAD 2000
 90
        0
280
     0
281
     0
  0
CLASS
  1
IDBUFFER
  2
AcDbIdBuffer
  3
AutoCAD 2000
 90
        0
280
     0
281
     0
  0
ENDSEC
  0
SECTION
  2
TABLES
  0
TABLE
  2
VPORT
  5
166
330
0
100
AcDbSymbolTable
 70
     3
  0
VPORT
  5
29E
330
166
100
AcDbSymbolTableRecord
100
AcDbViewportTableRecord
  2
*Active
 70
     0
 10
0.0
 20
0.0
 11
1.0
 21
1.0
 12
0.0
 22
0.0
 13
0.0
 23
0.0
 14
10.0
 24
10.0
 15
10.0
 25
10.0
 16
0.0
 26
0.0
 36
1.0
 17
147.3062959749397
 27
98.881727
 37
0.0
 40
197.7634529999999
 41
1.489721886336154
 42
50.0
 43
0.0
 44
0.0
 50
0.0
 51
0.0
 71
     0
 72
 20000
 73
     1
 74
     1
 75
     0
 76
     0
 77
     0
 78
     1
281
     0
 65
     0
110
0.0
120
0.0
130
0.0
111
1.0
121
0.0
131
0.0
112
0.0
122
1.0
132
0.0
 79
     0
146
0.0
  0
ENDTAB
  0
TABLE
  2
LTYPE
  5
163
330
0
100
AcDbSymbolTable
 70
    17
  0
LTYPE
  5
16F
330
163
100
AcDbSymbolTableRecord
100
AcDbLinetypeTableRecord
  2
BYBLOCK
 70
     0
  3

 72
    65
 73
     0
 40
0.0
  0
LTYPE
  5
170
330
163
100
AcDbSymbolTableRecord
100
AcDbLinetypeTableRecord
  2
BYLAYER
 70
     0
  3

 72
    65
 73
     0
 40
0.0
  0
LTYPE
  5
171
330
163
100
AcDbSymbolTableRecord
100
AcDbLinetypeTableRecord
  2
CONTINUOUS
 70
     0
  3
実線
 72
    65
 73
     0
 40
0.0
  0
LTYPE
  5
17E
330
163
100
AcDbSymbolTableRecord
100
AcDbLinetypeTableRecord
  2
CENTER
 70
     0
  3
____ _ ____ _ ____ _ ____ _ ____ _ ____ _ ____
 72
    65
 73
     4
 40
2.0
 49
1.25
 74
     0
 49
-0.25
 74
     0
 49
0.25
 74
     0
 49
-0.25
 74
     0
  0
LTYPE
  5
17F
330
163
100
AcDbSymbolTableRecord
100
AcDbLinetypeTableRecord
  2
HIDDEN
 70
     0
  3
_ _ _ _ _ _ _ _ _ _ _ _ _ _ _ _ _ _ _ _ _ _ _
 72
    65
 73
     2
 40
0.375
 49
0.25
 74
     0
 49
-0.125
 74
     0
  0
LTYPE
  5
180
330
163
100
AcDbSymbolTableRecord
100
AcDbLinetypeTableRecord
  2
TENSEN1
 70
     0
  3

 72
    65
 73
     2
 40
0.4
 49
0.3
 74
     0
 49
-0.1
 74
     0
  0
LTYPE
  5
1C5
330
163
100
AcDbSymbolTableRecord
100
AcDbLinetypeTableRecord
  2
PHANTOM2
 70
     0
  3
Phantom (.5x) ___ _ _ ___ _ _ ___ _ _ ___ _ _
 72
    65
 73
     6
 40
1.25
 49
0.625
 74
     0
 49
-0.125
 74
     0
 49
0.125
 74
     0
 49
-0.125
 74
     0
 49
0.125
 74
     0
 49
-0.125
 74
     0
  0
LTYPE
  5
227
330
163
100
AcDbSymbolTableRecord
100
AcDbLinetypeTableRecord
  2
ASULTYPE
 70
     0
  3
実線
 72
    65
 73
     2
 40
3.0
 49
2.5
 74
     0
 49
0.5
 74
     0
  0
LTYPE
  5
228
330
163
100
AcDbSymbolTableRecord
100
AcDbLinetypeTableRecord
  2
ASVLTYPE
 70
     0
  3
__ __ __ __ __ __ __ __ __ __ __ __ __ __ __ __ __ __ __ __ __
 72
    65
 73
     2
 40
0.75
 49
0.5
 74
     0
 49
-0.25
 74
     0
  0
LTYPE
  5
269
330
163
100
AcDbSymbolTableRecord
100
AcDbLinetypeTableRecord
  2
AM_ISO02W050
 70
     0
  3
__ __ __ __ __ __ __ __ __ __ __ __ __ __ __
 72
    65
 73
     2
 40
7.5
 49
6.0
 74
     0
 49
-1.5
 74
     0
  0
LTYPE
  5
26A
330
163
100
AcDbSymbolTableRecord
100
AcDbLinetypeTableRecord
  2
AM_ISO08W050
 70
     0
  3
____ . ____ . ____ . ____ . ____ . ____ . ____
 72
    65
 73
     4
 40
18.0
 49
12.0
 74
     0
 49
-1.5
 74
     0
 49
3.0
 74
     0
 49
-1.5
 74
     0
  0
LTYPE
  5
26B
330
163
100
AcDbSymbolTableRecord
100
AcDbLinetypeTableRecord
  2
AM_ISO09W050
 70
     0
  3
_____ . . _____ . . _____ . . ____ .. ____
 72
    65
 73
     6
 40
22.5
 49
12.0
 74
     0
 49
-1.5
 74
     0
 49
3.0
 74
     0
 49
-1.5
 74
     0
 49
3.0
 74
     0
 49
-1.5
 74
     0
  0
LTYPE
  5
26C
330
163
100
AcDbSymbolTableRecord
100
AcDbLinetypeTableRecord
  2
Amconstr
 70
     0
  3
_______________________
 72
    65
 73
     2
 40
9999.0
 49
9999.0
 74
     0
 49
0.0
 74
     0
  0
LTYPE
  5
26D
330
163
100
AcDbSymbolTableRecord
100
AcDbLinetypeTableRecord
  2
AM_ISO08W050x2
 70
     0
  3
__ . __ . __ . __ . __ . __
 72
    65
 73
     4
 40
9.0
 49
6.0
 74
     0
 49
-0.75
 74
     0
 49
1.5
 74
     0
 49
-0.75
 74
     0
  0
LTYPE
  5
26E
330
163
100
AcDbSymbolTableRecord
100
AcDbLinetypeTableRecord
  2
AM_ISO02W050x2
 70
     0
  3
 _ _ _ _ _ _ _ _ _ _ _ _
 72
    65
 73
     2
 40
3.75
 49
3.0
 74
     0
 49
-0.75
 74
     0
  0
LTYPE
  5
271
330
163
100
AcDbSymbolTableRecord
100
AcDbLinetypeTableRecord
  2
Amzigzag
 70
     0
  3
/\/-/\/-/\/-/\/-/\/-/\/
 72
    65
 73
     2
 40
11.00009999999999
 49
0.0001
 74
     4
 75
   135
340
270
 46
0.04
 50
0.0
 44
0.0
 45
0.0
 49
-11.0
 74
     0
  0
LTYPE
  5
272
330
163
100
AcDbSymbolTableRecord
100
AcDbLinetypeTableRecord
  2
CENTER2
 70
     0
  3
Center (.5x) ___ _ ___ _ ___ _ ___ _ ___ _ ___
 72
    65
 73
     4
 40
1.125
 49
0.75
 74
     0
 49
-0.125
 74
     0
 49
0.125
 74
     0
 49
-0.125
 74
     0
  0
LTYPE
  5
273
330
163
100
AcDbSymbolTableRecord
100
AcDbLinetypeTableRecord
  2
HIDDEN2
 70
     0
  3
Hidden (.5x) _ _ _ _ _ _ _ _ _ _ _ _ _ _ _ _ _
 72
    65
 73
     2
 40
0.1875
 49
0.125
 74
     0
 49
-0.0625
 74
     0
  0
LTYPE
  5
274
330
163
100
AcDbSymbolTableRecord
100
AcDbLinetypeTableRecord
  2
Amzigzag2
 70
     0
  3
/\/-/\/-/\/-/\/-/\/-/\/
 72
    65
 73
     2
 40
0.4401
 49
0.0001
 74
     4
 75
   135
340
270
 46
0.0016
 50
0.0
 44
0.0
 45
0.0
 49
-0.4400000000000001
 74
     0
  0
ENDTAB
  0
TABLE
  2
LAYER
  5
160
330
0
100
AcDbSymbolTable
 70
     6
  0
LAYER
  5
16C
330
160
100
AcDbSymbolTableRecord
100
AcDbLayerTableRecord
  2
0
 70
     0
 62
     7
  6
CONTINUOUS
370
    -3
390
19B
  0
LAYER
  5
184
330
160
100
AcDbSymbolTableRecord
100
AcDbLayerTableRecord
  2
1
 70
     0
 62
     1
  6
CENTER
370
    -3
390
19B
  0
LAYER
  5
185
330
160
100
AcDbSymbolTableRecord
100
AcDbLayerTableRecord
  2
4
 70
     0
 62
     2
  6
TENSEN1
370
    -3
390
19B
  0
LAYER
  5
186
330
160
100
AcDbSymbolTableRecord
100
AcDbLayerTableRecord
  2
10
 70
     0
 62
     7
  6
CONTINUOUS
370
    -3
390
19B
  0
LAYER
  5
187
330
160
100
AcDbSymbolTableRecord
100
AcDbLayerTableRecord
  2
11
 70
     0
 62
     3
  6
CONTINUOUS
370
    -3
390
19B
  0
LAYER
  5
188
330
160
100
AcDbSymbolTableRecord
100
AcDbLayerTableRecord
  2
2
 70
     0
 62
     2
  6
HIDDEN
370
    -3
390
19B
  0
ENDTAB
  0
TABLE
  2
STYLE
  5
161
330
0
100
AcDbSymbolTable
 70
     5
  0
STYLE
  5
16D
330
161
100
AcDbSymbolTableRecord
100
AcDbTextStyleTableRecord
  2
STANDARD
 70
     0
 40
10.0
 41
1.0
 50
0.0
 71
     0
 42
0.2
  3
TXT.shx
  4
extfont.shx
  0
STYLE
  5
17B
330
161
100
AcDbSymbolTableRecord
100
AcDbTextStyleTableRecord
  2
K80
 70
     0
 40
0.0
 41
0.8
 50
0.0
 71
     0
 42
0.2
  3
TXT
  4
bigfont.shx
  0
STYLE
  5
17C
330
161
100
AcDbSymbolTableRecord
100
AcDbTextStyleTableRecord
  2
07500
 70
     0
 40
0.0
 41
0.75
 50
0.0
 71
     0
 42
0.2
  3
TXT
  4
bigfont.shx
  0
STYLE
  5
17D
330
161
100
AcDbSymbolTableRecord
100
AcDbTextStyleTableRecord
  2
BIGFONT
 70
     0
 40
12.0
 41
0.8
 50
0.0
 71
     0
 42
12.0
  3

  4
bigfont.shx
  0
STYLE
  5
270
330
161
100
AcDbSymbolTableRecord
100
AcDbTextStyleTableRecord
  2

 70
     1
 40
0.0
 41
1.0
 50
0.0
 71
     0
 42
12.0
  3
ltypeshp.shx
  4

  0
ENDTAB
  0
TABLE
  2
VIEW
  5
164
330
0
100
AcDbSymbolTable
 70
     1
  0
VIEW
  5
181
330
164
100
AcDbSymbolTableRecord
100
AcDbViewTableRecord
  2
ALL
 70
     0
 40
540.0
 10
441.9831929999999
 20
270.0
 41
0.0
 11
0.0
 21
0.0
 31
1.0
 12
0.0
 22
0.0
 32
0.0
 42
50.0
 43
0.0
 44
0.0
 50
0.0
 71
     0
281
     0
 72
     0
  0
ENDTAB
  0
TABLE
  2
UCS
  5
165
330
0
100
AcDbSymbolTable
 70
     0
  0
ENDTAB
  0
TABLE
  2
APPID
  5
167
330
0
100
AcDbSymbolTable
 70
    12
  0
APPID
  5
16E
330
167
100
AcDbSymbolTableRecord
100
AcDbRegAppTableRecord
  2
ACAD
 70
     0
  0
APPID
  5
1A4
330
167
100
AcDbSymbolTableRecord
100
AcDbRegAppTableRecord
  2
GENIUS_GENDIM_13
 70
     0
  0
APPID
  5
1A5
330
167
100
AcDbSymbolTableRecord
100
AcDbRegAppTableRecord
  2
GENIUS_GENDTOL_13
 70
     0
  0
APPID
  5
1A6
330
167
100
AcDbSymbolTableRecord
100
AcDbRegAppTableRecord
  2
GENIUS_GE3DTOL_13
 70
     0
  0
APPID
  5
1A8
330
167
100
AcDbSymbolTableRecord
100
AcDbRegAppTableRecord
  2
MCAD_NO_VIS
 70
     0
  0
APPID
  5
1A9
330
167
100
AcDbSymbolTableRecord
100
AcDbRegAppTableRecord
  2
ACAD_TEMP_GRAPHIC
 70
     0
  0
APPID
  5
1DA
330
167
100
AcDbSymbolTableRecord
100
AcDbRegAppTableRecord
  2
AD_DRAW
 70
     0
  0
APPID
  5
1DD
330
167
100
AcDbSymbolTableRecord
100
AcDbRegAppTableRecord
  2
ACATTRIBSERVICES
 70
     0
  0
APPID
  5
229
330
167
100
AcDbSymbolTableRecord
100
AcDbRegAppTableRecord
  2
ASURF_PCURVE_APPNAME
 70
     0
  0
APPID
  5
258
330
167
100
AcDbSymbolTableRecord
100
AcDbRegAppTableRecord
  2
DESIGNERASSEMBLIES
 70
     0
  0
APPID
  5
260
330
167
100
AcDbSymbolTableRecord
100
AcDbRegAppTableRecord
  2
ACADM_DIM_EDIT
 70
     0
  0
APPID
  5
261
330
167
100
AcDbSymbolTableRecord
100
AcDbRegAppTableRecord
  2
AMDT_DM_ADJ
 70
     0
  0
ENDTAB
  0
TABLE
  2
DIMSTYLE
  5
168
330
0
100
AcDbSymbolTable
 70
     1
100
AcDbDimStyleTable
 71
     1
340
183
  0
DIMSTYLE
105
183
330
168
100
AcDbSymbolTableRecord
100
AcDbDimStyleTableRecord
  2
STANDARD
 70
     0
340
17D
  0
ENDTAB
  0
TABLE
  2
BLOCK_RECORD
  5
15F
330
0
100
AcDbSymbolTable
 70
     2
  0
BLOCK_RECORD
  5
175
102
{ACAD_XDICTIONARY
360
293
102
}
330
15F
100
AcDbSymbolTableRecord
100
AcDbBlockTableRecord
  2
*MODEL_SPACE
340
19E
  0
BLOCK_RECORD
  5
172
330
15F
100
AcDbSymbolTableRecord
100
AcDbBlockTableRecord
  2
*PAPER_SPACE
340
19F
  0
BLOCK_RECORD
  5
17A
330
15F
100
AcDbSymbolTableRecord
100
AcDbBlockTableRecord
  2
QQ
340
0
  0
BLOCK_RECORD
  5
24F
330
15F
100
AcDbSymbolTableRecord
100
AcDbBlockTableRecord
  2
*U1
340
0
  0
ENDTAB
  0
ENDSEC
  0
SECTION
  2
BLOCKS
  0
BLOCK
  5
18B
330
175
100
AcDbEntity
  8
0
100
AcDbBlockBegin
  2
*MODEL_SPACE
 70
     0
 10
0.0
 20
0.0
 30
0.0
  3
*MODEL_SPACE
  1

  0
ENDBLK
  5
18C
330
175
100
AcDbEntity
  8
0
100
AcDbBlockEnd
  0
BLOCK
  5
189
330
172
100
AcDbEntity
 67
     1
  8
0
100
AcDbBlockBegin
  2
*PAPER_SPACE
 70
     0
 10
0.0
 20
0.0
 30
0.0
  3
*PAPER_SPACE
  1

  0
ENDBLK
  5
18A
330
172
100
AcDbEntity
 67
     1
  8
0
100
AcDbBlockEnd
  0
BLOCK
  5
2F
330
17A
100
AcDbEntity
  8
0
100
AcDbBlockBegin
  2
QQ
 70
     0
 10
270.0
 20
0.0
 30
0.0
  3
QQ
  1

  0
LINE
  5
30
330
17A
100
AcDbEntity
  8
11
100
AcDbLine
 10
173.0
 20
36.0
 30
0.0
 11
270.0
 21
36.0
 31
0.0
  0
TEXT
  5
31
330
17A
100
AcDbEntity
  8
11
100
AcDbText
 10
175.0
 20
32.5
 30
0.0
 40
2.5
  1
部品名称
100
AcDbText
  0
LINE
  5
32
330
17A
100
AcDbEntity
  8
11
100
AcDbLine
 10
173.0
 20
36.0
 30
0.0
 11
173.0
 21
0.0
 31
0.0
  0
LINE
  5
33
330
17A
100
AcDbEntity
  8
11
100
AcDbLine
 10
173.0
 20
24.0
 30
0.0
 11
270.0
 21
24.0
 31
0.0
  0
TEXT
  5
34
330
17A
100
AcDbEntity
  8
11
100
AcDbText
 10
175.0
 20
20.5
 30
0.0
 40
2.5
  1
品番
100
AcDbText
  0
LINE
  5
35
330
17A
100
AcDbEntity
  8
11
100
AcDbLine
 10
173.0
 20
12.0
 30
0.0
 11
270.0
 21
12.0
 31
0.0
  0
TEXT
  5
36
330
17A
100
AcDbEntity
  8
11
100
AcDbText
 10
175.0
 20
8.5
 30
0.0
 40
2.5
  1
尺度
100
AcDbText
  0
TEXT
  5
37
330
17A
100
AcDbEntity
  8
11
100
AcDbText
 10
200.0
 20
8.5
 30
0.0
 40
2.5
  1
図番
100
AcDbText
  0
LINE
  5
38
330
17A
100
AcDbEntity
  8
11
100
AcDbLine
 10
198.0
 20
0.0
 30
0.0
 11
198.0
 21
12.0
 31
0.0
  0
ENDBLK
  5
39
330
17A
100
AcDbEntity
  8
0
100
AcDbBlockEnd
  0
BLOCK
  5
250
330
24F
100
AcDbEntity
  8
0
100
AcDbBlockBegin
  2
*U1
 70
     1
 10
0.0
 20
0.0
 30
0.0
  3
*U1
  1

  0
ENDBLK
  5
251
330
24F
100
AcDbEntity
  8
0
100
AcDbBlockEnd
  0
ENDSEC
  0
SECTION
  2
ENTITIES
  0
LINE
  5
3A
330
175
100
AcDbEntity
  8
1
100
AcDbLine
 10
120.0
 20
80.0
 30
0.0
 11
20.0
 21
80.0
 31
0.0
  0
LINE
  5
3B
330
175
100
AcDbEntity
  8
1
100
AcDbLine
 10
70.0
 20
30.0
 30
0.0
 11
70.0
 21
130.0
 31
0.0
  0
CIRCLE
  5
3C
330
175
100
AcDbEntity
  8
0
100
AcDbCircle
 10
70.0
 20
80.0
 30
0.0
 40
40.0
  0
LINE
  5
3D
330
175
100
AcDbEntity
  8
1
100
AcDbLine
 10
87.0
 20
110.0
 30
0.0
 11
53.0
 21
110.0
 31
0.0
  0
ARC
  5
3E
330
175
100
AcDbEntity
  8
0
100
AcDbCircle
 10
70.0
 20
110.0
 30
0.0
 40
7.0
100
AcDbArc
 50
189.594068
 51
350.405932
  0
CIRCLE
  5
55
330
175
100
AcDbEntity
  8
0
100
AcDbCircle
 10
70.070161
 20
80.06155600000001
 30
0.0
 40
12.0
  0
ARC
  5
56
330
175
100
AcDbEntity
  8
0
100
AcDbCircle
 10
79.94645600000001
 20
107.601992
 30
0.0
 40
3.25924
100
AcDbArc
 50
70.751616
 51
158.71393
  0
ARC
  5
57
330
175
100
AcDbEntity
  8
0
100
AcDbCircle
 10
60.169451
 20
107.785288
 30
0.0
 40
3.094538
100
AcDbArc
 50
18.851372
 51
104.931708
  0
ARC
  5
58
330
175
100
AcDbEntity
  8
0
100
AcDbCircle
 10
70.070161
 20
80.06155600000001
 30
0.0
 40
32.5
100
AcDbArc
 50
109.4362599999999
 51
70.28156599999999
  0
LINE
  5
59
330
175
100
AcDbEntity
  8
0
100
AcDbLine
 10
59.25477199999999
 20
110.7102009999999
 30
0.0
 11
59.374452
 21
110.775607
 31
0.0
  0
LINE
  5
5A
330
175
100
AcDbEntity
  8
0
100
AcDbLine
 10
81.03757599999999
 20
110.653257
 30
0.0
 11
81.01733600000001
 21
110.6785399999999
 31
0.0
  0
LINE
  5
5B
330
175
100
AcDbEntity
  8
0
100
AcDbLine
 10
79.25060400000001
 20
90.63231
 30
0.0
 11
76.99315
 21
101.402904
 31
0.0
  0
LINE
  5
5C
330
175
100
AcDbEntity
  8
0
100
AcDbLine
 10
56.168166
 20
82.517616
 30
0.0
 11
47.691853
 21
74.96252
 31
0.0
  0
ARC
  5
5D
330
175
100
AcDbEntity
  8
0
100
AcDbCircle
 10
78.998266
 20
101.198534
 30
0.0
 40
2.005025999999999
100
AcDbArc
 50
70.006394
 51
174.81536
  0
ARC
  5
5E
330
175
100
AcDbEntity
  8
0
100
AcDbCircle
 10
61.018673
 20
101.108734
 30
0.0
 40
2.088036999999999
100
AcDbArc
 50
8.330525999999998
 51
102.6867599999999
  0
ARC
  5
5F
330
175
100
AcDbEntity
  8
0
100
AcDbCircle
 10
47.171789
 20
77.006069
 30
0.0
 40
2.071286999999999
100
AcDbArc
 50
208.902197
 51
286.511266
  0
ARC
  5
60
330
175
100
AcDbEntity
  8
0
100
AcDbCircle
 10
56.503395
 20
61.694755
 30
0.0
 40
2.382830999999999
100
AcDbArc
 50
140.7397559999999
 51
219.2602439999999
  0
ARC
  5
61
330
175
100
AcDbEntity
  8
0
100
AcDbCircle
 10
84.03511299999999
 20
61.80878199999999
 30
0.0
 40
2.107235999999999
100
AcDbArc
 50
316.992355
 51
35.02075
  0
ARC
  5
62
330
175
100
AcDbEntity
  8
0
100
AcDbCircle
 10
93.18502499999999
 20
76.526758
 30
0.0
 40
1.693118
100
AcDbArc
 50
242.8502369999999
 51
325.867902
  0
ARC
  5
63
330
175
100
AcDbEntity
  8
0
100
AcDbCircle
 10
70.052205
 20
79.92496800000001
 30
0.0
 40
25.0
100
AcDbArc
 50
232.8664729999999
 51
307.938508
  0
ARC
  5
64
330
175
100
AcDbEntity
  8
0
100
AcDbCircle
 10
70.052205
 20
79.92496800000001
 30
0.0
 40
25.0
100
AcDbArc
 50
351.0044229999999
 51
65.643986
  0
ARC
  5
65
330
175
100
AcDbEntity
  8
0
100
AcDbCircle
 10
70.052205
 20
79.92496800000001
 30
0.0
 40
25.0
100
AcDbArc
 50
113.205879
 51
188.719884
  0
LINE
  5
66
330
175
100
AcDbEntity
  8
0
100
AcDbLine
 10
60.196428
 20
102.9003989999999
 30
0.0
 11
60.563845
 21
103.145185
 31
0.0
  0
LINE
  5
67
330
175
100
AcDbEntity
  8
0
100
AcDbLine
 10
80.360788
 20
102.7019319999999
 30
0.0
 11
79.683481
 21
103.085181
 31
0.0
  0
LINE
  5
68
330
175
100
AcDbEntity
  8
0
100
AcDbLine
 10
94.58054699999999
 20
75.57723399999999
 30
0.0
 11
94.74549300000001
 21
76.014055
 31
0.0
  0
LINE
  5
69
330
175
100
AcDbEntity
  8
0
100
AcDbLine
 10
85.40937599999999
 20
60.19959799999999
 30
0.0
 11
85.578959
 21
60.376285
 31
0.0
  0
LINE
  5
6A
330
175
100
AcDbEntity
  8
0
100
AcDbLine
 10
54.96493100000001
 20
59.991004
 30
0.0
 11
54.65697900000001
 21
60.190538
 31
0.0
  0
LINE
  5
6B
330
175
100
AcDbEntity
  8
0
100
AcDbLine
 10
45.360976
 20
75.997699
 30
0.0
 11
45.33391599999999
 21
76.14373499999999
 31
0.0
  0
LINE
  5
6C
330
175
100
AcDbEntity
  8
0
100
AcDbLine
 10
85.220082
 20
81.28508700000001
 30
0.0
 11
92.507178
 21
74.904918
 31
0.0
  0
LINE
  5
6D
330
175
100
AcDbEntity
  8
0
100
AcDbLine
 10
79.258362
 20
90.630728
 30
0.0
 11
79.402173
 21
90.223525
 31
0.0
  0
ARC
  5
6E
330
175
100
AcDbEntity
  8
0
100
AcDbCircle
 10
69.99675299999999
 20
80.02788499999999
 30
0.0
 40
14.0
100
AcDbArc
 50
15.48007099999999
 51
42.917968
  0
ARC
  5
6F
330
175
100
AcDbEntity
  8
0
100
AcDbCircle
 10
69.99675299999999
 20
80.02788499999999
 30
0.0
 40
14.0
100
AcDbArc
 50
253.5467419999999
 51
286.578244
  0
ARC
  5
70
330
175
100
AcDbEntity
  8
0
100
AcDbCircle
 10
69.99675299999999
 20
80.02788499999999
 30
0.0
 40
14.0
100
AcDbArc
 50
132.632023
 51
166.908959
  0
LINE
  5
71
330
175
100
AcDbEntity
  8
0
100
AcDbLine
 10
80.24790199999999
 20
89.56069300000001
 30
0.0
 11
79.40049999999999
 21
90.23447199999999
 31
0.0
  0
ARC
  5
72
330
175
100
AcDbEntity
  8
0
100
AcDbCircle
 10
88.06708
 20
85.10398
 30
0.0
 40
4.769962999999999
100
AcDbArc
 50
196.1985959999999
 51
233.329542
  0
LINE
  5
73
330
175
100
AcDbEntity
  8
0
100
AcDbLine
 10
74.77029399999999
 20
66.77656899999999
 30
0.0
 11
85.830242
 21
63.015533
 31
0.0
  0
LINE
  5
74
330
175
100
AcDbEntity
  8
0
100
AcDbLine
 10
74.783109
 20
66.77877099999999
 30
0.0
 11
73.988974
 21
66.60870799999999
 31
0.0
  0
LINE
  5
75
330
175
100
AcDbEntity
  8
0
100
AcDbLine
 10
65.225866
 20
66.78224300000001
 30
0.0
 11
54.601733
 21
63.193293
 31
0.0
  0
LINE
  5
76
330
175
100
AcDbEntity
  8
0
100
AcDbLine
 10
66.03754499999999
 20
66.601129
 30
0.0
 11
65.225708
 21
66.78270999999999
 31
0.0
  0
LINE
  5
77
330
175
100
AcDbEntity
  8
0
100
AcDbLine
 10
56.16040400000001
 20
82.51648399999998
 30
0.0
 11
56.36345099999999
 21
83.21702700000001
 31
0.0
  0
LINE
  5
78
330
175
100
AcDbEntity
  8
0
100
AcDbLine
 10
60.937561
 20
90.75644
 30
0.0
 11
63.098154
 21
101.408523
 31
0.0
  0
LINE
  5
79
330
175
100
AcDbEntity
  8
0
100
AcDbLine
 10
60.516541
 20
90.32577600000001
 30
0.0
 11
60.937667
 21
90.76131099999999
 31
0.0
  0
ARC
  5
B1
330
175
100
AcDbEntity
  8
0
100
AcDbCircle
 10
189.9668979999999
 20
112.54296
 30
0.0
 40
7.5
100
AcDbArc
 50
0.0
 51
180.0
  0
ARC
  5
B2
330
175
100
AcDbEntity
  8
0
100
AcDbCircle
 10
189.9668979999999
 20
47.54296
 30
0.0
 40
7.5
100
AcDbArc
 50
180.0
 51
0.0
  0
LINE
  5
B3
330
175
100
AcDbEntity
  8
1
100
AcDbLine
 10
173.0
 20
80.0
 30
0.0
 11
230.0
 21
80.0
 31
0.0
  0
LINE
  5
B4
330
175
100
AcDbEntity
  8
0
100
AcDbLine
 10
182.466898
 20
80.04296
 30
0.0
 11
182.466898
 21
112.54296
 31
0.0
  0
LINE
  5
B5
330
175
100
AcDbEntity
  8
0
100
AcDbLine
 10
182.466898
 20
80.04296
 30
0.0
 11
182.466898
 21
47.54296
 31
0.0
  0
LINE
  5
B6
330
175
100
AcDbEntity
  8
0
100
AcDbLine
 10
197.4668979999999
 20
80.04296
 30
0.0
 11
197.4668979999999
 21
112.54296
 31
0.0
  0
LINE
  5
B7
330
175
100
AcDbEntity
  8
1
100
AcDbLine
 10
190.0
 20
30.0
 30
0.0
 11
190.0
 21
130.0000029999999
 31
0.0
  0
LINE
  5
B8
330
175
100
AcDbEntity
  8
0
100
AcDbLine
 10
197.4668979999999
 20
80.04296
 30
0.0
 11
197.4668979999999
 21
47.54296
 31
0.0
  0
LINE
  5
B9
330
175
100
AcDbEntity
  8
0
100
AcDbLine
 10
217.4668979999999
 20
92.54296
 30
0.0
 11
209.4668979999999
 21
92.54296
 31
0.0
  0
LINE
  5
BA
330
175
100
AcDbEntity
  8
0
100
AcDbLine
 10
217.4668979999999
 20
67.54296
 30
0.0
 11
209.4668979999999
 21
67.54296
 31
0.0
  0
LINE
  5
BB
330
175
100
AcDbEntity
  8
0
100
AcDbLine
 10
209.4668979999999
 20
93.04295999999999
 30
0.0
 11
209.4668979999999
 21
67.04295999999999
 31
0.0
  0
LINE
  5
BC
330
175
100
AcDbEntity
  8
0
100
AcDbLine
 10
217.4668979999999
 20
67.54296
 30
0.0
 11
217.4668979999999
 21
92.54296
 31
0.0
  0
LINE
  5
BD
330
175
100
AcDbEntity
  8
0
100
AcDbLine
 10
218.466898
 20
80.04296
 30
0.0
 11
218.466898
 21
68.54295999999999
 31
0.0
  0
LINE
  5
BE
330
175
100
AcDbEntity
  8
0
100
AcDbLine
 10
218.466898
 20
80.04296
 30
0.0
 11
218.466898
 21
91.54296
 31
0.0
  0
LINE
  5
BF
330
175
100
AcDbEntity
  8
4
100
AcDbLine
 10
195.4668979999999
 20
92.04295999999999
 30
0.0
 11
195.4668979999999
 21
68.04295999999999
 31
0.0
  0
LINE
  5
C0
330
175
100
AcDbEntity
  8
4
100
AcDbLine
 10
195.4668979999999
 20
92.04295999999999
 30
0.0
 11
196.9668979999999
 21
92.54296
 31
0.0
  0
LINE
  5
C1
330
175
100
AcDbEntity
  8
4
100
AcDbLine
 10
195.4668979999999
 20
68.04295999999999
 30
0.0
 11
196.9668979999999
 21
67.54296
 31
0.0
  0
ARC
  5
C2
330
175
100
AcDbEntity
  8
0
100
AcDbCircle
 10
201.198558
 20
75.57996800000001
 30
0.0
 40
6.485851999999999
100
AcDbArc
 50
93.25240500000001
 51
125.604546
  0
ARC
  5
C3
330
175
100
AcDbEntity
  8
0
100
AcDbCircle
 10
201.4324939999999
 20
78.948432
 30
0.0
 40
3.147183
100
AcDbArc
 50
9.187378999999999
 51
99.17228000000001
  0
ARC
  5
C4
330
175
100
AcDbEntity
  8
0
100
AcDbCircle
 10
176.5144669999999
 20
74.714219
 30
0.0
 40
28.439178
100
AcDbArc
 50
348.0646479999999
 51
9.792346
  0
ARC
  5
C5
330
175
100
AcDbEntity
  8
0
100
AcDbCircle
 10
192.6605989999999
 20
78.613968
 30
0.0
 40
15.156577
100
AcDbArc
 50
288.311649
 51
319.808579
  0
LINE
  5
C6
330
175
100
AcDbEntity
  8
0
100
AcDbLine
 10
209.450848
 20
93.07420999999999
 30
0.0
 11
205.942602
 21
93.77540899999999
 31
0.0
  0
LINE
  5
C7
330
175
100
AcDbEntity
  8
0
100
AcDbLine
 10
209.450848
 20
67.02969
 30
0.0
 11
205.942602
 21
66.328491
 31
0.0
  0
ARC
  5
C8
330
175
100
AcDbEntity
  8
0
100
AcDbCircle
 10
195.034284
 20
266.5299749999999
 30
0.0
 40
200.503921
100
AcDbArc
 50
271.8285149999999
 51
273.147375
  0
LINE
  5
C9
330
175
100
AcDbEntity
  8
0
100
AcDbLine
 10
204.7397759999999
 20
94.37643599999999
 30
0.0
 11
197.4225759999999
 21
99.78568299999999
 31
0.0
  0
ARC
  5
CA
330
175
100
AcDbEntity
  8
0
100
AcDbCircle
 10
206.4966399999999
 20
96.384021
 30
0.0
 40
2.663902
100
AcDbArc
 50
228.897025
 51
258.480568
  0
ARC
  5
CB
330
175
100
AcDbEntity
  8
0
100
AcDbCircle
 10
217.471827
 20
91.54788899999999
 30
0.0
 40
0.9950839999999999
100
AcDbArc
 50
359.716227
 51
90.283773
  0
ARC
  5
CC
330
175
100
AcDbEntity
  8
0
100
AcDbCircle
 10
217.470385
 20
68.539473
 30
0.0
 40
0.9965189999999999
100
AcDbArc
 50
269.7995109999999
 51
0.200489
  0
ARC
  5
CD
330
175
100
AcDbEntity
  8
0
100
AcDbCircle
 10
200.631482
 20
92.775151
 30
0.0
 40
4.413483
100
AcDbArc
 50
272.5856309999999
 51
2.582822
  0
ARC
  5
CE
330
175
100
AcDbEntity
  8
0
100
AcDbCircle
 10
207.4516749999999
 20
96.30787600000001
 30
0.0
 40
11.00853099999999
100
AcDbArc
 50
209.0013079999999
 51
226.171391
  0
LINE
  5
11C
330
175
100
AcDbEntity
  8
1
100
AcDbLine
 10
128.015159
 20
110.340906
 30
0.0
 11
202.0353089999999
 21
110.340906
 31
0.0
  0
CIRCLE
  5
192
330
175
100
AcDbEntity
  8
0
100
AcDbCircle
 10
70.0
 20
110.0
 30
0.0
 40
4.0
  0
CIRCLE
  5
193
330
175
100
AcDbEntity
  8
0
100
AcDbCircle
 10
70.0
 20
110.0
 30
0.0
 40
2.5
  0
CIRCLE
  5
194
330
175
100
AcDbEntity
  8
0
100
AcDbCircle
 10
70.0
 20
110.0
 30
0.0
 40
2.0
  0
ENDSEC
  0
SECTION
  2
OBJECTS
  0
DICTIONARY
  5
16A
330
0
100
AcDbDictionary
281
     1
  3
ACAD_GROUP
350
16B
  3
ACAD_LAYOUT
350
19C
  3
ACAD_MLINESTYLE
350
178
  3
ACAD_PLOTSETTINGS
350
19D
  3
ACAD_PLOTSTYLENAME
350
19A
  3
ACDBVARIABLEDICTIONARY
350
18D
  3
AcmDictionary
350
259
  3
AMG
350
1A1
  3
AMGSNAPSETTINGS
350
277
  3
DWGPROPS
350
25C
  3
MAPISURF_MODULE
350
22C
  0
DICTIONARY
  5
293
330
175
100
AcDbDictionary
280
     1
281
     1
  3
ACAD_INDEX
360
294
  0
DICTIONARY
  5
16B
102
{ACAD_REACTORS
330
16A
102
}
330
16A
100
AcDbDictionary
281
     1
  0
DICTIONARY
  5
19C
102
{ACAD_REACTORS
330
16A
102
}
330
16A
100
AcDbDictionary
281
     1
  3
Model
350
19E
  3
ﾚｲｱｳﾄ1
350
19F
  0
DICTIONARY
  5
178
102
{ACAD_REACTORS
330
16A
102
}
330
16A
100
AcDbDictionary
281
     1
  3
STANDARD
350
179
  0
DICTIONARY
  5
19D
102
{ACAD_REACTORS
330
16A
102
}
330
16A
100
AcDbDictionary
281
     1
  0
ACDBDICTIONARYWDFLT
  5
19A
102
{ACAD_REACTORS
330
16A
102
}
330
16A
100
AcDbDictionary
281
     1
  3
Normal
350
19B
100
AcDbDictionaryWithDefault
340
19B
  0
DICTIONARY
  5
18D
102
{ACAD_REACTORS
330
16A
102
}
330
16A
100
AcDbDictionary
281
     1
  3
DIMADEC
350
18E
  3
DIMASSOC
350
29D
  3
INDEXCTL
350
29C
  0
DICTIONARY
  5
259
102
{ACAD_REACTORS
330
16A
102
}
330
16A
100
AcDbDictionary
281
     1
  3
AcmBOMDATA
350
25A
  0
DICTIONARY
  5
1A1
102
{ACAD_REACTORS
330
16A
102
}
330
16A
100
AcDbDictionary
281
     1
  3
AcMgSettings
350
1A2
  3
AMGLAYCFG
350
266
  0
DICTIONARY
  5
277
102
{ACAD_REACTORS
330
16A
102
}
330
16A
100
AcDbDictionary
281
     1
  3
DIMENSION
350
27C
  3
FEA
350
27B
  3
HATCH (1)
350
278
  3
HATCH (2)
350
279
  3
SIMPLE WELD
350
27D
  3
SYMBOLS
350
27A
  0
XRECORD
  5
25C
102
{ACAD_REACTORS
330
16A
102
}
330
16A
100
AcDbXrecord
280
     1
  1
DWGPROPS COOKIE
  2

  3

  4

  6

  7

  8

  9

300
AmdtFileType=84
301
=
302
=
303
=
304
=
305
=
306
=
307
=
308
=
309
=
 40
0.0085966435185185
 41
2450857.470087153
 42
2453551.64116228
  1

 90
        1
  0
DICTIONARY
  5
294
102
{ACAD_REACTORS
330
293
102
}
330
293
100
AcDbDictionary
281
     1
  3
*A1
350
295
  0
LAYOUT
  5
19E
102
{ACAD_REACTORS
330
19C
102
}
330
19C
100
AcDbPlotSettings
  1

  2
\\KONISHIDENXP\SHARP MX-2700FG
  4

  6

 40
0.0
 41
0.0
 42
0.0
 43
0.0
 44
0.0
 45
0.0
 46
0.0
 47
0.0
 48
0.0
 49
0.0
140
0.0
141
0.0
142
1.0
143
1.0
 70
  1712
 72
     0
 73
     0
 74
     0
  7

 75
     0
147
1.0
148
0.0
149
0.0
100
AcDbLayout
  1
Model
 70
     1
 71
     0
 10
0.0
 20
0.0
 11
12.0
 21
9.0
 12
0.0
 22
0.0
 32
0.0
 14
0.0
 24
0.0
 34
0.0
 15
0.0
 25
0.0
 35
0.0
146
0.0
 13
0.0
 23
0.0
 33
0.0
 16
1.0
 26
0.0
 36
0.0
 17
0.0
 27
1.0
 37
0.0
 76
     0
330
175
  0
LAYOUT
  5
19F
102
{ACAD_REACTORS
330
19C
102
}
330
19C
100
AcDbPlotSettings
  1

  2
\\KONISHIDENXP\SHARP MX-2700FG
  4

  6

 40
0.0
 41
0.0
 42
0.0
 43
0.0
 44
0.0
 45
0.0
 46
0.0
 47
0.0
 48
0.0
 49
0.0
140
0.0
141
0.0
142
1.0
143
1.0
 70
   688
 72
     0
 73
     0
 74
     5
  7

 75
    16
147
1.0
148
0.0
149
0.0
100
AcDbLayout
  1
ﾚｲｱｳﾄ1
 70
     0
 71
     1
 10
0.0
 20
0.0
 11
12.0
 21
9.0
 12
0.0
 22
0.0
 32
0.0
 14
1.000000000000000E+20
 24
1.000000000000000E+20
 34
1.000000000000000E+20
 15
-1.000000000000000E+20
 25
-1.000000000000000E+20
 35
-1.000000000000000E+20
146
0.0
 13
0.0
 23
0.0
 33
0.0
 16
1.0
 26
0.0
 36
0.0
 17
0.0
 27
1.0
 37
0.0
 76
     0
330
172
  0
MLINESTYLE
  5
179
102
{ACAD_REACTORS
330
178
102
}
330
178
100
AcDbMlineStyle
  2
STANDARD
 70
     0
  3

 62
   256
 51
90.0
 52
90.0
 71
     2
 49
0.5
 62
   256
  6
BYLAYER
 49
-0.5
 62
   256
  6
BYLAYER
  0
ACDBPLACEHOLDER
  5
19B
102
{ACAD_REACTORS
330
19A
102
}
330
19A
  0
DICTIONARYVAR
  5
18E
102
{ACAD_REACTORS
330
18D
102
}
330
18D
100
DictionaryVariables
280
     0
  1
0
  0
DICTIONARYVAR
  5
29D
102
{ACAD_REACTORS
330
18D
102
}
330
18D
100
DictionaryVariables
280
     0
  1
0
  0
DICTIONARYVAR
  5
29C
102
{ACAD_REACTORS
330
18D
102
}
330
18D
100
DictionaryVariables
280
     0
  1
1
  0
ACMDATADICTIONARY
  5
25A
102
{ACAD_REACTORS
330
259
102
}
330
259
100
AcDbDictionary
281
     1
  3
*A1
350
25B
100
AcmDataDictionary
  0
DICTIONARY
  5
1A2
102
{ACAD_REACTORS
330
1A1
102
}
330
1A1
100
AcDbDictionary
281
     1
  3
DWGSETTINGS
350
1A3
  0
ACAMGFILTERDAT
  5
27C
102
{ACAD_REACTORS
330
277
102
}
330
277
100
AcAmgFilterDat
 70
    15
  1
DIMENSION,AMDT_*_DIM
  2
*
  3
*
  4
*
  5
*
290
     1
  0
ACAMGFILTERDAT
  5
27B
102
{ACAD_REACTORS
330
277
102
}
330
277
100
AcAmgFilterDat
 70
    15
  1
*
  2
AM_FEA-AM_*
  3
*
  4
*
  5
*
290
     1
  0
ACAMGFILTERDAT
  5
278
102
{ACAD_REACTORS
330
277
102
}
330
277
100
AcAmgFilterDat
 70
    15
  1
HATCH
  2
*
  3
*
  4
*
  5
*
290
     1
  0
ACAMGFILTERDAT
  5
279
102
{ACAD_REACTORS
330
277
102
}
330
277
100
AcAmgFilterDat
 70
    15
  1
LINE
  2
8,8N,*-8,*-8N,AM_8,AM_8N,*-AM_8,*-AM_8N
  3
*
  4
*
  5
INSERT,STDPART2D
290
     1
  0
ACAMGFILTERDAT
  5
27D
102
{ACAD_REACTORS
330
277
102
}
330
277
100
AcAmgFilterDat
 70
    15
  1
ARC
  2
AM_5
  3
*
  4
2
  5
INSERT
290
     0
  0
ACAMGFILTERDAT
  5
27A
102
{ACAD_REACTORS
330
277
102
}
330
277
100
AcAmgFilterDat
 70
    15
  1
ACMFCFRAME,ACMDATUMTARGET,ACMDATUMID,ACMWELDSYM,ACMSURFSYM,ACMFEATID,ACMPARTREF,ACMBALLOON,AMDTEDGESYM,AMGSCREWCALCTABLE
  2
*
  3
*
  4
*
  5
*
290
     1
  0
LAYER_INDEX
  5
295
102
{ACAD_REACTORS
330
294
102
}
330
294
100
AcDbIndex
 40
2456448.403394629
100
AcDbLayerIndex
  8
0
360
296
 90
       67
  8
1
360
297
 90
        6
  8
4
360
298
 90
        3
  8
10
360
299
 90
        0
  8
11
360
29A
 90
        0
  8
2
360
29B
 90
        0
  0
ACMDATAENTRYBLOCK
  5
25B
102
{ACAD_REACTORS
330
25A
102
}
330
25A
100
AcmDataEntry
100
AcmDataEntryBlock
  0
IDBUFFER
  5
296
330
0
100
AcDbIdBuffer
330
BC
330
BD
330
BE
330
C2
330
C3
330
C4
330
C5
330
C6
330
C7
330
C8
330
C9
330
CA
330
CB
330
CC
330
CD
330
CE
330
192
330
193
330
194
330
3C
330
3E
330
55
330
56
330
57
330
58
330
59
330
5A
330
5B
330
5C
330
5D
330
5E
330
5F
330
60
330
61
330
62
330
63
330
64
330
65
330
66
330
67
330
68
330
69
330
6A
330
6B
330
6C
330
6D
330
6E
330
6F
330
70
330
71
330
72
330
73
330
74
330
75
330
76
330
77
330
78
330
79
330
B1
330
B2
330
B4
330
B5
330
B6
330
B8
330
B9
330
BA
330
BB
  0
IDBUFFER
  5
297
330
0
100
AcDbIdBuffer
330
3A
330
3B
330
3D
330
B3
330
B7
330
11C
  0
IDBUFFER
  5
298
330
0
100
AcDbIdBuffer
330
BF
330
C0
330
C1
  0
IDBUFFER
  5
299
330
0
100
AcDbIdBuffer
  0
IDBUFFER
  5
29A
330
0
100
AcDbIdBuffer
  0
IDBUFFER
  5
29B
330
0
100
AcDbIdBuffer
  0
ENDSEC
  0
EOF
