  0
SECTION
  2
HEADER
  9
$ACADVER
  1
AC1014
  9
$ACADMAINTVER
 70
     0
  9
$DWGCODEPAGE
  3
ANSI_932
  9
$INSBASE
 10
0.0
 20
0.0
 30
0.0
  9
$EXTMIN
 10
125.0
 20
215.0
 30
0.0
  9
$EXTMAX
 10
1300.0
 20
880.0
 30
0.0
  9
$LIMMIN
 10
0.0
 20
0.0
  9
$LIMMAX
 10
1600.0
 20
1200.0
  9
$ORTHOMODE
 70
     1
  9
$REGENMODE
 70
     1
  9
$FILLMODE
 70
     1
  9
$QTEXTMODE
 70
     0
  9
$MIRRTEXT
 70
     1
  9
$DRAGMODE
 70
     1
  9
$LTSCALE
 40
100.0
  9
$OSMODE
 70
    33
  9
$ATTMODE
 70
     1
  9
$TEXTSIZE
 40
55.0
  9
$TRACEWID
 40
0.05
  9
$TEXTSTYLE
  7
BIGFONT
  9
$CLAYER
  8
0
  9
$CELTYPE
  6
BYLAYER
  9
$CECOLOR
 62
   256
  9
$CELTSCALE
 40
1.0
  9
$DELOBJ
 70
     1
  9
$DISPSILH
 70
     0
  9
$DIMSCALE
 40
10.0
  9
$DIMASZ
 40
3.0
  9
$DIMEXO
 40
2.0
  9
$DIMDLI
 40
0.38
  9
$DIMRND
 40
0.0
  9
$DIMDLE
 40
0.0
  9
$DIMEXE
 40
2.0
  9
$DIMTP
 40
0.0
  9
$DIMTM
 40
0.0
  9
$DIMTXT
 40
3.2
  9
$DIMCEN
 40
0.09
  9
$DIMTSZ
 40
0.0
  9
$DIMTOL
 70
     0
  9
$DIMLIM
 70
     0
  9
$DIMTIH
 70
     0
  9
$DIMTOH
 70
     0
  9
$DIMSE1
 70
     0
  9
$DIMSE2
 70
     0
  9
$DIMTAD
 70
     1
  9
$DIMZIN
 70
     0
  9
$DIMBLK
  1

  9
$DIMASO
 70
     0
  9
$DIMSHO
 70
     0
  9
$DIMPOST
  1

  9
$DIMAPOST
  1

  9
$DIMALT
 70
     0
  9
$DIMALTD
 70
     2
  9
$DIMALTF
 40
25.4
  9
$DIMLFAC
 40
1.0
  9
$DIMTOFL
 70
     0
  9
$DIMTVP
 40
1.6
  9
$DIMTIX
 70
     1
  9
$DIMSOXD
 70
     0
  9
$DIMSAH
 70
     0
  9
$DIMBLK1
  1

  9
$DIMBLK2
  1

  9
$DIMSTYLE
  2
STANDARD
  9
$DIMCLRD
 70
     0
  9
$DIMCLRE
 70
     0
  9
$DIMCLRT
 70
     0
  9
$DIMTFAC
 40
1.0
  9
$DIMGAP
 40
0.09
  9
$DIMJUST
 70
     0
  9
$DIMSD1
 70
     0
  9
$DIMSD2
 70
     0
  9
$DIMTOLJ
 70
     1
  9
$DIMTZIN
 70
     0
  9
$DIMALTZ
 70
     0
  9
$DIMALTTZ
 70
     0
  9
$DIMFIT
 70
     5
  9
$DIMUPT
 70
     0
  9
$DIMUNIT
 70
     2
  9
$DIMDEC
 70
     4
  9
$DIMTDEC
 70
     4
  9
$DIMALTU
 70
     2
  9
$DIMALTTD
 70
     2
  9
$DIMTXSTY
  7
BIGFONT
  9
$DIMAUNIT
 70
     0
  9
$LUNITS
 70
     2
  9
$LUPREC
 70
     4
  9
$SKETCHINC
 40
0.1
  9
$FILLETRAD
 40
0.0
  9
$AUNITS
 70
     0
  9
$AUPREC
 70
     0
  9
$MENU
  1
ACAD
  9
$ELEVATION
 40
0.0
  9
$PELEVATION
 40
0.0
  9
$THICKNESS
 40
0.0
  9
$LIMCHECK
 70
     0
  9
$BLIPMODE
 70
     0
  9
$CHAMFERA
 40
0.0
  9
$CHAMFERB
 40
0.0
  9
$CHAMFERC
 40
0.0
  9
$CHAMFERD
 40
0.0
  9
$SKPOLY
 70
     0
  9
$TDCREATE
 40
2450864.021100926
  9
$TDUPDATE
 40
2453551.656133530
  9
$TDINDWG
 40
0.0003824884
  9
$TDUSRTIMER
 40
0.0003824884
  9
$USRTIMER
 70
     1
  9
$ANGBASE
 50
0.0
  9
$ANGDIR
 70
     0
  9
$PDMODE
 70
     0
  9
$PDSIZE
 40
0.0
  9
$PLINEWID
 40
0.0
  9
$COORDS
 70
     2
  9
$SPLFRAME
 70
     0
  9
$SPLINETYPE
 70
     6
  9
$SPLINESEGS
 70
     8
  9
$ATTDIA
 70
     0
  9
$ATTREQ
 70
     1
  9
$HANDLING
 70
     1
  9
$HANDSEED
  5
213
  9
$SURFTAB1
 70
     6
  9
$SURFTAB2
 70
     6
  9
$SURFTYPE
 70
     6
  9
$SURFU
 70
     6
  9
$SURFV
 70
     6
  9
$UCSNAME
  2

  9
$UCSORG
 10
0.0
 20
0.0
 30
0.0
  9
$UCSXDIR
 10
1.0
 20
0.0
 30
0.0
  9
$UCSYDIR
 10
0.0
 20
1.0
 30
0.0
  9
$PUCSNAME
  2

  9
$PUCSORG
 10
0.0
 20
0.0
 30
0.0
  9
$PUCSXDIR
 10
1.0
 20
0.0
 30
0.0
  9
$PUCSYDIR
 10
0.0
 20
1.0
 30
0.0
  9
$USERI1
 70
     0
  9
$USERI2
 70
     0
  9
$USERI3
 70
     0
  9
$USERI4
 70
     0
  9
$USERI5
 70
     0
  9
$USERR1
 40
0.0
  9
$USERR2
 40
0.0
  9
$USERR3
 40
0.0
  9
$USERR4
 40
0.0
  9
$USERR5
 40
0.0
  9
$WORLDVIEW
 70
     1
  9
$SHADEDGE
 70
     3
  9
$SHADEDIF
 70
    70
  9
$TILEMODE
 70
     1
  9
$MAXACTVP
 70
    16
  9
$PINSBASE
 10
0.0
 20
0.0
 30
0.0
  9
$PLIMCHECK
 70
     0
  9
$PEXTMIN
 10
1.000000E+20
 20
1.000000E+20
 30
1.000000E+20
  9
$PEXTMAX
 10
-1.000000E+20
 20
-1.000000E+20
 30
-1.000000E+20
  9
$PLIMMIN
 10
0.0
 20
0.0
  9
$PLIMMAX
 10
12.0
 20
9.0
  9
$UNITMODE
 70
     0
  9
$VISRETAIN
 70
     0
  9
$PLINEGEN
 70
     1
  9
$PSLTSCALE
 70
     0
  9
$TREEDEPTH
 70
  3020
  9
$PICKSTYLE
 70
     1
  9
$CMLSTYLE
  2
STANDARD
  9
$CMLJUST
 70
     0
  9
$CMLSCALE
 40
1.0
  9
$PROXYGRAPHICS
 70
     1
  9
$MEASUREMENT
 70
     0
  0
ENDSEC
  0
SECTION
  2
CLASSES
  0
CLASS
  1
DICTIONARYVAR
  2
AcDbDictionaryVar
  3
"AutoCAD"
 90
        0
280
     0
281
     0
  0
ENDSEC
  0
SECTION
  2
TABLES
  0
TABLE
  2
VPORT
  5
1E4
100
AcDbSymbolTable
 70
     2
  0
VPORT
  5
212
100
AcDbSymbolTableRecord
100
AcDbViewportTableRecord
  2
*ACTIVE
 70
     0
 10
0.0
 20
0.0
 11
1.0
 21
1.0
 12
812.591291
 22
760.887544
 13
0.0
 23
0.0
 14
5.0
 24
5.0
 15
10.0
 25
10.0
 16
0.0
 26
0.0
 36
1.0
 17
0.0
 27
0.0
 37
0.0
 40
657.789571
 41
1.434944
 42
50.0
 43
0.0
 44
0.0
 50
0.0
 51
0.0
 71
     0
 72
 20000
 73
     1
 74
     1
 75
     0
 76
     0
 77
     0
 78
     0
  0
ENDTAB
  0
TABLE
  2
LTYPE
  5
1E1
100
AcDbSymbolTable
 70
     3
  0
LTYPE
  5
1ED
100
AcDbSymbolTableRecord
100
AcDbLinetypeTableRecord
  2
BYBLOCK
 70
     0
  3

 72
    65
 73
     0
 40
0.0
  0
LTYPE
  5
1EE
100
AcDbSymbolTableRecord
100
AcDbLinetypeTableRecord
  2
BYLAYER
 70
     0
  3

 72
    65
 73
     0
 40
0.0
  0
LTYPE
  5
1EF
100
AcDbSymbolTableRecord
100
AcDbLinetypeTableRecord
  2
CONTINUOUS
 70
     0
  3
実線
 72
    65
 73
     0
 40
0.0
  0
LTYPE
  5
1FD
100
AcDbSymbolTableRecord
100
AcDbLinetypeTableRecord
  2
CENTER
 70
     0
  3
____ _ ____ _ ____ _ ____ _ ____ _ ____ _ ____
 72
    65
 73
     4
 40
2.0
 49
1.25
 74
     0
 49
-0.25
 74
     0
 49
0.25
 74
     0
 49
-0.25
 74
     0
  0
LTYPE
  5
1FE
100
AcDbSymbolTableRecord
100
AcDbLinetypeTableRecord
  2
TENSEN1
 70
     0
  3

 72
    65
 73
     2
 40
0.4
 49
0.3
 74
     0
 49
-0.1
 74
     0
  0
ENDTAB
  0
TABLE
  2
LAYER
  5
1DE
100
AcDbSymbolTable
 70
     5
  0
LAYER
  5
1EA
100
AcDbSymbolTableRecord
100
AcDbLayerTableRecord
  2
0
 70
     0
 62
     7
  6
CONTINUOUS
  0
LAYER
  5
202
100
AcDbSymbolTableRecord
100
AcDbLayerTableRecord
  2
1
 70
     0
 62
     1
  6
CENTER
  0
LAYER
  5
203
100
AcDbSymbolTableRecord
100
AcDbLayerTableRecord
  2
10
 70
     0
 62
     7
  6
CONTINUOUS
  0
LAYER
  5
204
100
AcDbSymbolTableRecord
100
AcDbLayerTableRecord
  2
11
 70
     0
 62
     3
  6
CONTINUOUS
  0
LAYER
  5
205
100
AcDbSymbolTableRecord
100
AcDbLayerTableRecord
  2
2
 70
     0
 62
     2
  6
TENSEN1
  0
ENDTAB
  0
TABLE
  2
STYLE
  5
1DF
100
AcDbSymbolTable
 70
     4
  0
STYLE
  5
1EB
100
AcDbSymbolTableRecord
100
AcDbTextStyleTableRecord
  2
STANDARD
 70
     0
 40
0.0
 41
1.0
 50
0.0
 71
     0
 42
0.2
  3
TXT
  4
bigfont.shx
  0
STYLE
  5
1FA
100
AcDbSymbolTableRecord
100
AcDbTextStyleTableRecord
  2
K80
 70
     0
 40
0.0
 41
0.8
 50
0.0
 71
     0
 42
0.2
  3
TXT
  4
bigfont.shx
  0
STYLE
  5
1FB
100
AcDbSymbolTableRecord
100
AcDbTextStyleTableRecord
  2
07500
 70
     0
 40
0.0
 41
0.75
 50
0.0
 71
     0
 42
0.2
  3
TXT
  4
bigfont.shx
  0
STYLE
  5
1FC
100
AcDbSymbolTableRecord
100
AcDbTextStyleTableRecord
  2
BIGFONT
 70
     0
 40
55.0
 41
1.0
 50
0.0
 71
     0
 42
55.0
  3

  4
bigfont.shx
  0
ENDTAB
  0
TABLE
  2
VIEW
  5
1E2
100
AcDbSymbolTable
 70
     1
  0
VIEW
  5
1FF
100
AcDbSymbolTableRecord
100
AcDbViewTableRecord
  2
ALL
 70
     0
 40
2700.0
 10
2209.915966
 20
1350.0
 41
0.0
 11
0.0
 21
0.0
 31
1.0
 12
0.0
 22
0.0
 32
0.0
 42
0.0
 43
0.0
 44
0.0
 50
0.0
 71
     0
  0
ENDTAB
  0
TABLE
  2
UCS
  5
1E3
100
AcDbSymbolTable
 70
     0
  0
ENDTAB
  0
TABLE
  2
APPID
  5
1E5
100
AcDbSymbolTable
 70
     1
  0
APPID
  5
1EC
100
AcDbSymbolTableRecord
100
AcDbRegAppTableRecord
  2
ACAD
 70
     0
  0
ENDTAB
  0
TABLE
  2
DIMSTYLE
  5
1E6
100
AcDbSymbolTable
 70
     1
  0
DIMSTYLE
105
201
100
AcDbSymbolTableRecord
100
AcDbDimStyleTableRecord
  2
STANDARD
 70
     0
  3

  4

  5

  6

  7

 40
1.0
 41
0.18
 42
0.0625
 43
0.38
 44
0.18
 45
0.0
 46
0.0
 47
0.0
 48
0.0
140
0.18
141
0.09
142
0.0
143
25.4
144
1.0
145
0.0
146
1.0
147
0.09
 71
     0
 72
     0
 73
     1
 74
     1
 75
     0
 76
     0
 77
     0
 78
     0
170
     0
171
     2
172
     0
173
     0
174
     0
175
     0
176
     0
177
     0
178
     0
270
     2
271
     4
272
     4
273
     2
274
     2
340
1FC
275
     0
280
     0
281
     0
282
     0
283
     1
284
     0
285
     0
286
     0
287
     5
288
     0
  0
ENDTAB
  0
TABLE
  2
BLOCK_RECORD
  5
1DD
100
AcDbSymbolTable
 70
     2
  0
BLOCK_RECORD
  5
1F3
100
AcDbSymbolTableRecord
100
AcDbBlockTableRecord
  2
*MODEL_SPACE
  0
BLOCK_RECORD
  5
1F0
100
AcDbSymbolTableRecord
100
AcDbBlockTableRecord
  2
*PAPER_SPACE
  0
BLOCK_RECORD
  5
1F8
100
AcDbSymbolTableRecord
100
AcDbBlockTableRecord
  2
WAKU
  0
BLOCK_RECORD
  5
1F9
100
AcDbSymbolTableRecord
100
AcDbBlockTableRecord
  2
QQ
  0
ENDTAB
  0
ENDSEC
  0
SECTION
  2
BLOCKS
  0
BLOCK
  5
208
100
AcDbEntity
  8
0
100
AcDbBlockBegin
  2
*MODEL_SPACE
 70
     0
 10
0.0
 20
0.0
 30
0.0
  3
*MODEL_SPACE
  1

  0
ENDBLK
  5
209
100
AcDbEntity
  8
0
100
AcDbBlockEnd
  0
BLOCK
  5
206
100
AcDbEntity
 67
     1
  8
0
100
AcDbBlockBegin
  2
*PAPER_SPACE
 70
     0
 10
0.0
 20
0.0
 30
0.0
  3
*PAPER_SPACE
  1

  0
ENDBLK
  5
207
100
AcDbEntity
 67
     1
  8
0
100
AcDbBlockEnd
  0
BLOCK
  5
2E
100
AcDbEntity
  8
0
100
AcDbBlockBegin
  2
WAKU
 70
     0
 10
549.0
 20
0.0
 30
0.0
  3
WAKU
  1

  0
LINE
  5
2F
100
AcDbEntity
  8
11
100
AcDbLine
 10
452.0
 20
12.0
 30
0.0
 11
549.0
 21
12.0
 31
0.0
  0
LINE
  5
30
100
AcDbEntity
  8
11
100
AcDbLine
 10
477.0
 20
0.0
 30
0.0
 11
477.0
 21
12.0
 31
0.0
  0
LINE
  5
31
100
AcDbEntity
  8
11
100
AcDbLine
 10
452.0
 20
12.0
 30
0.0
 11
452.0
 21
0.0
 31
0.0
  0
TEXT
  5
32
100
AcDbEntity
  8
11
100
AcDbText
 10
454.0
 20
8.5
 30
0.0
 40
2.5
  1
尺度
100
AcDbText
  0
TEXT
  5
33
100
AcDbEntity
  8
11
100
AcDbText
 10
479.0
 20
8.5
 30
0.0
 40
2.5
  1
図番
100
AcDbText
  0
ENDBLK
  5
34
100
AcDbEntity
  8
0
100
AcDbBlockEnd
  0
BLOCK
  5
35
100
AcDbEntity
  8
0
100
AcDbBlockBegin
  2
QQ
 70
     0
 10
270.0
 20
0.0
 30
0.0
  3
QQ
  1

  0
LINE
  5
36
100
AcDbEntity
  8
11
100
AcDbLine
 10
173.0
 20
36.0
 30
0.0
 11
270.0
 21
36.0
 31
0.0
  0
TEXT
  5
37
100
AcDbEntity
  8
11
100
AcDbText
 10
175.0
 20
32.5
 30
0.0
 40
2.5
  1
部品名称
100
AcDbText
  0
LINE
  5
38
100
AcDbEntity
  8
11
100
AcDbLine
 10
173.0
 20
36.0
 30
0.0
 11
173.0
 21
0.0
 31
0.0
  0
LINE
  5
39
100
AcDbEntity
  8
11
100
AcDbLine
 10
173.0
 20
24.0
 30
0.0
 11
270.0
 21
24.0
 31
0.0
  0
TEXT
  5
3A
100
AcDbEntity
  8
11
100
AcDbText
 10
175.0
 20
20.5
 30
0.0
 40
2.5
  1
品番
100
AcDbText
  0
LINE
  5
3B
100
AcDbEntity
  8
11
100
AcDbLine
 10
173.0
 20
12.0
 30
0.0
 11
270.0
 21
12.0
 31
0.0
  0
TEXT
  5
3C
100
AcDbEntity
  8
11
100
AcDbText
 10
175.0
 20
8.5
 30
0.0
 40
2.5
  1
尺度
100
AcDbText
  0
TEXT
  5
3D
100
AcDbEntity
  8
11
100
AcDbText
 10
200.0
 20
8.5
 30
0.0
 40
2.5
  1
図番
100
AcDbText
  0
LINE
  5
3E
100
AcDbEntity
  8
11
100
AcDbLine
 10
198.0
 20
0.0
 30
0.0
 11
198.0
 21
12.0
 31
0.0
  0
ENDBLK
  5
3F
100
AcDbEntity
  8
0
100
AcDbBlockEnd
  0
ENDSEC
  0
SECTION
  2
ENTITIES
  0
POINT
  5
46
100
AcDbEntity
  8
1
100
AcDbPoint
 10
847.300838
 20
549.010331
 30
0.0
  0
POINT
  5
47
100
AcDbEntity
  8
1
100
AcDbPoint
 10
489.755953
 20
867.565951
 30
0.0
  0
LINE
  5
49
100
AcDbEntity
  8
1
100
AcDbLine
 10
490.0
 20
875.0
 30
0.0
 11
490.0
 21
215.0
 31
0.0
  0
LINE
  5
4A
100
AcDbEntity
  8
1
100
AcDbLine
 10
125.0
 20
550.0
 30
0.0
 11
870.0
 21
550.0
 31
0.0
  0
CIRCLE
  5
4B
100
AcDbEntity
  8
0
100
AcDbCircle
 10
490.0
 20
550.0
 30
0.0
 40
315.0
  0
ARC
  5
4C
100
AcDbEntity
  8
0
100
AcDbCircle
 10
490.0
 20
550.0
 30
0.0
 40
294.5
100
AcDbArc
 50
95.564829
 51
84.29733
  0
ARC
  5
4D
100
AcDbEntity
  8
0
100
AcDbCircle
 10
490.0
 20
550.0
 30
0.0
 40
274.0
100
AcDbArc
 50
95.338328
 51
143.946705
  0
CIRCLE
  5
4E
100
AcDbEntity
  8
0
100
AcDbCircle
 10
490.0
 20
550.0
 30
0.0
 40
51.0
  0
LINE
  5
4F
100
AcDbEntity
  8
0
100
AcDbLine
 10
467.732051
 20
611.732051
 30
0.0
 11
469.732051
 21
817.732051
 31
0.0
  0
LINE
  5
50
100
AcDbEntity
  8
0
100
AcDbLine
 10
511.732051
 20
611.732051
 30
0.0
 11
509.732051
 21
817.732051
 31
0.0
  0
LINE
  5
51
100
AcDbEntity
  8
0
100
AcDbLine
 10
532.732051
 20
599.732051
 30
0.0
 11
711.732051
 21
701.732051
 31
0.0
  0
LINE
  5
52
100
AcDbEntity
  8
0
100
AcDbLine
 10
554.732051
 20
561.732051
 30
0.0
 11
731.732051
 21
666.732051
 31
0.0
  0
LINE
  5
53
100
AcDbEntity
  8
0
100
AcDbLine
 10
447.732051
 20
600.732051
 30
0.0
 11
268.732051
 21
701.732051
 31
0.0
  0
LINE
  5
54
100
AcDbEntity
  8
0
100
AcDbLine
 10
424.732051
 20
562.732051
 30
0.0
 11
247.732051
 21
666.732051
 31
0.0
  0
LINE
  5
55
100
AcDbEntity
  8
0
100
AcDbLine
 10
424.732051
 20
537.732051
 30
0.0
 11
247.732051
 21
432.732051
 31
0.0
  0
LINE
  5
56
100
AcDbEntity
  8
0
100
AcDbLine
 10
446.732051
 20
498.732051
 30
0.0
 11
267.732051
 21
398.732051
 31
0.0
  0
LINE
  5
57
100
AcDbEntity
  8
0
100
AcDbLine
 10
467.366025
 20
487.098076
 30
0.0
 11
469.321298
 21
281.794458
 31
0.0
  0
LINE
  5
58
100
AcDbEntity
  8
0
100
AcDbLine
 10
512.366025
 20
488.098076
 30
0.0
 11
510.366025
 21
281.098076
 31
0.0
  0
LINE
  5
59
100
AcDbEntity
  8
0
100
AcDbLine
 10
555.366025
 20
539.098076
 30
0.0
 11
732.366025
 21
434.098076
 31
0.0
  0
LINE
  5
5A
100
AcDbEntity
  8
0
100
AcDbLine
 10
532.366025
 20
500.098076
 30
0.0
 11
712.366025
 21
399.098076
 31
0.0
  0
ARC
  5
5B
100
AcDbEntity
  8
0
100
AcDbCircle
 10
490.0
 20
550.0
 30
0.0
 40
274.0
100
AcDbArc
 50
155.357797
 51
204.721496
  0
ARC
  5
5C
100
AcDbEntity
  8
0
100
AcDbCircle
 10
490.0
 20
550.0
 30
0.0
 40
274.0
100
AcDbArc
 50
215.433005
 51
264.372555
  0
ARC
  5
5D
100
AcDbEntity
  8
0
100
AcDbCircle
 10
490.0
 20
550.0
 30
0.0
 40
274.0
100
AcDbArc
 50
335.731303
 51
24.669914
  0
ARC
  5
5E
100
AcDbEntity
  8
0
100
AcDbCircle
 10
490.0
 20
550.0
 30
0.0
 40
274.0
100
AcDbArc
 50
35.749865
 51
84.559082
  0
ARC
  5
5F
100
AcDbEntity
  8
0
100
AcDbCircle
 10
464.531728
 20
817.612024
 30
0.0
 40
5.192105
100
AcDbArc
 50
359.609529
 51
90.427257
  0
ARC
  5
60
100
AcDbEntity
  8
0
100
AcDbCircle
 10
515.168366
 20
817.415053
 30
0.0
 40
5.436534
100
AcDbArc
 50
80.661335
 51
177.054319
  0
ARC
  5
61
100
AcDbEntity
  8
0
100
AcDbCircle
 10
707.723128
 20
706.26637
 30
0.0
 40
6.05444
100
AcDbArc
 50
310.939003
 51
28.172845
  0
LINE
  5
62
100
AcDbEntity
  8
0
100
AcDbLine
 10
713.060282
 20
709.124871
 30
0.0
 11
712.424236
 21
710.102772
 31
0.0
  0
ARC
  5
63
100
AcDbEntity
  8
0
100
AcDbCircle
 10
734.187036
 20
661.160494
 30
0.0
 40
6.116203
100
AcDbArc
 50
46.379138
 51
114.093767
  0
LINE
  5
64
100
AcDbEntity
  8
0
100
AcDbLine
 10
738.450974
 20
665.543692
 30
0.0
 11
739.029194
 21
664.29909
 31
0.0
  0
ARC
  5
65
100
AcDbEntity
  8
0
100
AcDbCircle
 10
734.758816
 20
439.062251
 30
0.0
 40
5.476114
100
AcDbArc
 50
243.470964
 51
323.531929
  0
LINE
  5
66
100
AcDbEntity
  8
0
100
AcDbLine
 10
739.118154
 20
435.807388
 30
0.0
 11
739.785334
 21
437.36314
 31
0.0
  0
ARC
  5
67
100
AcDbEntity
  8
0
100
AcDbCircle
 10
708.294924
 20
394.623627
 30
0.0
 40
6.12413
100
AcDbArc
 50
326.179383
 51
48.079788
  0
LINE
  5
68
100
AcDbEntity
  8
0
100
AcDbLine
 10
712.510976
 20
390.094825
 30
0.0
 11
713.382754
 21
391.214969
 31
0.0
  0
ARC
  5
69
100
AcDbEntity
  8
0
100
AcDbCircle
 10
490.0
 20
550.0
 30
0.0
 40
274.0
100
AcDbArc
 50
275.426274
 51
324.312598
  0
ARC
  5
6A
100
AcDbEntity
  8
0
100
AcDbCircle
 10
514.533898
 20
281.216354
 30
0.0
 40
4.167629
100
AcDbArc
 50
181.268392
 51
284.856147
  0
LINE
  5
6B
100
AcDbEntity
  8
0
100
AcDbLine
 10
515.60245
 20
277.188038
 30
0.0
 11
515.944921
 21
277.236931
 31
0.0
  0
ARC
  5
6C
100
AcDbEntity
  8
0
100
AcDbCircle
 10
464.372313
 20
282.108131
 30
0.0
 40
4.939281
100
AcDbArc
 50
254.762248
 51
356.27831
  0
ARC
  5
6D
100
AcDbEntity
  8
0
100
AcDbCircle
 10
272.781689
 20
394.204566
 30
0.0
 40
6.750521
100
AcDbArc
 50
137.68257
 51
206.160945
  0
ARC
  5
6E
100
AcDbEntity
  8
0
100
AcDbCircle
 10
245.793925
 20
437.458472
 30
0.0
 40
5.101883
100
AcDbArc
 50
203.84174
 51
292.818877
  0
ARC
  5
6F
100
AcDbEntity
  8
0
100
AcDbCircle
 10
245.685985
 20
661.803714
 30
0.0
 40
5.321633
100
AcDbArc
 50
67.227378
 51
151.846446
  0
ARC
  5
70
100
AcDbEntity
  8
0
100
AcDbCircle
 10
276.297251
 20
706.712929
 30
0.0
 40
9.041386
100
AcDbArc
 50
149.507841
 51
213.676399
  0
ARC
  5
71
100
AcDbEntity
  8
0
100
AcDbCircle
 10
522.558911
 20
613.566936
 30
0.0
 40
10.947447
100
AcDbArc
 50
189.231425
 51
226.480981
  0
ARC
  5
72
100
AcDbEntity
  8
0
100
AcDbCircle
 10
452.299798
 20
610.982289
 30
0.0
 40
11.240771
100
AcDbArc
 50
245.954109
 51
285.994482
  0
ARC
  5
73
100
AcDbEntity
  8
0
100
AcDbCircle
 10
562.722782
 20
552.518462
 30
0.0
 40
12.215208
100
AcDbArc
 50
130.768594
 51
168.40185
  0
ARC
  5
74
100
AcDbEntity
  8
0
100
AcDbCircle
 10
490.0
 20
550.0
 30
0.0
 40
61.0
100
AcDbArc
 50
115.23538
 51
124.329626
  0
ARC
  5
75
100
AcDbEntity
  8
0
100
AcDbCircle
 10
490.0
 20
550.0
 30
0.0
 40
61.0
100
AcDbArc
 50
175.616228
 51
185.17176
  0
ARC
  5
76
100
AcDbEntity
  8
0
100
AcDbCircle
 10
490.0
 20
550.0
 30
0.0
 40
61.0
100
AcDbArc
 50
236.901612
 51
243.495945
  0
ARC
  5
77
100
AcDbEntity
  8
0
100
AcDbCircle
 10
490.0
 20
550.0
 30
0.0
 40
61.0
100
AcDbArc
 50
295.953405
 51
306.171681
  0
ARC
  5
78
100
AcDbEntity
  8
0
100
AcDbCircle
 10
490.0
 20
550.0
 30
0.0
 40
61.0
100
AcDbArc
 50
356.107871
 51
4.42576
  0
LINE
  5
79
100
AcDbEntity
  8
0
100
AcDbLine
 10
455.328655
 20
600.14175
 30
0.0
 11
455.635584
 21
600.387138
 31
0.0
  0
ARC
  5
7A
100
AcDbEntity
  8
0
100
AcDbCircle
 10
461.647647
 20
610.892804
 30
0.0
 40
6.139371
100
AcDbArc
 50
292.060316
 51
7.897767
  0
ARC
  5
7B
100
AcDbEntity
  8
0
100
AcDbCircle
 10
529.135235
 20
607.203734
 30
0.0
 40
8.304992
100
AcDbArc
 50
236.150063
 51
295.246506
  0
LINE
  5
7C
100
AcDbEntity
  8
0
100
AcDbLine
 10
524.494582
 20
600.314538
 30
0.0
 11
514.988575
 21
605.693476
 31
0.0
  0
ARC
  5
7D
100
AcDbEntity
  8
0
100
AcDbCircle
 10
558.966246
 20
546.360725
 30
0.0
 40
8.120878
100
AcDbArc
 50
183.992768
 51
243.223782
  0
LINE
  5
7E
100
AcDbEntity
  8
0
100
AcDbLine
 10
550.815168
 20
554.724744
 30
0.0
 11
550.815168
 21
555.073939
 31
0.0
  0
ARC
  5
7F
100
AcDbEntity
  8
0
100
AcDbCircle
 10
528.207583
 20
491.622147
 30
0.0
 40
9.393751
100
AcDbArc
 50
63.609806
 51
103.816845
  0
ARC
  5
80
100
AcDbEntity
  8
0
100
AcDbCircle
 10
520.466412
 20
487.987232
 30
0.0
 40
8.098256
100
AcDbArc
 50
117.999651
 51
179.440319
  0
ARC
  5
81
100
AcDbEntity
  8
0
100
AcDbCircle
 10
458.928398
 20
487.860741
 30
0.0
 40
8.463827
100
AcDbArc
 50
354.415814
 51
63.23685
  0
ARC
  5
82
100
AcDbEntity
  8
0
100
AcDbCircle
 10
451.910772
 20
489.725719
 30
0.0
 40
10.363231
100
AcDbArc
 50
62.165306
 51
119.891645
  0
ARC
  5
83
100
AcDbEntity
  8
0
100
AcDbCircle
 10
418.72354
 20
546.6998
 30
0.0
 40
10.74109
100
AcDbArc
 50
303.558686
 51
348.808843
  0
ARC
  5
84
100
AcDbEntity
  8
0
100
AcDbCircle
 10
419.449572
 20
554.505064
 30
0.0
 40
9.75631
100
AcDbArc
 50
1.236953
 51
57.316936
  0
LINE
  5
85
100
AcDbEntity
  8
1
100
AcDbLine
 10
418.366025
 20
838.098076
 30
0.0
 11
557.366025
 21
838.098076
 31
0.0
  0
ARC
  5
86
100
AcDbEntity
  8
0
100
AcDbCircle
 10
490.043281
 20
839.676083
 30
0.0
 40
23.130553
100
AcDbArc
 50
184.071308
 51
355.928692
  0
ARC
  5
87
100
AcDbEntity
  8
0
100
AcDbCircle
 10
459.678792
 20
827.822101
 30
0.0
 40
15.392379
100
AcDbArc
 50
78.472675
 51
83.447262
  0
ARC
  5
88
100
AcDbEntity
  8
0
100
AcDbCircle
 10
518.985084
 20
837.122887
 30
0.0
 40
5.931228
100
AcDbArc
 50
87.204531
 51
171.287248
  0
ARC
  5
89
100
AcDbEntity
  8
0
100
AcDbCircle
 10
460.974471
 20
837.082819
 30
0.0
 40
6.076217
100
AcDbArc
 50
9.121441
 51
73.149408
  0
LINE
  5
DD
100
AcDbEntity
  8
1
100
AcDbLine
 10
1300.0
 20
550.0
 30
0.0
 11
1120.0
 21
550.0
 31
0.0
  0
ARC
  5
DE
100
AcDbEntity
  8
0
100
AcDbCircle
 10
1127.716335
 20
581.48287
 30
0.0
 40
90.589837
100
AcDbArc
 50
350.838941
 51
6.533135
  0
LINE
  5
DF
100
AcDbEntity
  8
2
100
AcDbLine
 10
1181.5
 20
550.0
 30
0.0
 11
1181.5
 21
601.0
 31
0.0
  0
LINE
  5
E0
100
AcDbEntity
  8
0
100
AcDbLine
 10
1225.5
 20
550.0
 30
0.0
 11
1225.5
 21
606.0
 31
0.0
  0
LINE
  5
E1
100
AcDbEntity
  8
0
100
AcDbLine
 10
1263.5
 20
550.0
 30
0.0
 11
1263.5
 21
596.0
 31
0.0
  0
LINE
  5
E2
100
AcDbEntity
  8
0
100
AcDbLine
 10
1190.5
 20
550.0
 30
0.0
 11
1190.5
 21
830.0
 31
0.0
  0
LINE
  5
E3
100
AcDbEntity
  8
0
100
AcDbLine
 10
1149.5
 20
550.0
 30
0.0
 11
1149.5
 21
830.0
 31
0.0
  0
LINE
  5
E4
100
AcDbEntity
  8
1
100
AcDbLine
 10
1170.0
 20
550.0
 30
0.0
 11
1170.0
 21
880.0
 31
0.0
  0
LINE
  5
E5
100
AcDbEntity
  8
0
100
AcDbLine
 10
1217.686929
 20
491.370873
 30
0.0
 11
1190.555722
 21
341.34132
 31
0.0
  0
LINE
  5
E6
100
AcDbEntity
  8
1
100
AcDbLine
 10
1170.0
 20
550.0
 30
0.0
 11
1170.0
 21
220.0
 31
0.0
  0
LINE
  5
E7
100
AcDbEntity
  8
0
100
AcDbLine
 10
1149.5
 20
550.0
 30
0.0
 11
1149.5
 21
270.0
 31
0.0
  0
LINE
  5
E8
100
AcDbEntity
  8
0
100
AcDbLine
 10
1190.5
 20
550.0
 30
0.0
 11
1190.5
 21
270.0
 31
0.0
  0
LINE
  5
E9
100
AcDbEntity
  8
0
100
AcDbLine
 10
1190.5
 20
270.0
 30
0.0
 11
1190.5
 21
255.5
 31
0.0
  0
LINE
  5
EA
100
AcDbEntity
  8
0
100
AcDbLine
 10
1149.5
 20
270.0
 30
0.0
 11
1149.5
 21
255.5
 31
0.0
  0
ARC
  5
EB
100
AcDbEntity
  8
0
100
AcDbCircle
 10
1170.0
 20
255.5
 30
0.0
 40
20.5
100
AcDbArc
 50
180.0
 51
0.0
  0
LINE
  5
EC
100
AcDbEntity
  8
0
100
AcDbLine
 10
1190.558875
 20
341.349876
 30
0.0
 11
1190.499198
 21
341.051655
 31
0.0
  0
LINE
  5
ED
100
AcDbEntity
  8
0
100
AcDbLine
 10
1217.686929
 20
508.241669
 30
0.0
 11
1190.555722
 21
425.695282
 31
0.0
  0
LINE
  5
EE
100
AcDbEntity
  8
0
100
AcDbLine
 10
1192.967392
 20
540.175667
 30
0.0
 11
1190.555722
 21
532.945329
 31
0.0
  0
LINE
  5
EF
100
AcDbEntity
  8
0
100
AcDbLine
 10
1192.967392
 20
559.824333
 30
0.0
 11
1190.555722
 21
567.054671
 31
0.0
  0
LINE
  5
F0
100
AcDbEntity
  8
2
100
AcDbLine
 10
1181.5
 20
550.0
 30
0.0
 11
1181.5
 21
499.0
 31
0.0
  0
LINE
  5
F1
100
AcDbEntity
  8
2
100
AcDbLine
 10
1181.5
 20
499.0
 30
0.0
 11
1186.0
 21
494.0
 31
0.0
  0
LINE
  5
F2
100
AcDbEntity
  8
2
100
AcDbLine
 10
1186.0
 20
494.0
 30
0.0
 11
1190.5
 21
493.0
 31
0.0
  0
LINE
  5
F3
100
AcDbEntity
  8
0
100
AcDbLine
 10
1190.553099
 20
532.945922
 30
0.0
 11
1190.500856
 21
532.774371
 31
0.0
  0
LINE
  5
F4
100
AcDbEntity
  8
0
100
AcDbLine
 10
1190.553099
 20
567.054078
 30
0.0
 11
1190.500856
 21
567.225629
 31
0.0
  0
LINE
  5
F5
100
AcDbEntity
  8
0
100
AcDbLine
 10
1263.5
 20
550.0
 30
0.0
 11
1263.5
 21
504.0
 31
0.0
  0
LINE
  5
F6
100
AcDbEntity
  8
0
100
AcDbLine
 10
1225.5
 20
550.0
 30
0.0
 11
1225.5
 21
494.0
 31
0.0
  0
ARC
  5
F7
100
AcDbEntity
  8
0
100
AcDbCircle
 10
1127.716335
 20
518.51713
 30
0.0
 40
90.589837
100
AcDbArc
 50
353.466865
 51
9.161059
  0
LINE
  5
F8
100
AcDbEntity
  8
0
100
AcDbLine
 10
1258.5
 20
499.0
 30
0.0
 11
1225.5
 21
499.0
 31
0.0
  0
ARC
  5
F9
100
AcDbEntity
  8
0
100
AcDbCircle
 10
1209.017857
 20
492.673278
 30
0.0
 40
8.765611
100
AcDbArc
 50
351.664559
 51
27.986274
  0
ARC
  5
FA
100
AcDbEntity
  8
0
100
AcDbCircle
 10
1213.858138
 20
493.484542
 30
0.0
 40
4.394929
100
AcDbArc
 50
48.706606
 51
84.146203
  0
LINE
  5
FB
100
AcDbEntity
  8
0
100
AcDbLine
 10
1217.687251
 20
491.37039
 30
0.0
 11
1217.690936
 21
491.403649
 31
0.0
  0
ARC
  5
FC
100
AcDbEntity
  8
0
100
AcDbCircle
 10
1206.585784
 20
542.997549
 30
0.0
 40
52.521494
100
AcDbArc
 50
282.242788
 51
291.107771
  0
ARC
  5
FD
100
AcDbEntity
  8
0
100
AcDbCircle
 10
1258.3885
 20
504.1115
 30
0.0
 40
5.112716
100
AcDbArc
 50
271.249628
 51
358.750372
  0
ARC
  5
FE
100
AcDbEntity
  8
0
100
AcDbCircle
 10
1206.961796
 20
531.904882
 30
0.0
 40
10.234398
100
AcDbArc
 50
5.40605
 51
63.812918
  0
ARC
  5
FF
100
AcDbEntity
  8
0
100
AcDbCircle
 10
1201.587019
 20
505.401818
 30
0.0
 40
37.032385
100
AcDbArc
 50
74.508383
 51
94.997813
  0
ARC
  5
100
100
AcDbEntity
  8
0
100
AcDbCircle
 10
1199.783358
 20
531.050802
 30
0.0
 40
11.32356
100
AcDbArc
 50
96.855309
 51
126.978434
  0
ARC
  5
101
100
AcDbEntity
  8
0
100
AcDbCircle
 10
1199.783358
 20
568.949198
 30
0.0
 40
11.32356
100
AcDbArc
 50
233.021566
 51
263.144691
  0
ARC
  5
102
100
AcDbEntity
  8
0
100
AcDbCircle
 10
1201.587019
 20
594.598182
 30
0.0
 40
37.032385
100
AcDbArc
 50
265.002187
 51
285.491617
  0
ARC
  5
103
100
AcDbEntity
  8
0
100
AcDbCircle
 10
1206.961796
 20
568.095118
 30
0.0
 40
10.234398
100
AcDbArc
 50
296.187082
 51
354.59395
  0
LINE
  5
104
100
AcDbEntity
  8
0
100
AcDbLine
 10
1217.686929
 20
608.629127
 30
0.0
 11
1190.555722
 21
758.65868
 31
0.0
  0
LINE
  5
105
100
AcDbEntity
  8
0
100
AcDbLine
 10
1217.686929
 20
591.758331
 30
0.0
 11
1190.555722
 21
674.304718
 31
0.0
  0
LINE
  5
106
100
AcDbEntity
  8
2
100
AcDbLine
 10
1186.0
 20
606.0
 30
0.0
 11
1190.5
 21
607.0
 31
0.0
  0
LINE
  5
107
100
AcDbEntity
  8
2
100
AcDbLine
 10
1181.5
 20
601.0
 30
0.0
 11
1186.0
 21
606.0
 31
0.0
  0
LINE
  5
108
100
AcDbEntity
  8
0
100
AcDbLine
 10
1258.5
 20
601.0
 30
0.0
 11
1225.5
 21
601.0
 31
0.0
  0
ARC
  5
109
100
AcDbEntity
  8
0
100
AcDbCircle
 10
1206.585784
 20
557.002451
 30
0.0
 40
52.521494
100
AcDbArc
 50
68.892229
 51
77.757212
  0
LINE
  5
10A
100
AcDbEntity
  8
0
100
AcDbLine
 10
1217.687251
 20
608.62961
 30
0.0
 11
1217.690936
 21
608.596351
 31
0.0
  0
ARC
  5
10B
100
AcDbEntity
  8
0
100
AcDbCircle
 10
1213.858138
 20
606.515458
 30
0.0
 40
4.394929
100
AcDbArc
 50
275.853797
 51
311.293394
  0
ARC
  5
10C
100
AcDbEntity
  8
0
100
AcDbCircle
 10
1209.017857
 20
607.326722
 30
0.0
 40
8.765611
100
AcDbArc
 50
332.013726
 51
8.335441
  0
ARC
  5
10D
100
AcDbEntity
  8
0
100
AcDbCircle
 10
1258.3885
 20
595.8885
 30
0.0
 40
5.112716
100
AcDbArc
 50
1.249628
 51
88.750372
  0
LINE
  5
10E
100
AcDbEntity
  8
0
100
AcDbLine
 10
1190.558875
 20
758.650124
 30
0.0
 11
1190.499198
 21
758.948345
 31
0.0
  0
ARC
  5
10F
100
AcDbEntity
  8
0
100
AcDbCircle
 10
1170.0
 20
844.5
 30
0.0
 40
20.5
100
AcDbArc
 50
0.0
 51
180.0
  0
LINE
  5
111
100
AcDbEntity
  8
0
100
AcDbLine
 10
1190.5
 20
830.0
 30
0.0
 11
1190.5
 21
844.5
 31
0.0
  0
LINE
  5
14F
100
AcDbEntity
  8
1
100
AcDbLine
 10
1200.804257
 20
838.240621
 30
0.0
 11
941.622825
 21
838.240621
 31
0.0
  0
CIRCLE
  5
20F
100
AcDbEntity
  8
0
100
AcDbCircle
 10
490.0
 20
838.098076
 30
0.0
 40
11.0
  0
CIRCLE
  5
210
100
AcDbEntity
  8
0
100
AcDbCircle
 10
490.0
 20
838.098076
 30
0.0
 40
8.0
  0
CIRCLE
  5
211
100
AcDbEntity
  8
0
100
AcDbCircle
 10
490.0
 20
838.098076
 30
0.0
 40
7.0
  0
ENDSEC
  0
SECTION
  2
OBJECTS
  0
DICTIONARY
  5
1E8
100
AcDbDictionary
  3
ACAD_GROUP
350
1E9
  3
ACAD_MLINESTYLE
350
1F6
  3
ACDBVARIABLEDICTIONARY
350
20A
  0
DICTIONARY
  5
1E9
102
{ACAD_REACTORS
330
1E8
102
}
100
AcDbDictionary
  0
DICTIONARY
  5
1F6
102
{ACAD_REACTORS
330
1E8
102
}
100
AcDbDictionary
  3
STANDARD
350
1F7
  0
DICTIONARY
  5
20A
102
{ACAD_REACTORS
330
1E8
102
}
100
AcDbDictionary
  3
DIMADEC
350
20B
  0
MLINESTYLE
  5
1F7
102
{ACAD_REACTORS
330
1F6
102
}
100
AcDbMlineStyle
  2
STANDARD
 70
     0
  3

 62
   256
 51
90.0
 52
90.0
 71
     2
 49
0.5
 62
   256
  6
BYLAYER
 49
-0.5
 62
   256
  6
BYLAYER
  0
DICTIONARYVAR
  5
20B
102
{ACAD_REACTORS
330
20A
102
}
100
DictionaryVariables
280
     0
  1
0
  0
ENDSEC
  0
EOF
