  0
SECTION
  2
HEADER
  9
$ACADVER
  1
AC1015
  9
$ACADMAINTVER
 70
    13
  9
$DWGCODEPAGE
  3
ANSI_932
  9
$INSBASE
 10
0.0
 20
0.0
 30
0.0
  9
$EXTMIN
 10
154.6535898249907
 20
296.6246009810309
 30
0.0
  9
$EXTMAX
 10
861.6536098249909
 20
832.1801993810309
 30
0.0
  9
$LIMMIN
 10
0.0
 20
0.0
  9
$LIMMAX
 10
1600.0
 20
1200.0
  9
$ORTHOMODE
 70
     1
  9
$REGENMODE
 70
     1
  9
$FILLMODE
 70
     1
  9
$QTEXTMODE
 70
     0
  9
$MIRRTEXT
 70
     1
  9
$LTSCALE
 40
100.0
  9
$ATTMODE
 70
     1
  9
$TEXTSIZE
 40
55.0
  9
$TRACEWID
 40
0.05
  9
$TEXTSTYLE
  7
BIGFONT
  9
$CLAYER
  8
0
  9
$CELTYPE
  6
BYLAYER
  9
$CECOLOR
 62
   256
  9
$CELTSCALE
 40
1.0
  9
$DISPSILH
 70
     0
  9
$DIMSCALE
 40
10.0
  9
$DIMASZ
 40
3.0
  9
$DIMEXO
 40
2.0
  9
$DIMDLI
 40
0.38
  9
$DIMRND
 40
0.0
  9
$DIMDLE
 40
0.0
  9
$DIMEXE
 40
2.0
  9
$DIMTP
 40
0.0
  9
$DIMTM
 40
0.0
  9
$DIMTXT
 40
3.2
  9
$DIMCEN
 40
0.09
  9
$DIMTSZ
 40
0.0
  9
$DIMTOL
 70
     0
  9
$DIMLIM
 70
     0
  9
$DIMTIH
 70
     0
  9
$DIMTOH
 70
     0
  9
$DIMSE1
 70
     0
  9
$DIMSE2
 70
     0
  9
$DIMTAD
 70
     1
  9
$DIMZIN
 70
     0
  9
$DIMBLK
  1

  9
$DIMASO
 70
     0
  9
$DIMSHO
 70
     0
  9
$DIMPOST
  1

  9
$DIMAPOST
  1

  9
$DIMALT
 70
     0
  9
$DIMALTD
 70
     2
  9
$DIMALTF
 40
25.4
  9
$DIMLFAC
 40
1.0
  9
$DIMTOFL
 70
     0
  9
$DIMTVP
 40
1.6
  9
$DIMTIX
 70
     1
  9
$DIMSOXD
 70
     0
  9
$DIMSAH
 70
     0
  9
$DIMBLK1
  1

  9
$DIMBLK2
  1

  9
$DIMSTYLE
  2
STANDARD
  9
$DIMCLRD
 70
     0
  9
$DIMCLRE
 70
     0
  9
$DIMCLRT
 70
     0
  9
$DIMTFAC
 40
1.0
  9
$DIMGAP
 40
0.09
  9
$DIMJUST
 70
     0
  9
$DIMSD1
 70
     0
  9
$DIMSD2
 70
     0
  9
$DIMTOLJ
 70
     1
  9
$DIMTZIN
 70
     0
  9
$DIMALTZ
 70
     0
  9
$DIMALTTZ
 70
     0
  9
$DIMUPT
 70
     0
  9
$DIMDEC
 70
     4
  9
$DIMTDEC
 70
     4
  9
$DIMALTU
 70
     2
  9
$DIMALTTD
 70
     2
  9
$DIMTXSTY
  7
BIGFONT
  9
$DIMAUNIT
 70
     0
  9
$DIMADEC
 70
     0
  9
$DIMALTRND
 40
0.0
  9
$DIMAZIN
 70
     0
  9
$DIMDSEP
 70
    46
  9
$DIMATFIT
 70
     3
  9
$DIMFRAC
 70
     0
  9
$DIMLDRBLK
  1

  9
$DIMLUNIT
 70
     2
  9
$DIMLWD
 70
    -2
  9
$DIMLWE
 70
    -2
  9
$DIMTMOVE
 70
     0
  9
$LUNITS
 70
     2
  9
$LUPREC
 70
     4
  9
$SKETCHINC
 40
0.1
  9
$FILLETRAD
 40
0.0
  9
$AUNITS
 70
     0
  9
$AUPREC
 70
     0
  9
$MENU
  1
ACAD
  9
$ELEVATION
 40
0.0
  9
$PELEVATION
 40
0.0
  9
$THICKNESS
 40
0.0
  9
$LIMCHECK
 70
     0
  9
$CHAMFERA
 40
0.0
  9
$CHAMFERB
 40
0.0
  9
$CHAMFERC
 40
0.0
  9
$CHAMFERD
 40
0.0
  9
$SKPOLY
 70
     0
  9
$TDCREATE
 40
2450864.017078935
  9
$TDUCREATE
 40
2450863.642078935
  9
$TDUPDATE
 40
2456448.450894097
  9
$TDUUPDATE
 40
2456448.075894097
  9
$TDINDWG
 40
0.0025159028
  9
$TDUSRTIMER
 40
0.0025157292
  9
$USRTIMER
 70
     1
  9
$ANGBASE
 50
0.0
  9
$ANGDIR
 70
     0
  9
$PDMODE
 70
     0
  9
$PDSIZE
 40
0.0
  9
$PLINEWID
 40
0.0
  9
$SPLFRAME
 70
     0
  9
$SPLINETYPE
 70
     6
  9
$SPLINESEGS
 70
     8
  9
$HANDSEED
  5
649
  9
$SURFTAB1
 70
     6
  9
$SURFTAB2
 70
     6
  9
$SURFTYPE
 70
     6
  9
$SURFU
 70
     6
  9
$SURFV
 70
     6
  9
$UCSBASE
  2

  9
$UCSNAME
  2

  9
$UCSORG
 10
0.0
 20
0.0
 30
0.0
  9
$UCSXDIR
 10
1.0
 20
0.0
 30
0.0
  9
$UCSYDIR
 10
0.0
 20
1.0
 30
0.0
  9
$UCSORTHOREF
  2

  9
$UCSORTHOVIEW
 70
     0
  9
$UCSORGTOP
 10
0.0
 20
0.0
 30
0.0
  9
$UCSORGBOTTOM
 10
0.0
 20
0.0
 30
0.0
  9
$UCSORGLEFT
 10
0.0
 20
0.0
 30
0.0
  9
$UCSORGRIGHT
 10
0.0
 20
0.0
 30
0.0
  9
$UCSORGFRONT
 10
0.0
 20
0.0
 30
0.0
  9
$UCSORGBACK
 10
0.0
 20
0.0
 30
0.0
  9
$PUCSBASE
  2

  9
$PUCSNAME
  2

  9
$PUCSORG
 10
0.0
 20
0.0
 30
0.0
  9
$PUCSXDIR
 10
1.0
 20
0.0
 30
0.0
  9
$PUCSYDIR
 10
0.0
 20
1.0
 30
0.0
  9
$PUCSORTHOREF
  2

  9
$PUCSORTHOVIEW
 70
     0
  9
$PUCSORGTOP
 10
0.0
 20
0.0
 30
0.0
  9
$PUCSORGBOTTOM
 10
0.0
 20
0.0
 30
0.0
  9
$PUCSORGLEFT
 10
0.0
 20
0.0
 30
0.0
  9
$PUCSORGRIGHT
 10
0.0
 20
0.0
 30
0.0
  9
$PUCSORGFRONT
 10
0.0
 20
0.0
 30
0.0
  9
$PUCSORGBACK
 10
0.0
 20
0.0
 30
0.0
  9
$USERI1
 70
     0
  9
$USERI2
 70
     0
  9
$USERI3
 70
     0
  9
$USERI4
 70
     0
  9
$USERI5
 70
     0
  9
$USERR1
 40
0.0
  9
$USERR2
 40
0.0
  9
$USERR3
 40
0.0
  9
$USERR4
 40
0.0
  9
$USERR5
 40
0.0
  9
$WORLDVIEW
 70
     1
  9
$SHADEDGE
 70
     3
  9
$SHADEDIF
 70
    70
  9
$TILEMODE
 70
     1
  9
$MAXACTVP
 70
    16
  9
$PINSBASE
 10
0.0
 20
0.0
 30
0.0
  9
$PLIMCHECK
 70
     0
  9
$PEXTMIN
 10
1.000000000000000E+20
 20
1.000000000000000E+20
 30
1.000000000000000E+20
  9
$PEXTMAX
 10
-1.000000000000000E+20
 20
-1.000000000000000E+20
 30
-1.000000000000000E+20
  9
$PLIMMIN
 10
0.0
 20
0.0
  9
$PLIMMAX
 10
12.0
 20
9.0
  9
$UNITMODE
 70
     0
  9
$VISRETAIN
 70
     0
  9
$PLINEGEN
 70
     1
  9
$PSLTSCALE
 70
     0
  9
$TREEDEPTH
 70
  3020
  9
$CMLSTYLE
  2
STANDARD
  9
$CMLJUST
 70
     0
  9
$CMLSCALE
 40
1.0
  9
$PROXYGRAPHICS
 70
     1
  9
$MEASUREMENT
 70
     0
  9
$CELWEIGHT
370
    -1
  9
$ENDCAPS
280
     0
  9
$JOINSTYLE
280
     0
  9
$LWDISPLAY
290
     0
  9
$INSUNITS
 70
     0
  9
$HYPERLINKBASE
  1

  9
$STYLESHEET
  1

  9
$XEDIT
290
     1
  9
$CEPSNTYPE
380
     0
  9
$PSTYLEMODE
290
     1
  9
$FINGERPRINTGUID
  2
{91BCC78C-FAC1-4694-AF38-C574ED061432}
  9
$VERSIONGUID
  2
{B5E85CFF-1987-4CEF-B38D-22F6CDCF3CB2}
  9
$EXTNAMES
290
     1
  9
$PSVPSCALE
 40
0.0
  9
$OLESTARTUP
290
     0
  0
ENDSEC
  0
SECTION
  2
CLASSES
  0
CLASS
  1
DICTIONARYVAR
  2
AcDbDictionaryVar
  3
AutoCAD 2000
 90
        0
280
     0
281
     0
  0
CLASS
  1
ACDBDICTIONARYWDFLT
  2
AcDbDictionaryWithDefault
  3
AutoCAD 2000
 90
        0
280
     0
281
     0
  0
CLASS
  1
ACDBPLACEHOLDER
  2
AcDbPlaceHolder
  3
AutoCAD 2000
 90
        0
280
     0
281
     0
  0
CLASS
  1
LAYOUT
  2
AcDbLayout
  3
AutoCAD 2000
 90
        0
280
     0
281
     0
  0
CLASS
  1
AMGSETTINGSOBJ
  2
AmgSettingsObj
  3
"AcadM|Product Description: AutoCAD Mechanical 2000|Company: Autodesk"
 90
        0
280
     0
281
     0
  0
CLASS
  1
ACME_DOCUMENT
  2
AcMeDbDoc
  3
AcMeServices
 90
        0
280
     0
281
     0
  0
CLASS
  1
ACMESCOPE
  2
AcMeScope
  3
AcMeServices
 90
        0
280
     0
281
     0
  0
CLASS
  1
ACMECOMMANDHISTORY
  2
AcMeCommandHistory
  3
AcMeServices
 90
        0
280
     0
281
     0
  0
CLASS
  1
ACIMSYSVARMAN
  2
AcImSysVarManager
  3
AcMeServices
 90
        0
280
     0
281
     0
  0
CLASS
  1
ACIMREALSYSVAR
  2
AcImRealSysVar
  3
AcMeServices
 90
        0
280
     0
281
     0
  0
CLASS
  1
ACIMINTSYSVAR
  2
AcImIntSysVar
  3
AcMeServices
 90
        0
280
     0
281
     0
  0
CLASS
  1
ACMEDRAWINGMAN
  2
AcMeDrawingMan
  3
AcMeServices
 90
        0
280
     0
281
     0
  0
CLASS
  1
ACMEVIEW
  2
AcMeView
  3
AcMeServices
 90
        0
280
     0
281
     0
  0
CLASS
  1
ACDBENTITYCACHE
  2
AcMeEntityCache
  3
AcMeServices
 90
        0
280
     0
281
     0
  0
CLASS
  1
GSMANAGER
  2
AcMeGSManager
  3
AcMeServices
 90
        0
280
     0
281
     0
  0
CLASS
  1
AMDTINTERNALREACTOR
  2
AmdtInternalReactor
  3
AcMeServices
 90
        0
280
     0
281
     0
  0
CLASS
  1
ACMESTATEMGR
  2
AcMeStateMgr
  3
AcMeServices
 90
        0
280
     0
281
     0
  0
CLASS
  1
ACGREFMASTER
  2
AcGrefMaster
  3
AcAttribServices
 90
        0
280
     0
281
     0
  0
CLASS
  1
AM_DRAWING_MGR
  2
AcDmDwgMgr
  3
AcMechDwgViewMgmt
 90
        0
280
     0
281
     0
  0
CLASS
  1
AM_DWG_DOCUMENT
  2
AcDmDwgDocument
  3
AcMechDwgViewMgmt
 90
        0
280
     0
281
     0
  0
CLASS
  1
AM_DWG_SHEET
  2
AcDmSheet
  3
AcMechDwgViewMgmt
 90
        0
280
     0
281
     0
  0
CLASS
  1
AM_VIEWDIMPARMAP
  2
AcDmViewDimParMap
  3
AcMechDwgViewMgmt
 90
        0
280
     0
281
     0
  0
CLASS
  1
AM_DWGMGR_NAME
  2
AcDmDwgMgrName
  3
AcMechDwgViewMgmt
 90
        0
280
     0
281
     0
  0
CLASS
  1
ACME_DATABASE
  2
AcMeDbDatabase
  3
AcMeServices
 90
        0
280
     0
281
     0
  0
CLASS
  1
ACRFINSADJUSTERMGR
  2
AcRfInsAdjusterMgr
  3
AcMeServices
 90
        0
280
     0
281
     0
  0
CLASS
  1
ACGREFACADMASTER
  2
AcGrefacadMaster
  3
AcGrefServices
 90
        0
280
     0
281
     0
  0
CLASS
  1
AMDTMENUSTATEMGR
  2
AmdtMenuStateMgr
  3
McadcomServices
 90
        0
280
     0
281
     0
  0
CLASS
  1
AMDTMCOMMENUSTATE
  2
AmdtMcomMenuState
  3
McadcomServices
 90
        0
280
     0
281
     0
  0
CLASS
  1
AMIMASTER
  2
AmiMaster
  3
AmiServices
 90
        0
280
     0
281
     0
  0
CLASS
  1
ASAPP
  2
AcAsAppObject
  3
AutoSurfServices
 90
        0
280
     0
281
     0
  0
CLASS
  1
IM_STATIC_MAN
  2
AcImStaticVarManager
  3
AcMeServices
 90
        0
280
     0
281
     0
  0
CLASS
  1
ACIMSTRSYSVAR
  2
AcImStrSysVar
  3
AcMeServices
 90
        0
280
     0
281
     0
  0
CLASS
  1
ACIMDBLSTATICVAR
  2
AcImDblStaticVar
  3
AcMeServices
 90
        0
280
     0
281
     0
  0
CLASS
  1
ACIMSTRSTATICVAR
  2
AcImStrStaticVar
  3
AcMeServices
 90
        0
280
     0
281
     0
  0
CLASS
  1
ACIMINTSTATICVAR
  2
AcImIntStaticVar
  3
AcMeServices
 90
        0
280
     0
281
     0
  0
CLASS
  1
ACASGREFMASTER
  2
AcAsGrefMaster
  3
AutoSurfResolverServices
 90
        0
280
     0
281
     0
  0
CLASS
  1
ACADGREFMODULE
  2
AcAdGrefModule
  3
AdGrefServices
 90
        0
280
     0
281
     0
  0
CLASS
  1
AMDTMAPISURFMOUDULE
  2
AmdtMApiSurfModule
  3
MApiSurfServices
 90
        0
280
     0
281
     0
  0
CLASS
  1
MAPIAMMOUDLE
  2
MApiAmModule
  3
MApiAmServices
 90
        0
280
     0
281
     0
  0
CLASS
  1
AMDTADMENUSTATE
  2
AmdtAdMenuState
  3
DesignerServices
 90
        0
280
     0
281
     0
  0
CLASS
  1
ADAPPL
  2
AcAdAppl
  3
DesignerServices
 90
        0
280
     0
281
     0
  0
CLASS
  1
DEPMGR
  2
AcAdDepMgr
  3
DesignerServices
 90
        0
280
     0
281
     0
  0
CLASS
  1
PARAMMGR
  2
AcAdParamMgr
  3
DesignerServices
 90
        0
280
     0
281
     0
  0
CLASS
  1
PARAMSCOPE
  2
AcAdParamScope
  3
DesignerServices
 90
        0
280
     0
281
     0
  0
CLASS
  1
NAMEDAPPL
  2
AcAdNamedAppl
  3
DesignerServices
 90
        0
280
     0
281
     0
  0
CLASS
  1
AMDTDMMENUSTATE
  2
AmdtDmMenuState
  3
AcMechDwgViewMgmt
 90
        0
280
     0
281
     0
  0
CLASS
  1
MAPIADMODULE
  2
MApiAdModule
  3
MApiAdServices
 90
        0
280
     0
281
     0
  0
CLASS
  1
AMDTAMMENUSTATE
  2
AmdtAmMenuState
  3
DesignerAssemblies
 90
        0
280
     0
281
     0
  0
CLASS
  1
ACAMPROJECT
  2
AcAmProject
  3
DesignerAssemblies
 90
        0
280
     0
281
     0
  0
CLASS
  1
ACAMGRCOMPDEF
  2
AcAmGrCompDef
  3
DesignerAssemblies
 90
        0
280
     0
281
     0
  0
CLASS
  1
ACCMCONTEXT
  2
AcCmContext
  3
DesignerAssemblies
 90
        0
280
     0
281
     0
  0
CLASS
  1
ACAMCOMPDEF
  2
AcAmCompDef
  3
DesignerAssemblies
 90
        0
280
     0
281
     0
  0
CLASS
  1
ACAMCOMPDEFMGR
  2
AcAmCompDefMgr
  3
DesignerAssemblies
 90
        0
280
     0
281
     0
  0
CLASS
  1
AMCONTEXTMGR
  2
AcAmContextMgr
  3
DesignerAssemblies
 90
        0
280
     0
281
     0
  0
CLASS
  1
ACAMCONTEXTMODELER
  2
AcAmContextModeler
  3
DesignerAssemblies
 90
        0
280
     0
281
     0
  0
CLASS
  1
ACMDATADICTIONARY
  2
AcmDataDictionary
  3
"AcmSymBB|Product Description: AutoCAD Mechanical 2000|Company: Autodesk"
 90
        0
280
     0
281
     0
  0
CLASS
  1
ACMDATAENTRYBLOCK
  2
AcmDataEntryBlock
  3
"AcmSymBB|Product Description: AutoCAD Mechanical 2000|Company: Autodesk"
 90
        0
280
     0
281
     0
  0
CLASS
  1
CATALOGSTATE
  2
AcAmCatalogState
  3
DesignerAssemblies
 90
        0
280
     0
281
     0
  0
CLASS
  1
ACAMGRCOMPDEFSET
  2
AcAmGrCompDefSet
  3
DesignerAssemblies
 90
        0
280
     0
281
     0
  0
CLASS
  1
AMDTBROWSERDBTAB
  2
AmdtBrowserDbTab
  3
McadcomServices
 90
        0
280
     0
281
     0
  0
CLASS
  1
CBROWSERAPPOBJECT
  2
CBrowserAppObject
  3
McadcomServices
 90
        0
280
     0
281
     0
  0
CLASS
  1
DM_PLACEHOLDER
  2
AcDmSelsetPlaceholder
  3
AcMechDwgViewMgmt
 90
        0
280
     0
281
     0
  0
CLASS
  1
AMGOBJPROPCFG
  2
AmgObjPropCfg
  3
"AmgLay|Product Description: AutoCAD Mechanical 2000|Company: Autodesk"
 90
        1
280
     0
281
     0
  0
CLASS
  1
ACAMGFILTERDAT
  2
AcAmgFilterDat
  3
"AcadM|Product Description: AutoCAD Mechanical 2000|Company: Autodesk"
 90
        0
280
     0
281
     0
  0
CLASS
  1
ACMSTANDARDANSI
  2
AcmStandardANSI
  3
"Amdt_StdImp|Product Description: AutoCAD Mechanical 2000|Company: Autodesk"
 90
        0
280
     0
281
     0
  0
CLASS
  1
ACMSURFSTANDARDANSI
  2
AcmSurfTextStdANSI
  3
"Amdt_StdImp|Product Description: AutoCAD Mechanical 2000|Company: Autodesk"
 90
        0
280
     0
281
     0
  0
CLASS
  1
ACMFCFSTANDARDANSI
  2
AcmFCFStdANSI
  3
"Amdt_StdImp|Product Description: AutoCAD Mechanical 2000|Company: Autodesk"
 90
        0
280
     0
281
     0
  0
CLASS
  1
ACMWELDSTANDARDANSI
  2
AcmWeldingStdANSI
  3
"Amdt_StdImp|Product Description: AutoCAD Mechanical 2000|Company: Autodesk"
 90
        0
280
     0
281
     0
  0
CLASS
  1
ACMIDSTANDARDANSI
  2
AcmIdStdANSI
  3
"Amdt_StdImp|Product Description: AutoCAD Mechanical 2000|Company: Autodesk"
 90
        0
280
     0
281
     0
  0
CLASS
  1
ACMDATUMSTANDARDANSI
  2
AcmDatumStdANSI
  3
"Amdt_StdImp|Product Description: AutoCAD Mechanical 2000|Company: Autodesk"
 90
        0
280
     0
281
     0
  0
CLASS
  1
ACMBOMSTANDARDANSI
  2
AcmBOMStdANSI
  3
"Amdt_StdImp|Product Description: AutoCAD Mechanical 2000|Company: Autodesk"
 90
        0
280
     0
281
     0
  0
CLASS
  1
ACMDETAILSTANDARDANSI
  2
AmdtDetailSymStdANSI
  3
"Amdt_StdImp|Product Description: AutoCAD Mechanical 2000|Company: Autodesk"
 90
        0
280
     0
281
     0
  0
CLASS
  1
ACMSECTIONSTANDARDANSI
  2
AmdtSectionSymStdANSI
  3
"Amdt_StdImp|Product Description: AutoCAD Mechanical 2000|Company: Autodesk"
 90
        0
280
     0
281
     0
  0
CLASS
  1
ACMCENTERLINESTANDARDANSI
  2
AmdtCenterLineStdANSI
  3
"Amdt_StdImp|Product Description: AutoCAD Mechanical 2000|Company: Autodesk"
 90
        0
280
     0
281
     0
  0
CLASS
  1
ACMTHREADLINESTANDARDANSI
  2
AmdtThreadLineStdANSI
  3
"Amdt_StdImp|Product Description: AutoCAD Mechanical 2000|Company: Autodesk"
 90
        0
280
     0
281
     0
  0
CLASS
  1
ACMNOTESTANDARDANSI
  2
AmdtNoteStdANSI
  3
"Amdt_StdImp|Product Description: AutoCAD Mechanical 2000|Company: Autodesk"
 90
        0
280
     0
281
     0
  0
CLASS
  1
ACAMGLAYSTD
  2
AcAmgLayStd
  3
"AcAmgLayStd|Product Description: AutoCAD Mechanical 2000|Company: Autodesk"
 90
        0
280
     0
281
     0
  0
CLASS
  1
ACAMGDIMSTD
  2
AcAmgDimStd
  3
"AcAmgDimStd|Product Description: AutoCAD Mechanical 2000|Company: Autodesk"
 90
        0
280
     0
281
     0
  0
CLASS
  1
ACAMGHOLECHARTSTDANSI
  2
AcAmgHoleChartStdANSI
  3
ACMSYMBB_MODULE_NAME
 90
        0
280
     0
281
     0
  0
CLASS
  1
ACAMGTITLESTD
  2
AcAmgTitleStd
  3
"TITLEAPP"
 90
        0
280
     0
281
     0
  0
CLASS
  1
AMDTFORMULAUPDATEDISPATCHER
  2
AmdtFormulaUpdateDispatcher
  3
AcMeServices
 90
        0
280
     0
281
     0
  0
CLASS
  1
LAYER_INDEX
  2
AcDbLayerIndex
  3
AutoCAD 2000
 90
        0
280
     0
281
     0
  0
CLASS
  1
IDBUFFER
  2
AcDbIdBuffer
  3
AutoCAD 2000
 90
        0
280
     0
281
     0
  0
ENDSEC
  0
SECTION
  2
TABLES
  0
TABLE
  2
VPORT
  5
18C
330
0
100
AcDbSymbolTable
 70
     3
  0
VPORT
  5
648
330
18C
100
AcDbSymbolTableRecord
100
AcDbViewportTableRecord
  2
*Active
 70
     0
 10
0.0
 20
0.0
 11
1.0
 21
1.0
 12
0.0
 22
0.0
 13
0.0
 23
0.0
 14
5.0
 24
5.0
 15
10.0
 25
10.0
 16
0.0
 26
0.0
 36
1.0
 17
841.8101171757175
 27
669.1037619999999
 37
0.0
 40
1269.508288
 41
1.489721886336154
 42
50.0
 43
0.0
 44
0.0
 50
0.0
 51
0.0
 71
     0
 72
   500
 73
     1
 74
     1
 75
     0
 76
     0
 77
     0
 78
     0
281
     0
 65
     0
110
0.0
120
0.0
130
0.0
111
1.0
121
0.0
131
0.0
112
0.0
122
1.0
132
0.0
 79
     0
146
0.0
  0
ENDTAB
  0
TABLE
  2
LTYPE
  5
189
330
0
100
AcDbSymbolTable
 70
    20
  0
LTYPE
  5
195
330
189
100
AcDbSymbolTableRecord
100
AcDbLinetypeTableRecord
  2
BYBLOCK
 70
     0
  3

 72
    65
 73
     0
 40
0.0
  0
LTYPE
  5
196
330
189
100
AcDbSymbolTableRecord
100
AcDbLinetypeTableRecord
  2
BYLAYER
 70
     0
  3

 72
    65
 73
     0
 40
0.0
  0
LTYPE
  5
197
330
189
100
AcDbSymbolTableRecord
100
AcDbLinetypeTableRecord
  2
CONTINUOUS
 70
     0
  3
実線
 72
    65
 73
     0
 40
0.0
  0
LTYPE
  5
1A5
330
189
100
AcDbSymbolTableRecord
100
AcDbLinetypeTableRecord
  2
CENTER
 70
     0
  3
____ _ ____ _ ____ _ ____ _ ____ _ ____ _ ____
 72
    65
 73
     4
 40
2.0
 49
1.25
 74
     0
 49
-0.25
 74
     0
 49
0.25
 74
     0
 49
-0.25
 74
     0
  0
LTYPE
  5
1A6
330
189
100
AcDbSymbolTableRecord
100
AcDbLinetypeTableRecord
  2
TENSEN1
 70
     0
  3

 72
    65
 73
     2
 40
0.4
 49
0.3
 74
     0
 49
-0.1
 74
     0
  0
LTYPE
  5
1EA
330
189
100
AcDbSymbolTableRecord
100
AcDbLinetypeTableRecord
  2
HIDDEN
 70
     0
  3
Hidden __ __ __ __ __ __ __ __ __ __ __ __ __ _
 72
    65
 73
     2
 40
0.375
 49
0.25
 74
     0
 49
-0.125
 74
     0
  0
LTYPE
  5
1EB
330
189
100
AcDbSymbolTableRecord
100
AcDbLinetypeTableRecord
  2
PHANTOM2
 70
     0
  3
Phantom (.5x) ___ _ _ ___ _ _ ___ _ _ ___ _ _
 72
    65
 73
     6
 40
1.25
 49
0.625
 74
     0
 49
-0.125
 74
     0
 49
0.125
 74
     0
 49
-0.125
 74
     0
 49
0.125
 74
     0
 49
-0.125
 74
     0
  0
LTYPE
  5
24D
330
189
100
AcDbSymbolTableRecord
100
AcDbLinetypeTableRecord
  2
ASULTYPE
 70
     0
  3
実線
 72
    65
 73
     2
 40
3.0
 49
2.5
 74
     0
 49
0.5
 74
     0
  0
LTYPE
  5
24E
330
189
100
AcDbSymbolTableRecord
100
AcDbLinetypeTableRecord
  2
ASVLTYPE
 70
     0
  3
__ __ __ __ __ __ __ __ __ __ __ __ __ __ __ __ __ __ __ __ __
 72
    65
 73
     2
 40
0.75
 49
0.5
 74
     0
 49
-0.25
 74
     0
  0
LTYPE
  5
28F
330
189
100
AcDbSymbolTableRecord
100
AcDbLinetypeTableRecord
  2
AM_ISO02W050
 70
     0
  3
__ __ __ __ __ __ __ __ __ __ __ __ __ __ __
 72
    65
 73
     2
 40
7.5
 49
6.0
 74
     0
 49
-1.5
 74
     0
  0
LTYPE
  5
290
330
189
100
AcDbSymbolTableRecord
100
AcDbLinetypeTableRecord
  2
AM_ISO08W050
 70
     0
  3
____ . ____ . ____ . ____ . ____ . ____ . ____
 72
    65
 73
     4
 40
18.0
 49
12.0
 74
     0
 49
-1.5
 74
     0
 49
3.0
 74
     0
 49
-1.5
 74
     0
  0
LTYPE
  5
291
330
189
100
AcDbSymbolTableRecord
100
AcDbLinetypeTableRecord
  2
AM_ISO09W050
 70
     0
  3
_____ . . _____ . . _____ . . ____ .. ____
 72
    65
 73
     6
 40
22.5
 49
12.0
 74
     0
 49
-1.5
 74
     0
 49
3.0
 74
     0
 49
-1.5
 74
     0
 49
3.0
 74
     0
 49
-1.5
 74
     0
  0
LTYPE
  5
292
330
189
100
AcDbSymbolTableRecord
100
AcDbLinetypeTableRecord
  2
Amconstr
 70
     0
  3
_______________________
 72
    65
 73
     2
 40
9999.0
 49
9999.0
 74
     0
 49
0.0
 74
     0
  0
LTYPE
  5
293
330
189
100
AcDbSymbolTableRecord
100
AcDbLinetypeTableRecord
  2
AM_ISO08W050x2
 70
     0
  3
__ . __ . __ . __ . __ . __
 72
    65
 73
     4
 40
9.0
 49
6.0
 74
     0
 49
-0.75
 74
     0
 49
1.5
 74
     0
 49
-0.75
 74
     0
  0
LTYPE
  5
294
330
189
100
AcDbSymbolTableRecord
100
AcDbLinetypeTableRecord
  2
AM_ISO02W050x2
 70
     0
  3
 _ _ _ _ _ _ _ _ _ _ _ _
 72
    65
 73
     2
 40
3.75
 49
3.0
 74
     0
 49
-0.75
 74
     0
  0
LTYPE
  5
297
330
189
100
AcDbSymbolTableRecord
100
AcDbLinetypeTableRecord
  2
Amzigzag
 70
     0
  3
/\/-/\/-/\/-/\/-/\/-/\/
 72
    65
 73
     2
 40
11.00009999999999
 49
0.0001
 74
     4
 75
   135
340
296
 46
0.04
 50
0.0
 44
0.0
 45
0.0
 49
-11.0
 74
     0
  0
LTYPE
  5
298
330
189
100
AcDbSymbolTableRecord
100
AcDbLinetypeTableRecord
  2
CENTER2
 70
     0
  3
Center (.5x) ___ _ ___ _ ___ _ ___ _ ___ _ ___
 72
    65
 73
     4
 40
1.125
 49
0.75
 74
     0
 49
-0.125
 74
     0
 49
0.125
 74
     0
 49
-0.125
 74
     0
  0
LTYPE
  5
299
330
189
100
AcDbSymbolTableRecord
100
AcDbLinetypeTableRecord
  2
HIDDEN2
 70
     0
  3
Hidden (.5x) _ _ _ _ _ _ _ _ _ _ _ _ _ _ _ _ _
 72
    65
 73
     2
 40
0.1875
 49
0.125
 74
     0
 49
-0.0625
 74
     0
  0
LTYPE
  5
29A
330
189
100
AcDbSymbolTableRecord
100
AcDbLinetypeTableRecord
  2
Amzigzag2
 70
     0
  3
/\/-/\/-/\/-/\/-/\/-/\/
 72
    65
 73
     2
 40
0.4401
 49
0.0001
 74
     4
 75
   135
340
296
 46
0.0016
 50
0.0
 44
0.0
 45
0.0
 49
-0.4400000000000001
 74
     0
  0
LTYPE
  5
323
330
189
100
AcDbSymbolTableRecord
100
AcDbLinetypeTableRecord
  2
ITTEN1
 70
     0
  3

 72
    65
 73
     4
 40
8.199999999999999
 49
5.0
 74
     0
 49
-1.0
 74
     0
 49
1.199999999999999
 74
     0
 49
-1.0
 74
     0
  0
LTYPE
  5
324
330
189
100
AcDbSymbolTableRecord
100
AcDbLinetypeTableRecord
  2
ACANSTGB
 70
     0
  3
__ . . __ . .
 72
    65
 73
     6
 40
0.35433070866
 49
0.15748031496
 74
     0
 49
-0.03937007874
 74
     0
 49
0.03937007874
 74
     0
 49
-0.03937007874
 74
     0
 49
0.03937007874
 74
     0
 49
-0.03937007874
 74
     0
  0
LTYPE
  5
325
330
189
100
AcDbSymbolTableRecord
100
AcDbLinetypeTableRecord
  2
ACANSTGL
 70
     0
  3
_ _ _ _ _
 72
    65
 73
     2
 40
0.11811023622
 49
0.07874015748
 74
     0
 49
-0.03937007874
 74
     0
  0
ENDTAB
  0
TABLE
  2
LAYER
  5
186
330
0
100
AcDbSymbolTable
 70
     7
  0
LAYER
  5
192
330
186
100
AcDbSymbolTableRecord
100
AcDbLayerTableRecord
  2
0
 70
     0
 62
     7
  6
CONTINUOUS
370
    -3
390
1C1
  0
LAYER
  5
1AA
330
186
100
AcDbSymbolTableRecord
100
AcDbLayerTableRecord
  2
1
 70
     0
 62
     1
  6
CENTER
370
    -3
390
1C1
  0
LAYER
  5
1AB
330
186
100
AcDbSymbolTableRecord
100
AcDbLayerTableRecord
  2
10
 70
     0
 62
     7
  6
CONTINUOUS
370
    -3
390
1C1
  0
LAYER
  5
1AC
330
186
100
AcDbSymbolTableRecord
100
AcDbLayerTableRecord
  2
11
 70
     0
 62
     3
  6
CONTINUOUS
370
    -3
390
1C1
  0
LAYER
  5
1AD
330
186
100
AcDbSymbolTableRecord
100
AcDbLayerTableRecord
  2
2
 70
     0
 62
     7
  6
TENSEN1
370
    -3
390
1C1
  0
LAYER
  5
326
330
186
100
AcDbSymbolTableRecord
100
AcDbLayerTableRecord
  2
3
 70
     0
 62
     7
  6
CONTINUOUS
370
    53
390
1C1
  0
LAYER
  5
327
330
186
100
AcDbSymbolTableRecord
100
AcDbLayerTableRecord
  2
DEFPOINTS
 70
     0
 62
     7
  6
CONTINUOUS
290
     0
370
    -3
390
1C1
  0
ENDTAB
  0
TABLE
  2
STYLE
  5
187
330
0
100
AcDbSymbolTable
 70
     7
  0
STYLE
  5
193
330
187
100
AcDbSymbolTableRecord
100
AcDbTextStyleTableRecord
  2
STANDARD
 70
     0
 40
0.0
 41
1.0
 50
0.0
 71
     0
 42
0.2
  3
TXT
  4
extfont.shx
  0
STYLE
  5
1A2
330
187
100
AcDbSymbolTableRecord
100
AcDbTextStyleTableRecord
  2
K80
 70
     0
 40
0.0
 41
0.8
 50
0.0
 71
     0
 42
0.2
  3
TXT
  4
extfont.shx
  0
STYLE
  5
1A3
330
187
100
AcDbSymbolTableRecord
100
AcDbTextStyleTableRecord
  2
07500
 70
     0
 40
0.0
 41
0.75
 50
0.0
 71
     0
 42
0.2
  3
TXT
  4
extfont.shx
  0
STYLE
  5
1A4
330
187
100
AcDbSymbolTableRecord
100
AcDbTextStyleTableRecord
  2
BIGFONT
 70
     0
 40
55.0
 41
1.0
 50
0.0
 71
     0
 42
55.0
  3

  4
extfont.shx
  0
STYLE
  5
296
330
187
100
AcDbSymbolTableRecord
100
AcDbTextStyleTableRecord
  2

 70
     1
 40
0.0
 41
1.0
 50
0.0
 71
     0
 42
55.0
  3
ltypeshp.shx
  4

  0
STYLE
  5
328
330
187
100
AcDbSymbolTableRecord
100
AcDbTextStyleTableRecord
  2
ACANSTS
 70
     0
 40
1.0
 41
1.0
 50
0.0
 71
     0
 42
10.0
  3
romans.shx
  4
extfont.shx
  0
STYLE
  5
329
330
187
100
AcDbSymbolTableRecord
100
AcDbTextStyleTableRecord
  2
ACANSGDT
 70
     0
 40
0.0
 41
1.0
 50
0.0
 71
     0
 42
10.0
  3
amgdtans.shx
  4

  0
ENDTAB
  0
TABLE
  2
VIEW
  5
18A
330
0
100
AcDbSymbolTable
 70
     1
  0
VIEW
  5
1A7
330
18A
100
AcDbSymbolTableRecord
100
AcDbViewTableRecord
  2
ALL
 70
     0
 40
2700.0
 10
2209.915966
 20
1350.0
 41
0.0
 11
0.0
 21
0.0
 31
1.0
 12
0.0
 22
0.0
 32
0.0
 42
50.0
 43
0.0
 44
0.0
 50
0.0
 71
     0
281
     0
 72
     0
  0
ENDTAB
  0
TABLE
  2
UCS
  5
18B
330
0
100
AcDbSymbolTable
 70
     0
  0
ENDTAB
  0
TABLE
  2
APPID
  5
18D
330
0
100
AcDbSymbolTable
 70
    12
  0
APPID
  5
194
330
18D
100
AcDbSymbolTableRecord
100
AcDbRegAppTableRecord
  2
ACAD
 70
     0
  0
APPID
  5
1C9
330
18D
100
AcDbSymbolTableRecord
100
AcDbRegAppTableRecord
  2
GENIUS_GENDIM_13
 70
     0
  0
APPID
  5
1CA
330
18D
100
AcDbSymbolTableRecord
100
AcDbRegAppTableRecord
  2
GENIUS_GENDTOL_13
 70
     0
  0
APPID
  5
1CB
330
18D
100
AcDbSymbolTableRecord
100
AcDbRegAppTableRecord
  2
GENIUS_GE3DTOL_13
 70
     0
  0
APPID
  5
1CD
330
18D
100
AcDbSymbolTableRecord
100
AcDbRegAppTableRecord
  2
MCAD_NO_VIS
 70
     0
  0
APPID
  5
1CE
330
18D
100
AcDbSymbolTableRecord
100
AcDbRegAppTableRecord
  2
ACAD_TEMP_GRAPHIC
 70
     0
  0
APPID
  5
200
330
18D
100
AcDbSymbolTableRecord
100
AcDbRegAppTableRecord
  2
AD_DRAW
 70
     0
  0
APPID
  5
203
330
18D
100
AcDbSymbolTableRecord
100
AcDbRegAppTableRecord
  2
ACATTRIBSERVICES
 70
     0
  0
APPID
  5
24F
330
18D
100
AcDbSymbolTableRecord
100
AcDbRegAppTableRecord
  2
ASURF_PCURVE_APPNAME
 70
     0
  0
APPID
  5
27E
330
18D
100
AcDbSymbolTableRecord
100
AcDbRegAppTableRecord
  2
DESIGNERASSEMBLIES
 70
     0
  0
APPID
  5
286
330
18D
100
AcDbSymbolTableRecord
100
AcDbRegAppTableRecord
  2
ACADM_DIM_EDIT
 70
     0
  0
APPID
  5
287
330
18D
100
AcDbSymbolTableRecord
100
AcDbRegAppTableRecord
  2
AMDT_DM_ADJ
 70
     0
  0
ENDTAB
  0
TABLE
  2
DIMSTYLE
  5
18E
330
0
100
AcDbSymbolTable
 70
     7
100
AcDbDimStyleTable
 71
     0
  0
DIMSTYLE
105
1A9
330
18E
100
AcDbSymbolTableRecord
100
AcDbDimStyleTableRecord
  2
STANDARD
 70
     0
340
1A4
  0
DIMSTYLE
105
32A
330
18E
100
AcDbSymbolTableRecord
100
AcDbDimStyleTableRecord
  2
AM_ANSI
 70
     0
  4
mm
 41
0.1
 42
0.05
 43
0.5
 44
0.1
 47
0.1
 48
0.1
 78
     7
 79
     2
140
0.12
141
0.0
146
0.71
147
0.06
176
   256
177
   256
178
     2
274
     4
284
     7
340
193
371
    -1
372
    -1
  0
DIMSTYLE
105
32B
330
18E
100
AcDbSymbolTableRecord
100
AcDbDimStyleTableRecord
  2
AM_ANSI$3
 70
     0
  4
mm
 41
0.1
 42
0.05
 43
0.5
 44
0.1
 47
0.1
 48
0.1
 78
     7
 79
     2
140
0.12
141
0.0
146
0.71
147
0.06
176
   256
177
   256
178
     2
274
     4
284
     7
288
     1
289
     0
340
193
371
    -1
372
    -1
  0
DIMSTYLE
105
32C
330
18E
100
AcDbSymbolTableRecord
100
AcDbDimStyleTableRecord
  2
AM_ANSI$4
 70
     0
  4
mm
 41
0.1
 42
0.05
 43
0.5
 44
0.1
 47
0.1
 48
0.1
 78
     7
 79
     2
140
0.12
141
0.0
146
0.71
147
0.06
176
   256
177
   256
178
     2
274
     4
284
     7
288
     1
289
     0
340
193
371
    -1
372
    -1
  0
DIMSTYLE
105
32D
330
18E
100
AcDbSymbolTableRecord
100
AcDbDimStyleTableRecord
  2
AM_ANSI$7
 70
     0
  4
mm
 41
0.1
 42
0.05
 43
0.5
 44
0.1
 47
0.1
 48
0.1
 78
     7
 79
     2
140
0.24
141
0.0
146
0.71
147
0.06
176
   256
177
   256
178
     2
274
     4
284
     7
340
193
371
    -1
372
    -1
  0
DIMSTYLE
105
32E
330
18E
100
AcDbSymbolTableRecord
100
AcDbDimStyleTableRecord
  2
AM_ANSI$SF
 70
     0
  4
mm
 41
0.1
 42
0.05
 43
0.5
 44
0.1
 47
0.1
 48
0.1
 75
     1
 76
     1
 78
     7
 79
     2
140
0.12
141
0.0
146
0.71
147
0.06
176
   256
177
   256
178
     2
274
     4
284
     7
340
193
371
    -1
372
    -1
  0
DIMSTYLE
105
32F
330
18E
100
AcDbSymbolTableRecord
100
AcDbDimStyleTableRecord
  2
AM_ANSI$SH
 70
     0
  4
mm
 41
0.1
 42
0.05
 43
0.5
 44
0.1
 47
0.1
 48
0.1
 75
     1
 76
     1
 78
     7
 79
     2
140
0.12
141
0.0
146
0.71
147
0.06
173
     1
176
   256
177
   256
178
     2
274
     4
284
     7
340
193
343
2BD
371
    -1
372
    -1
  0
ENDTAB
  0
TABLE
  2
BLOCK_RECORD
  5
185
330
0
100
AcDbSymbolTable
 70
    25
  0
BLOCK_RECORD
  5
19B
102
{ACAD_XDICTIONARY
360
63C
102
}
330
185
100
AcDbSymbolTableRecord
100
AcDbBlockTableRecord
  2
*MODEL_SPACE
340
1C4
  0
BLOCK_RECORD
  5
198
330
185
100
AcDbSymbolTableRecord
100
AcDbBlockTableRecord
  2
*PAPER_SPACE
340
1C5
  0
BLOCK_RECORD
  5
1A0
330
185
100
AcDbSymbolTableRecord
100
AcDbBlockTableRecord
  2
WAKU
340
0
  0
BLOCK_RECORD
  5
1A1
330
185
100
AcDbSymbolTableRecord
100
AcDbBlockTableRecord
  2
QQ
340
0
  0
BLOCK_RECORD
  5
275
330
185
100
AcDbSymbolTableRecord
100
AcDbBlockTableRecord
  2
*U2
340
0
  0
BLOCK_RECORD
  5
2A5
330
185
100
AcDbSymbolTableRecord
100
AcDbBlockTableRecord
  2
*D3
340
0
  0
BLOCK_RECORD
  5
2B0
330
185
100
AcDbSymbolTableRecord
100
AcDbBlockTableRecord
  2
*D4
340
0
  0
BLOCK_RECORD
  5
2BD
330
185
100
AcDbSymbolTableRecord
100
AcDbBlockTableRecord
  2
GENAXEH
340
0
  0
BLOCK_RECORD
  5
2C1
330
185
100
AcDbSymbolTableRecord
100
AcDbBlockTableRecord
  2
*D6
340
0
  0
BLOCK_RECORD
  5
2CE
330
185
100
AcDbSymbolTableRecord
100
AcDbBlockTableRecord
  2
*D7
340
0
  0
BLOCK_RECORD
  5
2DB
330
185
100
AcDbSymbolTableRecord
100
AcDbBlockTableRecord
  2
*D8
340
0
  0
BLOCK_RECORD
  5
2E8
330
185
100
AcDbSymbolTableRecord
100
AcDbBlockTableRecord
  2
*D9
340
0
  0
BLOCK_RECORD
  5
2F5
330
185
100
AcDbSymbolTableRecord
100
AcDbBlockTableRecord
  2
*D10
340
0
  0
BLOCK_RECORD
  5
302
330
185
100
AcDbSymbolTableRecord
100
AcDbBlockTableRecord
  2
*D11
340
0
  0
BLOCK_RECORD
  5
30D
330
185
100
AcDbSymbolTableRecord
100
AcDbBlockTableRecord
  2
*D12
340
0
  0
BLOCK_RECORD
  5
318
330
185
100
AcDbSymbolTableRecord
100
AcDbBlockTableRecord
  2
*D13
340
0
  0
BLOCK_RECORD
  5
512
330
185
100
AcDbSymbolTableRecord
100
AcDbBlockTableRecord
  2
*D15
340
0
  0
BLOCK_RECORD
  5
51F
330
185
100
AcDbSymbolTableRecord
100
AcDbBlockTableRecord
  2
*D16
340
0
  0
BLOCK_RECORD
  5
52A
330
185
100
AcDbSymbolTableRecord
100
AcDbBlockTableRecord
  2
*D17
340
0
  0
BLOCK_RECORD
  5
535
330
185
100
AcDbSymbolTableRecord
100
AcDbBlockTableRecord
  2
*D18
340
0
  0
BLOCK_RECORD
  5
540
330
185
100
AcDbSymbolTableRecord
100
AcDbBlockTableRecord
  2
*D19
340
0
  0
BLOCK_RECORD
  5
54D
330
185
100
AcDbSymbolTableRecord
100
AcDbBlockTableRecord
  2
*D20
340
0
  0
BLOCK_RECORD
  5
559
330
185
100
AcDbSymbolTableRecord
100
AcDbBlockTableRecord
  2
*D21
340
0
  0
BLOCK_RECORD
  5
565
330
185
100
AcDbSymbolTableRecord
100
AcDbBlockTableRecord
  2
*D22
340
0
  0
BLOCK_RECORD
  5
571
330
185
100
AcDbSymbolTableRecord
100
AcDbBlockTableRecord
  2
*D23
340
0
  0
BLOCK_RECORD
  5
57D
330
185
100
AcDbSymbolTableRecord
100
AcDbBlockTableRecord
  2
*D24
340
0
  0
ENDTAB
  0
ENDSEC
  0
SECTION
  2
BLOCKS
  0
BLOCK
  5
1B0
330
19B
100
AcDbEntity
  8
0
100
AcDbBlockBegin
  2
*MODEL_SPACE
 70
     0
 10
0.0
 20
0.0
 30
0.0
  3
*MODEL_SPACE
  1

  0
ENDBLK
  5
1B1
330
19B
100
AcDbEntity
  8
0
100
AcDbBlockEnd
  0
BLOCK
  5
1AE
330
198
100
AcDbEntity
 67
     1
  8
0
100
AcDbBlockBegin
  2
*PAPER_SPACE
 70
     0
 10
0.0
 20
0.0
 30
0.0
  3
*PAPER_SPACE
  1

  0
ENDBLK
  5
1AF
330
198
100
AcDbEntity
 67
     1
  8
0
100
AcDbBlockEnd
  0
BLOCK
  5
2E
330
1A0
100
AcDbEntity
  8
0
100
AcDbBlockBegin
  2
WAKU
 70
     0
 10
549.0
 20
0.0
 30
0.0
  3
WAKU
  1

  0
LINE
  5
2F
330
1A0
100
AcDbEntity
  8
11
100
AcDbLine
 10
452.0
 20
12.0
 30
0.0
 11
549.0
 21
12.0
 31
0.0
  0
LINE
  5
30
330
1A0
100
AcDbEntity
  8
11
100
AcDbLine
 10
477.0
 20
0.0
 30
0.0
 11
477.0
 21
12.0
 31
0.0
  0
LINE
  5
31
330
1A0
100
AcDbEntity
  8
11
100
AcDbLine
 10
452.0
 20
12.0
 30
0.0
 11
452.0
 21
0.0
 31
0.0
  0
TEXT
  5
32
330
1A0
100
AcDbEntity
  8
11
100
AcDbText
 10
454.0
 20
8.5
 30
0.0
 40
2.5
  1
尺度
100
AcDbText
  0
TEXT
  5
33
330
1A0
100
AcDbEntity
  8
11
100
AcDbText
 10
479.0
 20
8.5
 30
0.0
 40
2.5
  1
図番
100
AcDbText
  0
ENDBLK
  5
34
330
1A0
100
AcDbEntity
  8
0
100
AcDbBlockEnd
  0
BLOCK
  5
35
330
1A1
100
AcDbEntity
  8
0
100
AcDbBlockBegin
  2
QQ
 70
     0
 10
270.0
 20
0.0
 30
0.0
  3
QQ
  1

  0
LINE
  5
36
330
1A1
100
AcDbEntity
  8
11
100
AcDbLine
 10
173.0
 20
36.0
 30
0.0
 11
270.0
 21
36.0
 31
0.0
  0
TEXT
  5
37
330
1A1
100
AcDbEntity
  8
11
100
AcDbText
 10
175.0
 20
32.5
 30
0.0
 40
2.5
  1
部品名称
100
AcDbText
  0
LINE
  5
38
330
1A1
100
AcDbEntity
  8
11
100
AcDbLine
 10
173.0
 20
36.0
 30
0.0
 11
173.0
 21
0.0
 31
0.0
  0
LINE
  5
39
330
1A1
100
AcDbEntity
  8
11
100
AcDbLine
 10
173.0
 20
24.0
 30
0.0
 11
270.0
 21
24.0
 31
0.0
  0
TEXT
  5
3A
330
1A1
100
AcDbEntity
  8
11
100
AcDbText
 10
175.0
 20
20.5
 30
0.0
 40
2.5
  1
品番
100
AcDbText
  0
LINE
  5
3B
330
1A1
100
AcDbEntity
  8
11
100
AcDbLine
 10
173.0
 20
12.0
 30
0.0
 11
270.0
 21
12.0
 31
0.0
  0
TEXT
  5
3C
330
1A1
100
AcDbEntity
  8
11
100
AcDbText
 10
175.0
 20
8.5
 30
0.0
 40
2.5
  1
尺度
100
AcDbText
  0
TEXT
  5
3D
330
1A1
100
AcDbEntity
  8
11
100
AcDbText
 10
200.0
 20
8.5
 30
0.0
 40
2.5
  1
図番
100
AcDbText
  0
LINE
  5
3E
330
1A1
100
AcDbEntity
  8
11
100
AcDbLine
 10
198.0
 20
0.0
 30
0.0
 11
198.0
 21
12.0
 31
0.0
  0
ENDBLK
  5
3F
330
1A1
100
AcDbEntity
  8
0
100
AcDbBlockEnd
  0
BLOCK
  5
276
330
275
100
AcDbEntity
  8
0
100
AcDbBlockBegin
  2
*U2
 70
     1
 10
0.0
 20
0.0
 30
0.0
  3
*U2
  1

  0
ENDBLK
  5
277
330
275
100
AcDbEntity
  8
0
100
AcDbBlockEnd
  0
BLOCK
  5
2AE
330
2A5
100
AcDbEntity
  8
0
100
AcDbBlockBegin
  2
*D3
 70
     1
 10
0.0
 20
0.0
 30
0.0
  3
*D3
  1

  0
LINE
  5
2A6
330
2A5
100
AcDbEntity
  8
0
 62
     0
370
    -2
100
AcDbLine
 10
304.4299957792452
 20
435.3680693058274
 30
0.0
 11
302.4299957792452
 21
435.3680693058274
 31
0.0
  0
LINE
  5
2A7
330
2A5
100
AcDbEntity
  8
0
 62
     0
370
    -2
100
AcDbLine
 10
302.4299957792452
 20
435.3680693058274
 30
0.0
 11
285.4430143387936
 21
404.2609098436689
 31
0.0
  0
MTEXT
  5
2A8
330
2A5
100
AcDbEntity
  8
0
 62
     0
100
AcDbMText
 10
311.1866624459119
 20
435.3680693058274
 30
0.0
 40
5.0
 41
0.0
 71
     5
 72
     1
  1
\A1;\U+220598
 73
     1
 44
1.0
  0
SOLID
  5
2A9
330
2A5
100
AcDbEntity
  8
0
 62
     0
100
AcDbTrace
 10
285.150459372495
 20
404.4206681073211
 30
0.0
 11
285.7355693050921
 21
404.1011515800167
 31
0.0
 12
284.4844647568805
 22
402.5055800458775
 32
0.0
 13
284.4844647568805
 23
402.5055800458775
 33
0.0
  0
LINE
  5
2AA
330
2A5
100
AcDbEntity
  8
0
 62
     0
370
    -2
100
AcDbLine
 10
260.9100000000115
 20
359.4999999999885
 30
0.0
 11
261.0900000000114
 21
359.4999999999885
 31
0.0
  0
LINE
  5
2AB
330
2A5
100
AcDbEntity
  8
0
 62
     0
370
    -2
100
AcDbLine
 10
261.0000000000114
 20
359.4099999999885
 30
0.0
 11
261.0000000000114
 21
359.5899999999885
 31
0.0
  0
POINT
  5
2AC
330
2A5
100
AcDbEntity
  8
DEFPOINTS
 62
     0
100
AcDbPoint
 10
284.4844647568805
 20
402.5055800458775
 30
0.0
  0
POINT
  5
2AD
330
2A5
100
AcDbEntity
  8
DEFPOINTS
 62
     0
100
AcDbPoint
 10
237.5155352431422
 20
316.4944199540995
 30
0.0
  0
ENDBLK
  5
2AF
330
2A5
100
AcDbEntity
  8
0
100
AcDbBlockEnd
  0
BLOCK
  5
2BB
330
2B0
100
AcDbEntity
  8
0
100
AcDbBlockBegin
  2
*D4
 70
     1
 10
0.0
 20
0.0
 30
0.0
  3
*D4
  1

  0
LINE
  5
2B1
330
2B0
100
AcDbEntity
  8
0
 62
     0
370
    -2
100
AcDbLine
 10
310.0731999674367
 20
584.4999999999995
 30
0.0
 11
527.0000000000001
 21
584.4999999999995
 31
0.0
  0
LINE
  5
2B2
330
2B0
100
AcDbEntity
  8
0
 62
     0
370
    -2
100
AcDbLine
 10
516.4444647999991
 20
359.4999999999995
 30
0.0
 11
527.0000000000001
 21
359.4999999999995
 31
0.0
  0
LINE
  5
2B3
330
2B0
100
AcDbEntity
  8
0
 62
     0
370
    -2
100
AcDbLine
 10
526.0000000000001
 20
582.4999999999995
 30
0.0
 11
526.0000000000001
 21
479.7566666666666
 31
0.0
  0
LINE
  5
2B4
330
2B0
100
AcDbEntity
  8
0
 62
     0
370
    -2
100
AcDbLine
 10
526.0000000000001
 20
361.4999999999995
 30
0.0
 11
526.0000000000001
 21
466.2433333333332
 31
0.0
  0
SOLID
  5
2B5
330
2B0
100
AcDbEntity
  8
0
 62
     0
100
AcDbTrace
 10
525.6666666666667
 20
582.4999999999995
 30
0.0
 11
526.3333333333334
 21
582.4999999999995
 31
0.0
 12
526.0000000000001
 22
584.4999999999995
 32
0.0
 13
526.0000000000001
 23
584.4999999999995
 33
0.0
  0
SOLID
  5
2B6
330
2B0
100
AcDbEntity
  8
0
 62
     0
100
AcDbTrace
 10
525.6666666666667
 20
361.4999999999995
 30
0.0
 11
526.3333333333334
 21
361.4999999999995
 31
0.0
 12
526.0000000000001
 22
359.4999999999995
 32
0.0
 13
526.0000000000001
 23
359.4999999999995
 33
0.0
  0
MTEXT
  5
2B7
330
2B0
100
AcDbEntity
  8
0
 62
     0
100
AcDbMText
 10
526.0
 20
473.0
 30
0.0
 40
5.0
 41
0.0
 71
     5
 72
     1
  1
\A1;225
 11
0.0000000000000001
 21
1.0
 31
0.0
 73
     1
 44
1.0
  0
POINT
  5
2B8
330
2B0
100
AcDbEntity
  8
DEFPOINTS
 62
     0
100
AcDbPoint
 10
309.0731999674367
 20
584.4999999999995
 30
0.0
  0
POINT
  5
2B9
330
2B0
100
AcDbEntity
  8
DEFPOINTS
 62
     0
100
AcDbPoint
 10
515.4444647999992
 20
359.4999999999995
 30
0.0
  0
POINT
  5
2BA
330
2B0
100
AcDbEntity
  8
DEFPOINTS
 62
     0
100
AcDbPoint
 10
526.0000000000001
 20
359.4999999999995
 30
0.0
  0
ENDBLK
  5
2BC
330
2B0
100
AcDbEntity
  8
0
100
AcDbBlockEnd
  0
BLOCK
  5
2BF
330
2BD
100
AcDbEntity
  8
0
100
AcDbBlockBegin
  2
GENAXEH
 70
     0
 10
0.0
 20
0.0
 30
0.0
  3
GENAXEH
  1

  0
LINE
  5
2BE
330
2BD
100
AcDbEntity
  8
0
100
AcDbLine
 10
-1.0
 20
0.0
 30
0.0
 11
1.0
 21
0.0
 31
0.0
  0
ENDBLK
  5
2C0
330
2BD
100
AcDbEntity
  8
0
100
AcDbBlockEnd
  0
BLOCK
  5
2CC
330
2C1
100
AcDbEntity
  8
0
100
AcDbBlockBegin
  2
*D6
 70
     1
 10
0.0
 20
0.0
 30
0.0
  3
*D6
  1

  0
LINE
  5
2C2
330
2C1
100
AcDbEntity
  8
0
 62
     0
370
    -2
100
AcDbLine
 10
619.7758408283107
 20
595.5499999999999
 30
0.0
 11
578.0026220848439
 21
595.5499999999999
 31
0.0
  0
LINE
  5
2C3
330
2C1
100
AcDbEntity
  8
0
 62
     0
370
    -2
100
AcDbLine
 10
619.7758408283108
 20
573.45
 30
0.0
 11
578.0026220848439
 21
573.45
 31
0.0
  0
LINE
  5
2C4
330
2C1
100
AcDbEntity
  8
0
 62
     0
370
    -2
100
AcDbLine
 10
579.0026220848439
 20
593.5499999999999
 30
0.0
 11
579.0026220848439
 21
592.7582454145555
 31
0.0
  0
LINE
  5
2C5
330
2C1
100
AcDbEntity
  8
0
 62
     0
370
    -2
100
AcDbLine
 10
579.0026220848439
 20
575.45
 30
0.0
 11
579.0026220848439
 21
579.2449120812221
 31
0.0
  0
SOLID
  5
2C6
330
2C1
100
AcDbEntity
  8
0
 62
     0
100
AcDbTrace
 10
578.6692887515105
 20
593.5499999999999
 30
0.0
 11
579.3359554181773
 21
593.5499999999999
 31
0.0
 12
579.0026220848439
 22
595.5499999999999
 32
0.0
 13
579.0026220848439
 23
595.5499999999999
 33
0.0
  0
SOLID
  5
2C7
330
2C1
100
AcDbEntity
  8
0
 62
     0
100
AcDbTrace
 10
578.6692887515105
 20
575.45
 30
0.0
 11
579.3359554181773
 21
575.45
 31
0.0
 12
579.0026220848439
 22
573.45
 32
0.0
 13
579.0026220848439
 23
573.45
 33
0.0
  0
MTEXT
  5
2C8
330
2C1
100
AcDbEntity
  8
0
 62
     0
100
AcDbMText
 10
579.0026220848438
 20
586.0015787478889
 30
0.0
 40
5.0
 41
0.0
 71
     5
 72
     1
  1
\A1;22.1
 11
0.0000000000000001
 21
1.0
 31
0.0
 73
     1
 44
1.0
  0
POINT
  5
2C9
330
2C1
100
AcDbEntity
  8
DEFPOINTS
 62
     0
100
AcDbPoint
 10
620.7758408283106
 20
595.5499999999999
 30
0.0
  0
POINT
  5
2CA
330
2C1
100
AcDbEntity
  8
DEFPOINTS
 62
     0
100
AcDbPoint
 10
620.7758408283108
 20
573.45
 30
0.0
  0
POINT
  5
2CB
330
2C1
100
AcDbEntity
  8
DEFPOINTS
 62
     0
100
AcDbPoint
 10
579.0026220848439
 20
573.45
 30
0.0
  0
ENDBLK
  5
2CD
330
2C1
100
AcDbEntity
  8
0
100
AcDbBlockEnd
  0
BLOCK
  5
2D9
330
2CE
100
AcDbEntity
  8
0
100
AcDbBlockBegin
  2
*D7
 70
     1
 10
0.0
 20
0.0
 30
0.0
  3
*D7
  1

  0
LINE
  5
2CF
330
2CE
100
AcDbEntity
  8
0
 62
     0
370
    -2
100
AcDbLine
 10
707.5
 20
400.4999999999999
 30
0.0
 11
767.3395922777585
 21
400.4999999999999
 31
0.0
  0
LINE
  5
2D0
330
2CE
100
AcDbEntity
  8
0
 62
     0
370
    -2
100
AcDbLine
 10
707.5
 20
318.5
 30
0.0
 11
767.3395922777585
 21
318.5
 31
0.0
  0
LINE
  5
2D1
330
2CE
100
AcDbEntity
  8
0
 62
     0
370
    -2
100
AcDbLine
 10
766.3395922777584
 20
398.4999999999999
 30
0.0
 11
766.3395922777584
 21
369.4841503595736
 31
0.0
  0
LINE
  5
2D2
330
2CE
100
AcDbEntity
  8
0
 62
     0
370
    -2
100
AcDbLine
 10
766.3395922777584
 20
320.5
 30
0.0
 11
766.3395922777584
 21
355.9708170262402
 31
0.0
  0
SOLID
  5
2D3
330
2CE
100
AcDbEntity
  8
0
 62
     0
100
AcDbTrace
 10
766.0062589444251
 20
398.4999999999999
 30
0.0
 11
766.6729256110918
 21
398.4999999999999
 31
0.0
 12
766.3395922777584
 22
400.4999999999999
 32
0.0
 13
766.3395922777584
 23
400.4999999999999
 33
0.0
  0
SOLID
  5
2D4
330
2CE
100
AcDbEntity
  8
0
 62
     0
100
AcDbTrace
 10
766.0062589444251
 20
320.5
 30
0.0
 11
766.6729256110918
 21
320.5
 31
0.0
 12
766.3395922777584
 22
318.5
 32
0.0
 13
766.3395922777584
 23
318.5
 33
0.0
  0
MTEXT
  5
2D5
330
2CE
100
AcDbEntity
  8
0
 62
     0
100
AcDbMText
 10
766.3395922777583
 20
362.727483692907
 30
0.0
 40
5.0
 41
0.0
 71
     5
 72
     1
  1
\A1;%%C82
 11
0.0000000000000001
 21
1.0
 31
0.0
 73
     1
 44
1.0
  0
POINT
  5
2D6
330
2CE
100
AcDbEntity
  8
DEFPOINTS
 62
     0
100
AcDbPoint
 10
706.5
 20
400.4999999999999
 30
0.0
  0
POINT
  5
2D7
330
2CE
100
AcDbEntity
  8
DEFPOINTS
 62
     0
100
AcDbPoint
 10
706.5
 20
318.5
 30
0.0
  0
POINT
  5
2D8
330
2CE
100
AcDbEntity
  8
DEFPOINTS
 62
     0
100
AcDbPoint
 10
766.3395922777584
 20
318.5
 30
0.0
  0
ENDBLK
  5
2DA
330
2CE
100
AcDbEntity
  8
0
100
AcDbBlockEnd
  0
BLOCK
  5
2E6
330
2DB
100
AcDbEntity
  8
0
100
AcDbBlockBegin
  2
*D8
 70
     1
 10
0.0
 20
0.0
 30
0.0
  3
*D8
  1

  0
LINE
  5
2DC
330
2DB
100
AcDbEntity
  8
0
 62
     0
370
    -2
100
AcDbLine
 10
685.5
 20
404.4999999999999
 30
0.0
 11
685.5
 21
447.647719537796
 31
0.0
  0
LINE
  5
2DD
330
2DB
100
AcDbEntity
  8
0
 62
     0
370
    -2
100
AcDbLine
 10
711.5
 20
396.5
 30
0.0
 11
711.5
 21
447.647719537796
 31
0.0
  0
LINE
  5
2DE
330
2DB
100
AcDbEntity
  8
0
 62
     0
370
    -2
100
AcDbLine
 10
687.5
 20
446.6477195377961
 30
0.0
 11
694.5718163830226
 21
446.6477195377961
 31
0.0
  0
LINE
  5
2DF
330
2DB
100
AcDbEntity
  8
0
 62
     0
370
    -2
100
AcDbLine
 10
709.4999999999999
 20
446.6477195377961
 30
0.0
 11
703.085149716356
 21
446.6477195377961
 31
0.0
  0
SOLID
  5
2E0
330
2DB
100
AcDbEntity
  8
0
 62
     0
100
AcDbTrace
 10
687.5
 20
446.9810528711294
 30
0.0
 11
687.5
 21
446.3143862044628
 31
0.0
 12
685.5
 22
446.6477195377961
 32
0.0
 13
685.5
 23
446.6477195377961
 33
0.0
  0
SOLID
  5
2E1
330
2DB
100
AcDbEntity
  8
0
 62
     0
100
AcDbTrace
 10
709.4999999999999
 20
446.9810528711294
 30
0.0
 11
709.4999999999999
 21
446.3143862044628
 31
0.0
 12
711.5
 22
446.6477195377961
 32
0.0
 13
711.5
 23
446.6477195377961
 33
0.0
  0
MTEXT
  5
2E2
330
2DB
100
AcDbEntity
  8
0
 62
     0
100
AcDbMText
 10
698.8284830496893
 20
446.6477195377961
 30
0.0
 40
5.0
 41
0.0
 71
     5
 72
     1
  1
\A1;26
 73
     1
 44
1.0
  0
POINT
  5
2E3
330
2DB
100
AcDbEntity
  8
DEFPOINTS
 62
     0
100
AcDbPoint
 10
685.5
 20
403.5
 30
0.0
  0
POINT
  5
2E4
330
2DB
100
AcDbEntity
  8
DEFPOINTS
 62
     0
100
AcDbPoint
 10
711.5
 20
395.5
 30
0.0
  0
POINT
  5
2E5
330
2DB
100
AcDbEntity
  8
DEFPOINTS
 62
     0
100
AcDbPoint
 10
711.5
 20
446.6477195377961
 30
0.0
  0
ENDBLK
  5
2E7
330
2DB
100
AcDbEntity
  8
0
100
AcDbBlockEnd
  0
BLOCK
  5
2F3
330
2E8
100
AcDbEntity
  8
0
100
AcDbBlockBegin
  2
*D9
 70
     1
 10
0.0
 20
0.0
 30
0.0
  3
*D9
  1

  0
LINE
  5
2E9
330
2E8
100
AcDbEntity
  8
0
 62
     0
370
    -2
100
AcDbLine
 10
651.5
 20
401.4999999999999
 30
0.0
 11
651.5
 21
468.4114898444732
 31
0.0
  0
LINE
  5
2EA
330
2E8
100
AcDbEntity
  8
0
 62
     0
370
    -2
100
AcDbLine
 10
711.5
 20
396.5
 30
0.0
 11
711.5
 21
468.4114898444732
 31
0.0
  0
LINE
  5
2EB
330
2E8
100
AcDbEntity
  8
0
 62
     0
370
    -2
100
AcDbLine
 10
653.5
 20
467.4114898444732
 30
0.0
 11
683.7366307412456
 21
467.4114898444732
 31
0.0
  0
LINE
  5
2EC
330
2E8
100
AcDbEntity
  8
0
 62
     0
370
    -2
100
AcDbLine
 10
709.4999999999999
 20
467.4114898444732
 30
0.0
 11
691.4166307412457
 21
467.4114898444732
 31
0.0
  0
SOLID
  5
2ED
330
2E8
100
AcDbEntity
  8
0
 62
     0
100
AcDbTrace
 10
653.5
 20
467.7448231778065
 30
0.0
 11
653.5
 21
467.0781565111398
 31
0.0
 12
651.5
 22
467.4114898444732
 32
0.0
 13
651.5
 23
467.4114898444732
 33
0.0
  0
SOLID
  5
2EE
330
2E8
100
AcDbEntity
  8
0
 62
     0
100
AcDbTrace
 10
709.4999999999999
 20
467.7448231778065
 30
0.0
 11
709.4999999999999
 21
467.0781565111398
 31
0.0
 12
711.5
 22
467.4114898444732
 32
0.0
 13
711.5
 23
467.4114898444732
 33
0.0
  0
MTEXT
  5
2EF
330
2E8
100
AcDbEntity
  8
0
 62
     0
100
AcDbMText
 10
687.5766307412456
 20
467.4114898444732
 30
0.0
 40
5.0
 41
0.0
 71
     5
 72
     1
  1
\A1;60
 73
     1
 44
1.0
  0
POINT
  5
2F0
330
2E8
100
AcDbEntity
  8
DEFPOINTS
 62
     0
100
AcDbPoint
 10
651.5
 20
400.4999999999999
 30
0.0
  0
POINT
  5
2F1
330
2E8
100
AcDbEntity
  8
DEFPOINTS
 62
     0
100
AcDbPoint
 10
711.5
 20
395.5
 30
0.0
  0
POINT
  5
2F2
330
2E8
100
AcDbEntity
  8
DEFPOINTS
 62
     0
100
AcDbPoint
 10
711.5
 20
467.4114898444732
 30
0.0
  0
ENDBLK
  5
2F4
330
2E8
100
AcDbEntity
  8
0
100
AcDbBlockEnd
  0
BLOCK
  5
300
330
2F5
100
AcDbEntity
  8
0
100
AcDbBlockBegin
  2
*D10
 70
     1
 10
0.0
 20
0.0
 30
0.0
  3
*D10
  1

  0
LINE
  5
2F6
330
2F5
100
AcDbEntity
  8
0
 62
     0
370
    -2
100
AcDbLine
 10
636.5
 20
609.4999999999999
 30
0.0
 11
574.1806526081131
 21
609.4999999999999
 31
0.0
  0
LINE
  5
2F7
330
2F5
100
AcDbEntity
  8
0
 62
     0
370
    -2
100
AcDbLine
 10
636.5
 20
109.4999999999999
 30
0.0
 11
574.1806526081129
 21
109.5
 31
0.0
  0
LINE
  5
2F8
330
2F5
100
AcDbEntity
  8
0
 62
     0
370
    -2
100
AcDbLine
 10
575.180652608113
 20
607.5
 30
0.0
 11
575.180652608113
 21
366.7614625222278
 31
0.0
  0
LINE
  5
2F9
330
2F5
100
AcDbEntity
  8
0
 62
     0
370
    -2
100
AcDbLine
 10
575.1806526081129
 20
111.5
 30
0.0
 11
575.180652608113
 21
349.9147958555611
 31
0.0
  0
SOLID
  5
2FA
330
2F5
100
AcDbEntity
  8
0
 62
     0
100
AcDbTrace
 10
574.8473192747797
 20
607.5
 30
0.0
 11
575.5139859414464
 21
607.5
 31
0.0
 12
575.180652608113
 22
609.4999999999999
 32
0.0
 13
575.180652608113
 23
609.4999999999999
 33
0.0
  0
SOLID
  5
2FB
330
2F5
100
AcDbEntity
  8
0
 62
     0
100
AcDbTrace
 10
574.8473192747796
 20
111.5
 30
0.0
 11
575.5139859414462
 21
111.5
 31
0.0
 12
575.1806526081129
 22
109.5
 32
0.0
 13
575.1806526081129
 23
109.5
 33
0.0
  0
MTEXT
  5
2FC
330
2F5
100
AcDbEntity
  8
0
 62
     0
100
AcDbMText
 10
575.1806526081129
 20
358.3381291888945
 30
0.0
 40
5.0
 41
0.0
 71
     5
 72
     1
  1
\A1;%%C500
 11
0.0000000000000001
 21
1.0
 31
0.0
 73
     1
 44
1.0
  0
POINT
  5
2FD
330
2F5
100
AcDbEntity
  8
DEFPOINTS
 62
     0
100
AcDbPoint
 10
637.5
 20
609.4999999999999
 30
0.0
  0
POINT
  5
2FE
330
2F5
100
AcDbEntity
  8
DEFPOINTS
 62
     0
100
AcDbPoint
 10
637.5
 20
109.4999999999999
 30
0.0
  0
POINT
  5
2FF
330
2F5
100
AcDbEntity
  8
DEFPOINTS
 62
     0
100
AcDbPoint
 10
575.1806526081129
 20
109.5
 30
0.0
  0
ENDBLK
  5
301
330
2F5
100
AcDbEntity
  8
0
100
AcDbBlockEnd
  0
BLOCK
  5
30B
330
302
100
AcDbEntity
  8
0
100
AcDbBlockBegin
  2
*D11
 70
     1
 10
0.0
 20
0.0
 30
0.0
  3
*D11
  1

  0
LINE
  5
303
330
302
100
AcDbEntity
  8
0
 62
     0
370
    -2
100
AcDbLine
 10
315.4254201521319
 20
420.0464661334224
 30
0.0
 11
313.4254201521319
 21
420.0464661334224
 31
0.0
  0
LINE
  5
304
330
302
100
AcDbEntity
  8
0
 62
     0
370
    -2
100
AcDbLine
 10
313.4254201521319
 20
420.0464661334224
 30
0.0
 11
289.1472368072081
 21
392.0074308446367
 31
0.0
  0
MTEXT
  5
305
330
302
100
AcDbEntity
  8
0
 62
     0
100
AcDbMText
 10
322.1820868187986
 20
420.0464661334224
 30
0.0
 40
5.0
 41
0.0
 71
     5
 72
     1
  1
\A1;\U+220582
 73
     1
 44
1.0
  0
SOLID
  5
306
330
302
100
AcDbEntity
  8
0
 62
     0
100
AcDbTrace
 10
288.8952412192651
 20
392.225626478801
 30
0.0
 11
289.3992323951511
 21
391.7892352104723
 31
0.0
 12
287.8380630022222
 22
390.4954573169786
 32
0.0
 13
287.8380630022222
 23
390.4954573169786
 33
0.0
  0
LINE
  5
307
330
302
100
AcDbEntity
  8
0
 62
     0
370
    -2
100
AcDbLine
 10
260.9100000000113
 20
359.4999999999885
 30
0.0
 11
261.0900000000113
 21
359.4999999999885
 31
0.0
  0
LINE
  5
308
330
302
100
AcDbEntity
  8
0
 62
     0
370
    -2
100
AcDbLine
 10
261.0000000000113
 20
359.4099999999885
 30
0.0
 11
261.0000000000113
 21
359.5899999999884
 31
0.0
  0
POINT
  5
309
330
302
100
AcDbEntity
  8
DEFPOINTS
 62
     0
100
AcDbPoint
 10
287.8380630022222
 20
390.4954573169786
 30
0.0
  0
POINT
  5
30A
330
302
100
AcDbEntity
  8
DEFPOINTS
 62
     0
100
AcDbPoint
 10
234.1619369978004
 20
328.5045426829983
 30
0.0
  0
ENDBLK
  5
30C
330
302
100
AcDbEntity
  8
0
100
AcDbBlockEnd
  0
BLOCK
  5
316
330
30D
100
AcDbEntity
  8
0
100
AcDbBlockBegin
  2
*D12
 70
     1
 10
0.0
 20
0.0
 30
0.0
  3
*D12
  1

  0
LINE
  5
30E
330
30D
100
AcDbEntity
  8
0
 62
     0
370
    -2
100
AcDbLine
 10
175.6090239690468
 20
328.7181280044778
 30
0.0
 11
177.6090239690468
 21
328.7181280044778
 31
0.0
  0
LINE
  5
30F
330
30D
100
AcDbEntity
  8
0
 62
     0
370
    -2
100
AcDbLine
 10
177.6090239690468
 20
328.7181280044778
 30
0.0
 11
220.660493371561
 21
344.6095935255764
 31
0.0
  0
MTEXT
  5
310
330
30D
100
AcDbEntity
  8
0
 62
     0
100
AcDbMText
 10
168.8523573023801
 20
328.7181280044778
 30
0.0
 40
5.0
 41
0.0
 71
     5
 72
     1
  1
\A1;\U+220582
 73
     1
 44
1.0
  0
SOLID
  5
311
330
30D
100
AcDbEntity
  8
0
 62
     0
100
AcDbTrace
 10
220.5450638640074
 20
344.9223028792854
 30
0.0
 11
220.7759228791146
 21
344.2968841718675
 31
0.0
 12
222.5367494938145
 22
345.302170570898
 32
0.0
 13
222.5367494938145
 23
345.302170570898
 33
0.0
  0
LINE
  5
312
330
30D
100
AcDbEntity
  8
0
 62
     0
370
    -2
100
AcDbLine
 10
260.9100000000113
 20
359.4999999999885
 30
0.0
 11
261.0900000000112
 21
359.4999999999885
 31
0.0
  0
LINE
  5
313
330
30D
100
AcDbEntity
  8
0
 62
     0
370
    -2
100
AcDbLine
 10
261.0000000000113
 20
359.4099999999885
 30
0.0
 11
261.0000000000113
 21
359.5899999999885
 31
0.0
  0
POINT
  5
314
330
30D
100
AcDbEntity
  8
DEFPOINTS
 62
     0
100
AcDbPoint
 10
222.5367494938145
 20
345.302170570898
 30
0.0
  0
POINT
  5
315
330
30D
100
AcDbEntity
  8
DEFPOINTS
 62
     0
100
AcDbPoint
 10
299.4632505062082
 20
373.6978294290789
 30
0.0
  0
ENDBLK
  5
317
330
30D
100
AcDbEntity
  8
0
100
AcDbBlockEnd
  0
BLOCK
  5
321
330
318
100
AcDbEntity
  8
0
100
AcDbBlockBegin
  2
*D13
 70
     1
 10
0.0
 20
0.0
 30
0.0
  3
*D13
  1

  0
LINE
  5
319
330
318
100
AcDbEntity
  8
0
 62
     0
370
    -2
100
AcDbLine
 10
738.3055443178778
 20
431.4298873956092
 30
0.0
 11
736.3055443178779
 21
431.4298873956091
 31
0.0
  0
LINE
  5
31A
330
318
100
AcDbEntity
  8
0
 62
     0
370
    -2
100
AcDbLine
 10
736.3055443178779
 20
431.4298873956091
 30
0.0
 11
710.9692419835229
 21
400.8875668063344
 31
0.0
  0
MTEXT
  5
31B
330
318
100
AcDbEntity
  8
0
 62
     0
100
AcDbMText
 10
742.5622109845444
 20
431.4298873956092
 30
0.0
 40
5.0
 41
0.0
 71
     5
 72
     1
  1
\A1;R5
 73
     1
 44
1.0
  0
SOLID
  5
31C
330
318
100
AcDbEntity
  8
0
 62
     0
100
AcDbTrace
 10
710.7126911832213
 20
401.1003878531689
 30
0.0
 11
711.2257927838245
 21
400.6747457595
 31
0.0
 12
709.6923157025162
 22
399.3482620045247
 32
0.0
 13
709.6923157025162
 23
399.3482620045247
 33
0.0
  0
LINE
  5
31D
330
318
100
AcDbEntity
  8
0
 62
     0
370
    -2
100
AcDbLine
 10
706.409999999999
 20
395.4999999999998
 30
0.0
 11
706.589999999999
 21
395.4999999999996
 31
0.0
  0
LINE
  5
31E
330
318
100
AcDbEntity
  8
0
 62
     0
370
    -2
100
AcDbLine
 10
706.4999999999988
 20
395.4099999999996
 30
0.0
 11
706.499999999999
 21
395.5899999999997
 31
0.0
  0
POINT
  5
31F
330
318
100
AcDbEntity
  8
DEFPOINTS
 62
     0
100
AcDbPoint
 10
709.6923157025162
 20
399.3482620045247
 30
0.0
  0
POINT
  5
320
330
318
100
AcDbEntity
  8
DEFPOINTS
 62
     0
100
AcDbPoint
 10
706.4999999999989
 20
395.4999999999996
 30
0.0
  0
ENDBLK
  5
322
330
318
100
AcDbEntity
  8
0
100
AcDbBlockEnd
  0
BLOCK
  5
51D
330
512
100
AcDbEntity
  8
0
100
AcDbBlockBegin
  2
*D15
 70
     1
 10
0.0
 20
0.0
 30
0.0
  3
*D15
  1

  0
LINE
  5
592
330
512
100
AcDbEntity
  8
0
 62
     0
370
    -2
100
AcDbLine
 10
453.7268097924277
 20
792.9401750121979
 30
0.0
 11
670.6536098249912
 21
792.9401750121979
 31
0.0
  0
LINE
  5
593
330
512
100
AcDbEntity
  8
0
 62
     0
370
    -2
100
AcDbLine
 10
660.0980746249902
 20
567.9401750121979
 30
0.0
 11
670.6536098249911
 21
567.9401750121979
 31
0.0
  0
LINE
  5
594
330
512
100
AcDbEntity
  8
0
 62
     0
370
    -2
100
AcDbLine
 10
669.6536098249912
 20
790.9401750121978
 30
0.0
 11
669.6536098249911
 21
752.2444607264839
 31
0.0
  0
LINE
  5
595
330
512
100
AcDbEntity
  8
0
 62
     0
370
    -2
100
AcDbLine
 10
669.6536098249911
 20
569.9401750121978
 30
0.0
 11
669.6536098249911
 21
610.6358892979125
 31
0.0
  0
SOLID
  5
596
330
512
100
AcDbEntity
  8
0
 62
     0
100
AcDbTrace
 10
669.3202764916578
 20
790.9401750121978
 30
0.0
 11
669.9869431583246
 21
790.9401750121978
 31
0.0
 12
669.6536098249912
 22
792.9401750121979
 32
0.0
 13
669.6536098249912
 23
792.9401750121979
 33
0.0
  0
SOLID
  5
597
330
512
100
AcDbEntity
  8
0
 62
     0
100
AcDbTrace
 10
669.3202764916577
 20
569.9401750121978
 30
0.0
 11
669.9869431583245
 21
569.9401750121978
 31
0.0
 12
669.6536098249911
 22
567.9401750121979
 32
0.0
 13
669.6536098249911
 23
567.9401750121979
 33
0.0
  0
MTEXT
  5
598
330
512
100
AcDbEntity
  8
0
 62
     0
100
AcDbMText
 10
669.653609824991
 20
681.4401750121983
 30
0.0
 40
55.0
 41
0.0
 71
     5
 72
     1
  1
\A1;225
  7
BIGFONT
 11
0.0000000000000001
 21
1.0
 31
0.0
 73
     1
 44
1.0
  0
POINT
  5
599
330
512
100
AcDbEntity
  8
DEFPOINTS
 62
     0
100
AcDbPoint
 10
452.7268097924277
 20
792.9401750121979
 30
0.0
  0
POINT
  5
59A
330
512
100
AcDbEntity
  8
DEFPOINTS
 62
     0
100
AcDbPoint
 10
659.0980746249901
 20
567.9401750121979
 30
0.0
  0
POINT
  5
59B
330
512
100
AcDbEntity
  8
DEFPOINTS
 62
     0
100
AcDbPoint
 10
669.6536098249911
 20
567.9401750121979
 30
0.0
  0
ENDBLK
  5
51E
330
512
100
AcDbEntity
  8
0
100
AcDbBlockEnd
  0
BLOCK
  5
528
330
51F
100
AcDbEntity
  8
0
100
AcDbBlockBegin
  2
*D16
 70
     1
 10
0.0
 20
0.0
 30
0.0
  3
*D16
  1

  0
LINE
  5
5A4
330
51F
100
AcDbEntity
  8
0
 62
     0
370
    -2
100
AcDbLine
 10
448.0836056042363
 20
643.8082443180255
 30
0.0
 11
446.0836056042362
 21
643.8082443180255
 31
0.0
  0
LINE
  5
5A5
330
51F
100
AcDbEntity
  8
0
 62
     0
370
    -2
100
AcDbLine
 10
446.0836056042362
 20
643.8082443180255
 30
0.0
 11
429.0966241637846
 21
612.7010848558673
 31
0.0
  0
MTEXT
  5
5A6
330
51F
100
AcDbEntity
  8
0
 62
     0
100
AcDbMText
 10
517.5783675089982
 20
643.8082443180255
 30
0.0
 40
55.0
 41
0.0
 71
     5
 72
     1
  1
\A1;\U+220598
  7
BIGFONT
 73
     1
 44
1.0
  0
SOLID
  5
5A7
330
51F
100
AcDbEntity
  8
0
 62
     0
100
AcDbTrace
 10
428.8040691974861
 20
612.8608431195194
 30
0.0
 11
429.3891791300832
 21
612.541326592215
 31
0.0
 12
428.1380745818716
 22
610.9457550580757
 32
0.0
 13
428.1380745818716
 23
610.9457550580757
 33
0.0
  0
LINE
  5
5A8
330
51F
100
AcDbEntity
  8
0
 62
     0
370
    -2
100
AcDbLine
 10
404.5636098250025
 20
567.9401750121869
 30
0.0
 11
404.7436098250024
 21
567.9401750121869
 31
0.0
  0
LINE
  5
5A9
330
51F
100
AcDbEntity
  8
0
 62
     0
370
    -2
100
AcDbLine
 10
404.6536098250023
 20
567.8501750121868
 30
0.0
 11
404.6536098250024
 21
568.0301750121869
 31
0.0
  0
POINT
  5
5AA
330
51F
100
AcDbEntity
  8
DEFPOINTS
 62
     0
100
AcDbPoint
 10
428.1380745818716
 20
610.9457550580757
 30
0.0
  0
POINT
  5
5AB
330
51F
100
AcDbEntity
  8
DEFPOINTS
 62
     0
100
AcDbPoint
 10
381.1691450681332
 20
524.9345949662978
 30
0.0
  0
ENDBLK
  5
529
330
51F
100
AcDbEntity
  8
0
100
AcDbBlockEnd
  0
BLOCK
  5
533
330
52A
100
AcDbEntity
  8
0
100
AcDbBlockBegin
  2
*D17
 70
     1
 10
0.0
 20
0.0
 30
0.0
  3
*D17
  1

  0
LINE
  5
5B4
330
52A
100
AcDbEntity
  8
0
 62
     0
370
    -2
100
AcDbLine
 10
319.2626337940377
 20
537.1583030166761
 30
0.0
 11
321.2626337940382
 21
537.1583030166761
 31
0.0
  0
LINE
  5
5B5
330
52A
100
AcDbEntity
  8
0
 62
     0
370
    -2
100
AcDbLine
 10
321.2626337940382
 20
537.1583030166761
 30
0.0
 11
364.3141031965522
 21
553.0497685377747
 31
0.0
  0
MTEXT
  5
5B6
330
52A
100
AcDbEntity
  8
0
 62
     0
100
AcDbMText
 10
249.7678718892757
 20
537.1583030166761
 30
0.0
 40
55.0
 41
0.0
 71
     5
 72
     1
  1
\A1;\U+220582
  7
BIGFONT
 73
     1
 44
1.0
  0
SOLID
  5
5B7
330
52A
100
AcDbEntity
  8
0
 62
     0
100
AcDbTrace
 10
364.1986736889986
 20
553.3624778914836
 30
0.0
 11
364.4295327041057
 21
552.7370591840658
 31
0.0
 12
366.1903593188057
 22
553.7423455830962
 32
0.0
 13
366.1903593188057
 23
553.7423455830962
 33
0.0
  0
LINE
  5
5B8
330
52A
100
AcDbEntity
  8
0
 62
     0
370
    -2
100
AcDbLine
 10
404.5636098250025
 20
567.9401750121867
 30
0.0
 11
404.7436098250024
 21
567.9401750121866
 31
0.0
  0
LINE
  5
5B9
330
52A
100
AcDbEntity
  8
0
 62
     0
370
    -2
100
AcDbLine
 10
404.6536098250024
 20
567.8501750121866
 30
0.0
 11
404.6536098250024
 21
568.0301750121867
 31
0.0
  0
POINT
  5
5BA
330
52A
100
AcDbEntity
  8
DEFPOINTS
 62
     0
100
AcDbPoint
 10
366.1903593188057
 20
553.7423455830962
 30
0.0
  0
POINT
  5
5BB
330
52A
100
AcDbEntity
  8
DEFPOINTS
 62
     0
100
AcDbPoint
 10
443.1168603311994
 20
582.1380044412773
 30
0.0
  0
ENDBLK
  5
534
330
52A
100
AcDbEntity
  8
0
100
AcDbBlockEnd
  0
BLOCK
  5
53E
330
535
100
AcDbEntity
  8
0
100
AcDbBlockBegin
  2
*D18
 70
     1
 10
0.0
 20
0.0
 30
0.0
  3
*D18
  1

  0
LINE
  5
5C4
330
535
100
AcDbEntity
  8
0
 62
     0
370
    -2
100
AcDbLine
 10
459.0790299771231
 20
628.4866411456207
 30
0.0
 11
457.0790299771228
 21
628.4866411456208
 31
0.0
  0
LINE
  5
5C5
330
535
100
AcDbEntity
  8
0
 62
     0
370
    -2
100
AcDbLine
 10
457.0790299771228
 20
628.4866411456208
 30
0.0
 11
432.8008466321992
 21
600.4476058568351
 31
0.0
  0
MTEXT
  5
5C6
330
535
100
AcDbEntity
  8
0
 62
     0
100
AcDbMText
 10
528.5737918818848
 20
628.4866411456207
 30
0.0
 40
55.0
 41
0.0
 71
     5
 72
     1
  1
\A1;\U+220582
  7
BIGFONT
 73
     1
 44
1.0
  0
SOLID
  5
5C7
330
535
100
AcDbEntity
  8
0
 62
     0
100
AcDbTrace
 10
432.5488510442561
 20
600.6658014909994
 30
0.0
 11
433.0528422201422
 21
600.2294102226708
 31
0.0
 12
431.4916728272132
 22
598.9356323291771
 32
0.0
 13
431.4916728272132
 23
598.9356323291771
 33
0.0
  0
LINE
  5
5C8
330
535
100
AcDbEntity
  8
0
 62
     0
370
    -2
100
AcDbLine
 10
404.5636098250025
 20
567.9401750121869
 30
0.0
 11
404.7436098250024
 21
567.9401750121868
 31
0.0
  0
LINE
  5
5C9
330
535
100
AcDbEntity
  8
0
 62
     0
370
    -2
100
AcDbLine
 10
404.6536098250024
 20
567.8501750121869
 30
0.0
 11
404.6536098250024
 21
568.0301750121868
 31
0.0
  0
POINT
  5
5CA
330
535
100
AcDbEntity
  8
DEFPOINTS
 62
     0
100
AcDbPoint
 10
431.4916728272132
 20
598.9356323291771
 30
0.0
  0
POINT
  5
5CB
330
535
100
AcDbEntity
  8
DEFPOINTS
 62
     0
100
AcDbPoint
 10
377.8155468227916
 20
536.9447176951967
 30
0.0
  0
ENDBLK
  5
53F
330
535
100
AcDbEntity
  8
0
100
AcDbBlockEnd
  0
BLOCK
  5
54B
330
540
100
AcDbEntity
  8
0
100
AcDbBlockBegin
  2
*D19
 70
     1
 10
0.0
 20
0.0
 30
0.0
  3
*D19
  1

  0
LINE
  5
5D6
330
540
100
AcDbEntity
  8
0
 62
     0
370
    -2
100
AcDbLine
 10
780.153609824991
 20
817.9401750121982
 30
0.0
 11
717.8342624331041
 21
817.9401750121984
 31
0.0
  0
LINE
  5
5D7
330
540
100
AcDbEntity
  8
0
 62
     0
370
    -2
100
AcDbLine
 10
780.153609824991
 20
317.9401750121983
 30
0.0
 11
717.834262433104
 21
317.9401750121983
 31
0.0
  0
LINE
  5
5D8
330
540
100
AcDbEntity
  8
0
 62
     0
370
    -2
100
AcDbLine
 10
718.8342624331042
 20
815.9401750121984
 30
0.0
 11
718.834262433104
 21
662.4635422963308
 31
0.0
  0
LINE
  5
5D9
330
540
100
AcDbEntity
  8
0
 62
     0
370
    -2
100
AcDbLine
 10
718.834262433104
 20
319.9401750121983
 30
0.0
 11
718.834262433104
 21
471.0930661058545
 31
0.0
  0
SOLID
  5
5DA
330
540
100
AcDbEntity
  8
0
 62
     0
100
AcDbTrace
 10
718.5009290997708
 20
815.9401750121984
 30
0.0
 11
719.1675957664375
 21
815.9401750121984
 31
0.0
 12
718.8342624331042
 22
817.9401750121984
 32
0.0
 13
718.8342624331042
 23
817.9401750121984
 33
0.0
  0
SOLID
  5
5DB
330
540
100
AcDbEntity
  8
0
 62
     0
100
AcDbTrace
 10
718.5009290997706
 20
319.9401750121983
 30
0.0
 11
719.1675957664374
 21
319.9401750121983
 31
0.0
 12
718.834262433104
 22
317.9401750121983
 32
0.0
 13
718.834262433104
 23
317.9401750121983
 33
0.0
  0
MTEXT
  5
5DC
330
540
100
AcDbEntity
  8
0
 62
     0
100
AcDbMText
 10
718.8342624331039
 20
566.7783042010928
 30
0.0
 40
55.0
 41
0.0
 71
     5
 72
     1
  1
\A1;%%C500
  7
BIGFONT
 11
0.0000000000000001
 21
1.0
 31
0.0
 73
     1
 44
1.0
  0
POINT
  5
5DD
330
540
100
AcDbEntity
  8
DEFPOINTS
 62
     0
100
AcDbPoint
 10
781.153609824991
 20
817.9401750121982
 30
0.0
  0
POINT
  5
5DE
330
540
100
AcDbEntity
  8
DEFPOINTS
 62
     0
100
AcDbPoint
 10
781.153609824991
 20
317.9401750121983
 30
0.0
  0
POINT
  5
5DF
330
540
100
AcDbEntity
  8
DEFPOINTS
 62
     0
100
AcDbPoint
 10
718.834262433104
 20
317.9401750121983
 30
0.0
  0
ENDBLK
  5
54C
330
540
100
AcDbEntity
  8
0
100
AcDbBlockEnd
  0
BLOCK
  5
557
330
54D
100
AcDbEntity
  8
0
100
AcDbBlockBegin
  2
*D20
 70
     1
 10
0.0
 20
0.0
 30
0.0
  3
*D20
  1

  0
LINE
  5
5E9
330
54D
100
AcDbEntity
  8
0
 62
     0
370
    -2
100
AcDbLine
 10
851.153609824991
 20
608.9401750121983
 30
0.0
 11
910.9932021027494
 21
608.9401750121983
 31
0.0
  0
LINE
  5
5EA
330
54D
100
AcDbEntity
  8
0
 62
     0
370
    -2
100
AcDbLine
 10
851.153609824991
 20
526.9401750121983
 30
0.0
 11
910.9932021027494
 21
526.9401750121983
 31
0.0
  0
LINE
  5
5EB
330
54D
100
AcDbEntity
  8
0
 62
     0
370
    -2
100
AcDbLine
 10
909.9932021027495
 20
606.9401750121983
 30
0.0
 11
909.9932021027495
 21
528.9401750121982
 31
0.0
  0
SOLID
  5
5EC
330
54D
100
AcDbEntity
  8
0
 62
     0
100
AcDbTrace
 10
909.6598687694161
 20
606.9401750121983
 30
0.0
 11
910.3265354360829
 21
606.9401750121983
 31
0.0
 12
909.9932021027495
 22
608.9401750121983
 32
0.0
 13
909.9932021027495
 23
608.9401750121983
 33
0.0
  0
SOLID
  5
5ED
330
54D
100
AcDbEntity
  8
0
 62
     0
100
AcDbTrace
 10
909.6598687694161
 20
528.9401750121982
 30
0.0
 11
910.3265354360829
 21
528.9401750121982
 31
0.0
 12
909.9932021027495
 22
526.9401750121983
 32
0.0
 13
909.9932021027495
 23
526.9401750121983
 33
0.0
  0
MTEXT
  5
5EE
330
54D
100
AcDbEntity
  8
0
 62
     0
100
AcDbMText
 10
909.9932021027493
 20
567.9401750121985
 30
0.0
 40
55.0
 41
0.0
 71
     5
 72
     1
  1
\A1;%%C82
  7
BIGFONT
 11
0.0000000000000001
 21
1.0
 31
0.0
 73
     1
 44
1.0
  0
POINT
  5
5EF
330
54D
100
AcDbEntity
  8
DEFPOINTS
 62
     0
100
AcDbPoint
 10
850.1536098249911
 20
608.9401750121983
 30
0.0
  0
POINT
  5
5F0
330
54D
100
AcDbEntity
  8
DEFPOINTS
 62
     0
100
AcDbPoint
 10
850.1536098249911
 20
526.9401750121983
 30
0.0
  0
POINT
  5
5F1
330
54D
100
AcDbEntity
  8
DEFPOINTS
 62
     0
100
AcDbPoint
 10
909.9932021027495
 20
526.9401750121983
 30
0.0
  0
ENDBLK
  5
558
330
54D
100
AcDbEntity
  8
0
100
AcDbBlockEnd
  0
BLOCK
  5
563
330
559
100
AcDbEntity
  8
0
100
AcDbBlockBegin
  2
*D21
 70
     1
 10
0.0
 20
0.0
 30
0.0
  3
*D21
  1

  0
LINE
  5
5FB
330
559
100
AcDbEntity
  8
0
 62
     0
370
    -2
100
AcDbLine
 10
795.153609824991
 20
609.9401750121983
 30
0.0
 11
795.153609824991
 21
676.8516648566714
 31
0.0
  0
LINE
  5
5FC
330
559
100
AcDbEntity
  8
0
 62
     0
370
    -2
100
AcDbLine
 10
855.153609824991
 20
604.9401750121983
 30
0.0
 11
855.153609824991
 21
676.8516648566714
 31
0.0
  0
LINE
  5
5FD
330
559
100
AcDbEntity
  8
0
 62
     0
370
    -2
100
AcDbLine
 10
797.1536098249909
 20
675.8516648566715
 30
0.0
 11
853.153609824991
 21
675.8516648566715
 31
0.0
  0
SOLID
  5
5FE
330
559
100
AcDbEntity
  8
0
 62
     0
100
AcDbTrace
 10
797.1536098249909
 20
676.1849981900049
 30
0.0
 11
797.1536098249909
 21
675.5183315233381
 31
0.0
 12
795.153609824991
 22
675.8516648566715
 32
0.0
 13
795.153609824991
 23
675.8516648566715
 33
0.0
  0
SOLID
  5
5FF
330
559
100
AcDbEntity
  8
0
 62
     0
100
AcDbTrace
 10
853.153609824991
 20
676.1849981900049
 30
0.0
 11
853.153609824991
 21
675.5183315233381
 31
0.0
 12
855.153609824991
 22
675.8516648566715
 32
0.0
 13
855.153609824991
 23
675.8516648566715
 33
0.0
  0
MTEXT
  5
600
330
559
100
AcDbEntity
  8
0
 62
     0
100
AcDbMText
 10
825.1536098249911
 20
675.8516648566715
 30
0.0
 40
55.0
 41
0.0
 71
     5
 72
     1
  1
\A1;60
  7
BIGFONT
 73
     1
 44
1.0
  0
POINT
  5
601
330
559
100
AcDbEntity
  8
DEFPOINTS
 62
     0
100
AcDbPoint
 10
795.153609824991
 20
608.9401750121983
 30
0.0
  0
POINT
  5
602
330
559
100
AcDbEntity
  8
DEFPOINTS
 62
     0
100
AcDbPoint
 10
855.153609824991
 20
603.9401750121982
 30
0.0
  0
POINT
  5
603
330
559
100
AcDbEntity
  8
DEFPOINTS
 62
     0
100
AcDbPoint
 10
855.153609824991
 20
675.8516648566715
 30
0.0
  0
ENDBLK
  5
564
330
559
100
AcDbEntity
  8
0
100
AcDbBlockEnd
  0
BLOCK
  5
56F
330
565
100
AcDbEntity
  8
0
100
AcDbBlockBegin
  2
*D22
 70
     1
 10
0.0
 20
0.0
 30
0.0
  3
*D22
  1

  0
LINE
  5
60D
330
565
100
AcDbEntity
  8
0
 62
     0
370
    -2
100
AcDbLine
 10
829.153609824991
 20
612.9401750121983
 30
0.0
 11
829.153609824991
 21
656.0878945499943
 31
0.0
  0
LINE
  5
60E
330
565
100
AcDbEntity
  8
0
 62
     0
370
    -2
100
AcDbLine
 10
855.153609824991
 20
604.9401750121983
 30
0.0
 11
855.153609824991
 21
656.0878945499943
 31
0.0
  0
LINE
  5
60F
330
565
100
AcDbEntity
  8
0
 62
     0
370
    -2
100
AcDbLine
 10
831.1536098249909
 20
655.0878945499944
 30
0.0
 11
853.153609824991
 21
655.0878945499944
 31
0.0
  0
SOLID
  5
610
330
565
100
AcDbEntity
  8
0
 62
     0
100
AcDbTrace
 10
831.1536098249909
 20
655.4212278833277
 30
0.0
 11
831.1536098249909
 21
654.754561216661
 31
0.0
 12
829.153609824991
 22
655.0878945499944
 32
0.0
 13
829.153609824991
 23
655.0878945499944
 33
0.0
  0
SOLID
  5
611
330
565
100
AcDbEntity
  8
0
 62
     0
100
AcDbTrace
 10
853.153609824991
 20
655.4212278833277
 30
0.0
 11
853.153609824991
 21
654.754561216661
 31
0.0
 12
855.153609824991
 22
655.0878945499944
 32
0.0
 13
855.153609824991
 23
655.0878945499944
 33
0.0
  0
MTEXT
  5
612
330
565
100
AcDbEntity
  8
0
 62
     0
100
AcDbMText
 10
842.1536098249911
 20
655.0878945499944
 30
0.0
 40
55.0
 41
0.0
 71
     5
 72
     1
  1
\A1;26
  7
BIGFONT
 73
     1
 44
1.0
  0
POINT
  5
613
330
565
100
AcDbEntity
  8
DEFPOINTS
 62
     0
100
AcDbPoint
 10
829.153609824991
 20
611.9401750121983
 30
0.0
  0
POINT
  5
614
330
565
100
AcDbEntity
  8
DEFPOINTS
 62
     0
100
AcDbPoint
 10
855.153609824991
 20
603.9401750121982
 30
0.0
  0
POINT
  5
615
330
565
100
AcDbEntity
  8
DEFPOINTS
 62
     0
100
AcDbPoint
 10
855.153609824991
 20
655.0878945499944
 30
0.0
  0
ENDBLK
  5
570
330
565
100
AcDbEntity
  8
0
100
AcDbBlockEnd
  0
BLOCK
  5
57B
330
571
100
AcDbEntity
  8
0
100
AcDbBlockBegin
  2
*D23
 70
     1
 10
0.0
 20
0.0
 30
0.0
  3
*D23
  1

  0
LINE
  5
61F
330
571
100
AcDbEntity
  8
0
 62
     0
370
    -2
100
AcDbLine
 10
763.4294506533016
 20
803.9901750121982
 30
0.0
 11
721.656231909835
 21
803.9901750121982
 31
0.0
  0
LINE
  5
620
330
571
100
AcDbEntity
  8
0
 62
     0
370
    -2
100
AcDbLine
 10
763.4294506533019
 20
781.8901750121983
 30
0.0
 11
721.656231909835
 21
781.8901750121983
 31
0.0
  0
LINE
  5
621
330
571
100
AcDbEntity
  8
0
 62
     0
370
    -2
100
AcDbLine
 10
722.6562319098349
 20
801.9901750121983
 30
0.0
 11
722.6562319098349
 21
783.8901750121983
 31
0.0
  0
SOLID
  5
622
330
571
100
AcDbEntity
  8
0
 62
     0
100
AcDbTrace
 10
722.3228985765016
 20
801.9901750121983
 30
0.0
 11
722.9895652431683
 21
801.9901750121983
 31
0.0
 12
722.6562319098349
 22
803.9901750121982
 32
0.0
 13
722.6562319098349
 23
803.9901750121982
 33
0.0
  0
SOLID
  5
623
330
571
100
AcDbEntity
  8
0
 62
     0
100
AcDbTrace
 10
722.3228985765016
 20
783.8901750121983
 30
0.0
 11
722.9895652431683
 21
783.8901750121983
 31
0.0
 12
722.6562319098349
 22
781.8901750121983
 32
0.0
 13
722.6562319098349
 23
781.8901750121983
 33
0.0
  0
MTEXT
  5
624
330
571
100
AcDbEntity
  8
0
 62
     0
100
AcDbMText
 10
722.6562319098348
 20
792.9401750121984
 30
0.0
 40
55.0
 41
0.0
 71
     5
 72
     1
  1
\A1;22.1
  7
BIGFONT
 11
0.0000000000000001
 21
1.0
 31
0.0
 73
     1
 44
1.0
  0
POINT
  5
625
330
571
100
AcDbEntity
  8
DEFPOINTS
 62
     0
100
AcDbPoint
 10
764.4294506533017
 20
803.9901750121982
 30
0.0
  0
POINT
  5
626
330
571
100
AcDbEntity
  8
DEFPOINTS
 62
     0
100
AcDbPoint
 10
764.4294506533019
 20
781.8901750121983
 30
0.0
  0
POINT
  5
627
330
571
100
AcDbEntity
  8
DEFPOINTS
 62
     0
100
AcDbPoint
 10
722.6562319098349
 20
781.8901750121983
 30
0.0
  0
ENDBLK
  5
57C
330
571
100
AcDbEntity
  8
0
100
AcDbBlockEnd
  0
BLOCK
  5
586
330
57D
100
AcDbEntity
  8
0
100
AcDbBlockBegin
  2
*D24
 70
     1
 10
0.0
 20
0.0
 30
0.0
  3
*D24
  1

  0
LINE
  5
630
330
57D
100
AcDbEntity
  8
0
 62
     0
370
    -2
100
AcDbLine
 10
881.9591541428694
 20
639.8700624078077
 30
0.0
 11
879.9591541428695
 21
639.8700624078078
 31
0.0
  0
LINE
  5
631
330
57D
100
AcDbEntity
  8
0
 62
     0
370
    -2
100
AcDbLine
 10
879.9591541428695
 20
639.8700624078078
 30
0.0
 11
854.6228518085138
 21
609.3277418185327
 31
0.0
  0
MTEXT
  5
632
330
57D
100
AcDbEntity
  8
0
 62
     0
100
AcDbMText
 10
927.8824874762028
 20
639.8700624078076
 30
0.0
 40
55.0
 41
0.0
 71
     5
 72
     1
  1
\A1;R5
  7
BIGFONT
 73
     1
 44
1.0
  0
SOLID
  5
633
330
57D
100
AcDbEntity
  8
0
 62
     0
100
AcDbTrace
 10
854.3663010082124
 20
609.5405628653671
 30
0.0
 11
854.8794026088154
 21
609.1149207716982
 31
0.0
 12
853.345925527507
 22
607.788437016723
 32
0.0
 13
853.345925527507
 23
607.788437016723
 33
0.0
  0
LINE
  5
634
330
57D
100
AcDbEntity
  8
0
 62
     0
370
    -2
100
AcDbLine
 10
850.0636098249898
 20
603.9401750121981
 30
0.0
 11
850.24360982499
 21
603.9401750121981
 31
0.0
  0
LINE
  5
635
330
57D
100
AcDbEntity
  8
0
 62
     0
370
    -2
100
AcDbLine
 10
850.1536098249898
 20
603.850175012198
 30
0.0
 11
850.15360982499
 21
604.0301750121982
 31
0.0
  0
POINT
  5
636
330
57D
100
AcDbEntity
  8
DEFPOINTS
 62
     0
100
AcDbPoint
 10
853.345925527507
 20
607.788437016723
 30
0.0
  0
POINT
  5
637
330
57D
100
AcDbEntity
  8
DEFPOINTS
 62
     0
100
AcDbPoint
 10
850.15360982499
 20
603.9401750121981
 30
0.0
  0
ENDBLK
  5
587
330
57D
100
AcDbEntity
  8
0
100
AcDbBlockEnd
  0
ENDSEC
  0
SECTION
  2
ENTITIES
  0
ARC
  5
42E
330
19B
100
AcDbEntity
  8
3
100
AcDbCircle
 10
550.3045267130018
 20
706.1577342484404
 30
0.0
 40
19.70586843350675
100
AcDbArc
 50
2.245627486273446
 51
84.75437251372909
  0
LINE
  5
42F
330
19B
100
AcDbEntity
  8
3
100
AcDbLine
 10
453.3771219363989
 20
562.7421592820651
 30
0.0
 11
614.9295881828447
 21
617.3366619890181
 31
0.0
  0
LINE
  5
430
330
19B
100
AcDbEntity
  8
3
100
AcDbLine
 10
441.0164421613985
 20
600.7844199338793
 30
0.0
 11
603.8049763853466
 21
651.5746965756436
 31
0.0
  0
ARC
  5
431
330
19B
100
AcDbEntity
  8
3
100
AcDbCircle
 10
560.6999582561677
 20
441.5763336142552
 30
0.0
 40
19.70586843350674
100
AcDbArc
 50
279.7456274862749
 51
2.254372513730872
  0
ARC
  5
432
330
19B
100
AcDbEntity
  8
3
100
AcDbCircle
 10
404.6536098249944
 20
567.9401750121979
 30
0.0
 40
233.0
100
AcDbArc
 50
97.39767553532161
 51
82.60232446467652
  0
LINE
  5
433
330
19B
100
AcDbEntity
  8
1
100
AcDbLine
 10
659.0980746249901
 20
567.9401750121979
 30
0.0
 11
180.2091474249902
 21
567.9401750121979
 31
0.0
  0
LINE
  5
434
330
19B
100
AcDbEntity
  8
1
100
AcDbLine
 10
404.6536098249928
 20
567.9401750122008
 30
0.0
 11
648.4380644266702
 21
647.1505459476824
 31
0.0
  0
CIRCLE
  5
435
330
19B
100
AcDbEntity
  8
3
100
AcDbCircle
 10
404.6536098249903
 20
567.9401750121979
 30
0.0
 40
250.0000199999999
  0
ARC
  5
437
330
19B
100
AcDbEntity
  8
3
100
AcDbCircle
 10
401.4939579204582
 20
572.2890627686047
 30
0.0
 40
51.92354157689169
100
AcDbArc
 50
284.9617358076796
 51
327.0382641923216
  0
ARC
  5
438
330
19B
100
AcDbEntity
  8
3
100
AcDbCircle
 10
407.8132617295666
 20
572.2890627685903
 30
0.0
 40
51.92354157689169
100
AcDbArc
 50
212.9617358076784
 51
255.0382641923203
  0
LINE
  5
439
330
19B
100
AcDbEntity
  8
3
100
AcDbLine
 10
447.1270761361253
 20
543.5064962159254
 30
0.0
 11
545.7359232652966
 21
404.3804585954129
 31
0.0
  0
LINE
  5
43A
330
19B
100
AcDbEntity
  8
3
100
AcDbLine
 10
362.1801435138992
 20
543.5064962159109
 30
0.0
 11
263.571296384728
 21
404.3804585953986
 31
0.0
  0
ARC
  5
43B
330
19B
100
AcDbEntity
  8
3
100
AcDbCircle
 10
205.5772998893867
 20
541.7312815986743
 30
0.0
 40
19.70586843350675
100
AcDbArc
 50
146.2456274862751
 51
228.7543725137293
  0
CIRCLE
  5
43C
330
19B
100
AcDbEntity
  8
3
100
AcDbCircle
 10
404.6536098250024
 20
567.9401750121868
 30
0.0
 40
41.0
  0
LINE
  5
43D
330
19B
100
AcDbEntity
  8
1
100
AcDbLine
 10
404.653609824995
 20
567.9401750121971
 30
0.0
 11
560.4433807258442
 21
353.5139509499221
 31
0.0
  0
LINE
  5
43E
330
19B
100
AcDbEntity
  8
1
100
AcDbLine
 10
404.6536098249921
 20
567.940175012194
 30
0.0
 11
250.7131156315471
 21
356.0592619759384
 31
0.0
  0
LINE
  5
43F
330
19B
100
AcDbEntity
  8
1
100
AcDbLine
 10
404.6536098249903
 20
296.6246009810309
 30
0.0
 11
404.6536098249903
 21
832.1801993810309
 31
0.0
  0
ARC
  5
440
330
19B
100
AcDbEntity
  8
3
100
AcDbCircle
 10
404.6536098250024
 20
567.9401750121868
 30
0.0
 40
216.0
100
AcDbArc
 50
238.7801918472012
 51
245.5511222360615
  0
LINE
  5
441
330
19B
100
AcDbEntity
  8
3
100
AcDbLine
 10
394.5408232889039
 20
519.995086124207
 30
0.0
 11
292.6959081822261
 21
383.2201895128696
 31
0.0
  0
ARC
  5
442
330
19B
100
AcDbEntity
  8
3
100
AcDbCircle
 10
248.6072613938413
 20
441.5763336142503
 30
0.0
 40
19.70586843350671
100
AcDbArc
 50
177.7456274862723
 51
260.2543725137266
  0
ARC
  5
443
330
19B
100
AcDbEntity
  8
3
100
AcDbCircle
 10
348.7781228518304
 20
491.0341649447696
 30
0.0
 40
124.0900858766473
100
AcDbArc
 50
226.7444709549276
 51
241.2555290450741
  0
ARC
  5
444
330
19B
100
AcDbEntity
  8
3
100
AcDbCircle
 10
404.6536098250025
 20
567.9401750121869
 30
0.0
 40
216.0
100
AcDbArc
 50
222.4488777639391
 51
229.2198081527994
  0
ARC
  5
445
330
19B
100
AcDbEntity
  8
3
100
AcDbCircle
 10
265.8016747643189
 20
402.6196431851603
 30
0.0
 40
2.841664762965389
100
AcDbArc
 50
141.7099891474603
 51
223.6340221630275
  0
ARC
  5
446
330
19B
100
AcDbEntity
  8
3
100
AcDbCircle
 10
290.332048389146
 20
384.7972835188623
 30
0.0
 40
2.841664762965389
100
AcDbArc
 50
244.3659778369714
 51
326.2900108525399
  0
ARC
  5
447
330
19B
100
AcDbEntity
  8
3
100
AcDbCircle
 10
404.6536098250025
 20
567.9401750121869
 30
0.0
 40
216.0
100
AcDbArc
 50
201.4488777639417
 51
205.0511222360599
  0
ARC
  5
448
330
19B
100
AcDbEntity
  8
3
100
AcDbCircle
 10
228.1922908822707
 20
472.1294961265136
 30
0.0
 40
19.70586843350702
100
AcDbArc
 50
167.245627486271
 51
249.7543725137264
  0
ARC
  5
449
330
19B
100
AcDbEntity
  8
3
100
AcDbCircle
 10
404.6536098250025
 20
567.9401750121869
 30
0.0
 40
216.0
100
AcDbArc
 50
211.9488777639409
 51
215.5511222360587
  0
ARC
  5
44A
330
19B
100
AcDbEntity
  8
3
100
AcDbCircle
 10
213.6870425648638
 20
505.8913759873782
 30
0.0
 40
19.70586843350677
100
AcDbArc
 50
156.7456274862726
 51
239.2543725137283
  0
ARC
  5
44B
330
19B
100
AcDbEntity
  8
3
100
AcDbCircle
 10
404.6536098250025
 20
567.9401750121869
 30
0.0
 40
216.0
100
AcDbArc
 50
190.9488777639437
 51
194.5511222360596
  0
LINE
  5
44C
330
19B
100
AcDbEntity
  8
3
100
AcDbLine
 10
414.7663963611207
 20
519.9950861242213
 30
0.0
 11
516.6113114677984
 21
383.2201895128839
 31
0.0
  0
ARC
  5
44D
330
19B
100
AcDbEntity
  8
3
100
AcDbCircle
 10
441.2454339067624
 20
370.5083597393904
 30
0.0
 40
19.70586843350702
100
AcDbArc
 50
239.245627486274
 51
321.7543725137276
  0
ARC
  5
451
330
19B
100
AcDbEntity
  8
3
100
AcDbCircle
 10
368.0617857432492
 20
370.5083597393888
 30
0.0
 40
19.70586843350675
100
AcDbArc
 50
218.2456274862734
 51
300.7543725137304
  0
ARC
  5
453
330
19B
100
AcDbEntity
  8
3
100
AcDbCircle
 10
332.6954286147968
 20
380.4827040262019
 30
0.0
 40
19.70586843350674
100
AcDbArc
 50
207.7456274862737
 51
290.2543725137295
  0
ARC
  5
454
330
19B
100
AcDbEntity
  8
3
100
AcDbCircle
 10
404.6536098250024
 20
567.9401750121868
 30
0.0
 40
216.0
100
AcDbArc
 50
252.4488777639423
 51
256.0511222360616
  0
ARC
  5
455
330
19B
100
AcDbEntity
  8
3
100
AcDbCircle
 10
404.6536098250058
 20
367.1460434456936
 30
0.0
 40
19.70586843350677
100
AcDbArc
 50
228.7456274862738
 51
311.2543725137283
  0
ARC
  5
456
330
19B
100
AcDbEntity
  8
3
100
AcDbCircle
 10
404.6536098250024
 20
567.9401750121868
 30
0.0
 40
216.0
100
AcDbArc
 50
262.9488777639422
 51
266.5511222360607
  0
ARC
  5
457
330
19B
100
AcDbEntity
  8
3
100
AcDbCircle
 10
404.6536098250024
 20
567.9401750121868
 30
0.0
 40
216.0
100
AcDbArc
 50
273.4488777639409
 51
277.0511222360592
  0
ARC
  5
45B
330
19B
100
AcDbEntity
  8
3
100
AcDbCircle
 10
404.6536098250024
 20
567.9401750121868
 30
0.0
 40
49.0
100
AcDbArc
 50
258.0895061118038
 51
281.9104938882293
  0
ARC
  5
45C
330
19B
100
AcDbEntity
  8
3
100
AcDbCircle
 10
393.5622379946355
 20
521.0035687160639
 30
0.0
 40
1.405228207885394
100
AcDbArc
 50
314.1379963724926
 51
52.99833149699111
  0
ARC
  5
45D
330
19B
100
AcDbEntity
  8
3
100
AcDbCircle
 10
415.7449816553892
 20
521.0035687160782
 30
0.0
 40
1.405228207885394
100
AcDbArc
 50
127.0016685030088
 51
225.8620036275062
  0
ARC
  5
45E
330
19B
100
AcDbEntity
  8
3
100
AcDbCircle
 10
404.6536098250024
 20
567.9401750121868
 30
0.0
 40
216.0
100
AcDbArc
 50
294.4488777639398
 51
301.2198081527987
  0
ARC
  5
45F
330
19B
100
AcDbEntity
  8
3
100
AcDbCircle
 10
404.6536098250024
 20
567.9401750121868
 30
0.0
 40
216.0
100
AcDbArc
 50
283.9488777639399
 51
287.5511222360592
  0
ARC
  5
460
330
19B
100
AcDbEntity
  8
3
100
AcDbCircle
 10
476.611791035214
 20
380.482704026204
 30
0.0
 40
19.70586843350671
100
AcDbArc
 50
249.7456274862719
 51
332.2543725137269
  0
ARC
  5
461
330
19B
100
AcDbEntity
  8
3
100
AcDbCircle
 10
460.5290967981941
 20
491.0341649447839
 30
0.0
 40
124.0900858766473
100
AcDbArc
 50
298.7444709549258
 51
313.2555290450723
  0
ARC
  5
462
330
19B
100
AcDbEntity
  8
3
100
AcDbCircle
 10
518.9751712608786
 20
384.7972835188766
 30
0.0
 40
2.841664762965389
100
AcDbArc
 50
213.70998914746
 51
295.6340221630285
  0
ARC
  5
463
330
19B
100
AcDbEntity
  8
3
100
AcDbCircle
 10
404.6536098250024
 20
567.9401750121867
 30
0.0
 40
216.0
100
AcDbArc
 50
310.7801918472018
 51
317.5511222360608
  0
ARC
  5
464
330
19B
100
AcDbEntity
  8
3
100
AcDbCircle
 10
543.5055448857058
 20
402.6196431851745
 30
0.0
 40
2.841664762965389
100
AcDbArc
 50
316.3659778369725
 51
38.29001085253965
  0
LINE
  5
465
330
19B
100
AcDbEntity
  8
3
100
AcDbLine
 10
368.2907774885988
 20
600.7844199338562
 30
0.0
 11
205.5022432646508
 21
651.5746965756204
 31
0.0
  0
LINE
  5
466
330
19B
100
AcDbEntity
  8
3
100
AcDbLine
 10
355.9300977135984
 20
562.742159282042
 30
0.0
 11
194.3776314671527
 21
617.3366619889949
 31
0.0
  0
ARC
  5
467
330
19B
100
AcDbEntity
  8
3
100
AcDbCircle
 10
318.2095080116368
 20
749.1740033479109
 30
0.0
 40
19.70586843350675
100
AcDbArc
 50
74.24562748627348
 51
156.75437251373
  0
LINE
  5
468
330
19B
100
AcDbEntity
  8
1
100
AcDbLine
 10
404.6536098249903
 20
567.9401750121979
 30
0.0
 11
154.6885080768317
 21
649.1587599410372
 31
0.0
  0
ARC
  5
469
330
19B
100
AcDbEntity
  8
3
100
AcDbCircle
 10
286.6297805433404
 20
730.3860398202369
 30
0.0
 40
19.70586843350677
100
AcDbArc
 50
84.74562748627336
 51
167.2543725137273
  0
ARC
  5
46A
330
19B
100
AcDbEntity
  8
3
100
AcDbCircle
 10
314.2451727644385
 20
597.3156569187842
 30
0.0
 40
124.0900858766473
100
AcDbArc
 50
154.7444709549254
 51
169.2555290450737
  0
ARC
  5
46B
330
19B
100
AcDbEntity
  8
3
100
AcDbCircle
 10
204.1346596373062
 20
578.4489278956823
 30
0.0
 40
19.70586843350674
100
AcDbArc
 50
135.7456274862755
 51
218.2543725137286
  0
ARC
  5
46C
330
19B
100
AcDbEntity
  8
3
100
AcDbCircle
 10
404.6536098250025
 20
567.9401750121869
 30
0.0
 40
216.0
100
AcDbArc
 50
180.4488777639438
 51
184.0511222360612
  0
ARC
  5
46D
330
19B
100
AcDbEntity
  8
3
100
AcDbCircle
 10
404.6536098250025
 20
567.9401750121869
 30
0.0
 40
216.0
100
AcDbArc
 50
166.7801918472041
 51
173.5511222360613
  0
ARC
  5
46E
330
19B
100
AcDbEntity
  8
3
100
AcDbCircle
 10
195.1470641499807
 20
620.0721750983904
 30
0.0
 40
2.841664762965389
100
AcDbArc
 50
172.3659778369707
 51
254.2900108525404
  0
ARC
  5
46F
330
19B
100
AcDbEntity
  8
3
100
AcDbCircle
 10
404.6536098250024
 20
567.9401750121868
 30
0.0
 40
216.0
100
AcDbArc
 50
139.9488777639419
 51
143.5511222360602
  0
ARC
  5
470
330
19B
100
AcDbEntity
  8
3
100
AcDbCircle
 10
259.0026929369984
 20
706.1577342484354
 30
0.0
 40
19.70586843350702
100
AcDbArc
 50
95.24562748627252
 51
177.7543725137265
  0
ARC
  5
471
330
19B
100
AcDbEntity
  8
3
100
AcDbCircle
 10
236.2534814640244
 20
677.3004970652439
 30
0.0
 40
19.70586843350671
100
AcDbArc
 50
105.7456274862714
 51
188.2543725137259
  0
ARC
  5
472
330
19B
100
AcDbEntity
  8
3
100
AcDbCircle
 10
204.5168331179307
 20
648.9093587981858
 30
0.0
 40
2.841664762965389
100
AcDbArc
 50
69.7099891474598
 51
151.6340221630285
  0
ARC
  5
473
330
19B
100
AcDbEntity
  8
3
100
AcDbCircle
 10
404.6536098250024
 20
567.9401750121868
 30
0.0
 40
216.0
100
AcDbArc
 50
150.4488777639406
 51
157.219808152798
  0
ARC
  5
474
330
19B
100
AcDbEntity
  8
3
100
AcDbCircle
 10
404.6536098250024
 20
567.9401750121868
 30
0.0
 40
216.0
100
AcDbArc
 50
129.4488777639412
 51
133.0511222360604
  0
ARC
  5
475
330
19B
100
AcDbEntity
  8
3
100
AcDbCircle
 10
404.6536098250024
 20
567.9401750121868
 30
0.0
 40
216.0
100
AcDbArc
 50
118.9488777639409
 51
122.5511222360602
  0
ARC
  5
476
330
19B
100
AcDbEntity
  8
3
100
AcDbCircle
 10
522.677439106659
 20
730.3860398202409
 30
0.0
 40
19.70586843350677
100
AcDbArc
 50
12.74562748627262
 51
95.25437251372826
  0
LINE
  5
477
330
19B
100
AcDbEntity
  8
3
100
AcDbLine
 10
384.653609824986
 20
612.6727135048804
 30
0.0
 11
386.6536098249902
 21
783.188868388013
 31
0.0
  0
LINE
  5
478
330
19B
100
AcDbEntity
  8
3
100
AcDbLine
 10
424.6536098249944
 20
612.6727135048804
 30
0.0
 11
422.6536098249902
 21
783.188868388013
 31
0.0
  0
ARC
  5
47B
330
19B
100
AcDbEntity
  8
3
100
AcDbCircle
 10
404.6536098250024
 20
567.9401750121868
 30
0.0
 40
49.0
100
AcDbArc
 50
42.08950611180396
 51
65.91049388822881
  0
ARC
  5
47C
330
19B
100
AcDbEntity
  8
3
100
AcDbCircle
 10
404.6536098250024
 20
567.9401750121868
 30
0.0
 40
49.0
100
AcDbArc
 50
114.0895061118047
 51
137.9104938882295
  0
ARC
  5
47D
330
19B
100
AcDbEntity
  8
3
100
AcDbCircle
 10
368.0918565497774
 20
599.3933423744313
 30
0.0
 40
1.405228207885394
100
AcDbArc
 50
343.0016685030082
 51
81.86200362750751
  0
ARC
  5
47E
330
19B
100
AcDbEntity
  8
3
100
AcDbCircle
 10
409.7660339991858
 20
566.2790477024846
 30
0.0
 40
51.92354157689169
100
AcDbArc
 50
140.961735807679
 51
183.0382641923224
  0
ARC
  5
47F
330
19B
100
AcDbEntity
  8
3
100
AcDbCircle
 10
404.6536098250024
 20
567.9401750121868
 30
0.0
 40
49.0
100
AcDbArc
 50
186.0895061118015
 51
209.9104938882291
  0
ARC
  5
480
330
19B
100
AcDbEntity
  8
3
100
AcDbCircle
 10
363.4416669408293
 20
542.8874445544614
 30
0.0
 40
1.405228207885394
100
AcDbArc
 50
55.00166850301025
 51
153.8620036275068
  0
ARC
  5
481
330
19B
100
AcDbEntity
  8
3
100
AcDbCircle
 10
356.5868221677797
 20
563.9844874623218
 30
0.0
 40
1.405228207885394
100
AcDbArc
 50
242.1379963724925
 51
340.9983314969909
  0
ARC
  5
482
330
19B
100
AcDbEntity
  8
3
100
AcDbCircle
 10
404.6536098249903
 20
562.5646541187466
 30
0.0
 40
51.92354157689169
100
AcDbArc
 50
68.96173580768011
 51
111.0382641923198
  0
ARC
  5
483
330
19B
100
AcDbEntity
  8
3
100
AcDbCircle
 10
386.0380731531818
 20
612.4320319536184
 30
0.0
 40
1.405228207885394
100
AcDbArc
 50
170.1379963724915
 51
268.9983314969906
  0
ARC
  5
484
330
19B
100
AcDbEntity
  8
3
100
AcDbCircle
 10
423.2691464967986
 20
612.4320319536184
 30
0.0
 40
1.405228207885394
100
AcDbArc
 50
271.0016685030093
 51
9.862003627508428
  0
ARC
  5
485
330
19B
100
AcDbEntity
  8
3
100
AcDbCircle
 10
399.5411856508116
 20
566.2790477025078
 30
0.0
 40
51.92354157689169
100
AcDbArc
 50
356.9617358076776
 51
39.03826419232094
  0
ARC
  5
486
330
19B
100
AcDbEntity
  8
3
100
AcDbCircle
 10
404.6536098250024
 20
567.9401750121868
 30
0.0
 40
49.0
100
AcDbArc
 50
330.0895061118043
 51
353.9104938882279
  0
ARC
  5
487
330
19B
100
AcDbEntity
  8
3
100
AcDbCircle
 10
445.8655527091953
 20
542.8874445544757
 30
0.0
 40
1.405228207885394
100
AcDbArc
 50
26.13799637249317
 51
124.9983314969897
  0
ARC
  5
488
330
19B
100
AcDbEntity
  8
3
100
AcDbCircle
 10
452.7203974822178
 20
563.9844874623448
 30
0.0
 40
1.405228207885394
100
AcDbArc
 50
199.001668503009
 51
297.8620036275074
  0
ARC
  5
489
330
19B
100
AcDbEntity
  8
3
100
AcDbCircle
 10
441.21536310022
 20
599.3933423744545
 30
0.0
 40
1.405228207885394
100
AcDbArc
 50
98.13799637249248
 51
196.9983314969886
  0
ARC
  5
48A
330
19B
100
AcDbEntity
  8
3
100
AcDbCircle
 10
404.6536098250024
 20
567.9401750121868
 30
0.0
 40
216.0
100
AcDbArc
 50
46.94887776394075
 51
50.55112223606083
  0
LINE
  5
48B
330
19B
100
AcDbEntity
  8
1
100
AcDbLine
 10
452.7268097924277
 20
792.9401750121979
 30
0.0
 11
363.4094982101619
 21
792.9401750121979
 31
0.0
  0
ARC
  5
48C
330
19B
100
AcDbEntity
  8
3
100
AcDbCircle
 10
404.6536098250024
 20
567.9401750121868
 30
0.0
 40
216.0
100
AcDbArc
 50
78.44887776394002
 51
85.21980815279876
  0
ARC
  5
48D
330
19B
100
AcDbEntity
  8
3
100
AcDbCircle
 10
404.6536098250024
 20
567.9401750121868
 30
0.0
 40
216.0
100
AcDbArc
 50
94.78019184720285
 51
101.5511222360615
  0
ARC
  5
48E
330
19B
100
AcDbEntity
  8
3
100
AcDbCircle
 10
352.6842644307647
 20
761.8924124595455
 30
0.0
 40
19.70586843350674
100
AcDbArc
 50
63.74562748627536
 51
146.254372513729
  0
ARC
  5
48F
330
19B
100
AcDbEntity
  8
3
100
AcDbCircle
 10
404.6536098250024
 20
567.9401750121868
 30
0.0
 40
216.0
100
AcDbArc
 50
108.4488777639428
 51
112.0511222360614
  0
ARC
  5
490
330
19B
100
AcDbEntity
  8
3
100
AcDbCircle
 10
404.6536098249903
 20
792.9401750121979
 30
0.0
 40
11.05
100
AcDbArc
 50
90.0
 51
270.0
  0
CIRCLE
  5
491
330
19B
100
AcDbEntity
  8
3
100
AcDbCircle
 10
404.6536098249903
 20
792.9401750121979
 30
0.0
 40
7.0
  0
CIRCLE
  5
492
330
19B
100
AcDbEntity
  8
3
100
AcDbCircle
 10
404.6536098249903
 20
792.9401750121979
 30
0.0
 40
8.0
  0
ARC
  5
494
330
19B
100
AcDbEntity
  8
3
100
AcDbCircle
 10
404.6536098249903
 20
792.9401750121979
 30
0.0
 40
19.49999999999954
100
AcDbArc
 50
184.3406396661887
 51
270.0
  0
ARC
  5
495
330
19B
100
AcDbEntity
  8
3
100
AcDbCircle
 10
389.4930051681131
 20
783.3024144602977
 30
0.0
 40
2.841664762965389
100
AcDbArc
 50
151.4098293070285
 51
182.2900108525404
  0
ARC
  5
496
330
19B
100
AcDbEntity
  8
3
100
AcDbCircle
 10
419.8142144818674
 20
783.3024144602977
 30
0.0
 40
2.841664762965389
100
AcDbArc
 50
357.7099891474595
 51
28.59017069297214
  0
ARC
  5
497
330
19B
100
AcDbEntity
  8
3
100
AcDbCircle
 10
375.3754716758367
 20
788.8510478159911
 30
0.0
 40
10.17536281265847
100
AcDbArc
 50
14.88153343721369
 51
94.06810148916934
  0
ARC
  5
499
330
19B
100
AcDbEntity
  8
3
100
AcDbCircle
 10
491.0977116383618
 20
749.1740033479135
 30
0.0
 40
19.70586843350702
100
AcDbArc
 50
23.24562748627359
 51
105.7543725137265
  0
ARC
  5
49A
330
19B
100
AcDbEntity
  8
3
100
AcDbCircle
 10
456.6229552192342
 20
761.8924124595471
 30
0.0
 40
19.70586843350671
100
AcDbArc
 50
33.74562748627096
 51
116.2543725137261
  0
ARC
  5
49B
330
19B
100
AcDbEntity
  8
3
100
AcDbCircle
 10
404.6536098250024
 20
567.9401750121868
 30
0.0
 40
216.0
100
AcDbArc
 50
67.94887776394003
 51
71.55112223605865
  0
ARC
  5
49C
330
19B
100
AcDbEntity
  8
3
100
AcDbCircle
 10
404.6536098250024
 20
567.9401750121868
 30
0.0
 40
216.0
100
AcDbArc
 50
57.44887776394115
 51
61.05112223606048
  0
LINE
  5
49E
330
19B
100
AcDbEntity
  8
1
100
AcDbLine
 10
781.153609824991
 20
825.1573004187758
 30
0.0
 11
781.153609824991
 21
305.1349581180932
 31
0.0
  0
ARC
  5
4A0
330
19B
100
AcDbEntity
  8
3
100
AcDbCircle
 10
603.7299197606189
 20
541.7312815986812
 30
0.0
 40
19.70586843350702
100
AcDbArc
 50
311.245627486274
 51
33.75437251372752
  0
LINE
  5
4A1
330
19B
100
AcDbEntity
  8
3
100
AcDbLine
 10
855.153609824991
 20
567.9401750121983
 30
0.0
 11
855.153609824991
 21
531.9401750121983
 31
0.0
  0
LINE
  5
4A2
330
19B
100
AcDbEntity
  8
3
100
AcDbLine
 10
795.153609824991
 20
523.9401750121983
 30
0.0
 11
795.153609824991
 21
537.4401750121982
 31
0.0
  0
LINE
  5
4A3
330
19B
100
AcDbEntity
  8
3
100
AcDbLine
 10
795.153609824991
 20
526.9401750121983
 30
0.0
 11
795.153609824991
 21
567.9401750121983
 31
0.0
  0
LINE
  5
4A4
330
19B
100
AcDbEntity
  8
3
100
AcDbLine
 10
764.1536098249909
 20
567.9401750121983
 30
0.0
 11
764.1536098249909
 21
334.9401750121983
 31
0.0
  0
LINE
  5
4A6
330
19B
100
AcDbEntity
  8
3
100
AcDbLine
 10
850.1536098249911
 20
526.9401750121983
 30
0.0
 11
829.153609824991
 21
526.9401750121983
 31
0.0
  0
MTEXT
  5
4A8
102
{ACAD_REACTORS
330
4A7
102
}
330
19B
100
AcDbEntity
  8
0
100
AcDbMText
 10
815.8468506342719
 20
298.9324585418714
 30
0.0
 40
5.0
 41
0.0
 71
     9
 72
     1
  1
 
 73
     1
 44
1.0
  0
MTEXT
  5
4AA
102
{ACAD_REACTORS
330
4A9
102
}
330
19B
100
AcDbEntity
  8
0
100
AcDbMText
 10
748.1782219131578
 20
297.3011150841591
 30
0.0
 40
5.0
 41
0.0
 71
     1
 72
     1
  1
 
 73
     1
 44
1.0
  0
ARC
  5
4AB
330
19B
100
AcDbEntity
  8
3
100
AcDbCircle
 10
781.153609824991
 20
334.9401750121983
 30
0.0
 40
17.0
100
AcDbArc
 50
180.0
 51
0.0
  0
ARC
  5
4AC
330
19B
100
AcDbEntity
  8
3
100
AcDbCircle
 10
404.6536098250024
 20
567.9401750121867
 30
0.0
 40
216.0
100
AcDbArc
 50
334.9488777639436
 51
338.5511222360612
  0
ARC
  5
4AD
330
19B
100
AcDbEntity
  8
3
100
AcDbCircle
 10
581.1149287677379
 20
472.1294961265195
 30
0.0
 40
19.70586843350675
100
AcDbArc
 50
290.2456274862735
 51
12.75437251372896
  0
ARC
  5
4AE
330
19B
100
AcDbEntity
  8
3
100
AcDbCircle
 10
404.6536098250024
 20
567.9401750121867
 30
0.0
 40
216.0
100
AcDbArc
 50
324.4488777639421
 51
328.0511222360627
  0
ARC
  5
4AF
330
19B
100
AcDbEntity
  8
3
100
AcDbCircle
 10
595.6201770851432
 20
505.8913759873845
 30
0.0
 40
19.70586843350677
100
AcDbArc
 50
300.7456274862729
 51
23.25437251372799
  0
ARC
  5
4B0
330
19B
100
AcDbEntity
  8
3
100
AcDbCircle
 10
404.6536098250024
 20
567.9401750121867
 30
0.0
 40
216.0
100
AcDbArc
 50
345.4488777639403
 51
349.0511222360594
  0
LINE
  5
4B1
330
19B
100
AcDbEntity
  8
3
100
AcDbLine
 10
789.215563262276
 20
388.9800445212348
 30
0.0
 11
821.5410438227591
 21
520.3762620010852
 31
0.0
  0
LINE
  5
4B2
330
19B
100
AcDbEntity
  8
3
100
AcDbLine
 10
773.1936656582952
 20
401.2841995409481
 30
0.0
 11
799.989231562555
 21
521.3921543287669
 31
0.0
  0
ARC
  5
4B3
330
19B
100
AcDbEntity
  8
3
100
AcDbCircle
 10
762.0948214995821
 20
340.9844158732671
 30
0.0
 40
6.385253084683099
100
AcDbArc
 50
288.8098611393486
 51
341.3279837530881
  0
LINE
  5
4B4
330
19B
100
AcDbEntity
  8
3
100
AcDbLine
 10
798.153609824991
 20
334.9401750121983
 30
0.0
 11
798.153609824991
 21
421.5651750121983
 31
0.0
  0
ARC
  5
4B5
330
19B
100
AcDbEntity
  8
3
100
AcDbCircle
 10
781.153609824991
 20
338.9401750121983
 30
0.0
 40
13.00961183125768
100
AcDbArc
 50
0.0
 51
180.0
  0
ARC
  5
4B6
330
19B
100
AcDbEntity
  8
3
100
AcDbCircle
 10
800.2123981503999
 20
340.9844158732671
 30
0.0
 40
6.385253084683099
100
AcDbArc
 50
198.6720162469119
 51
251.1901388606503
  0
ARC
  5
4B7
330
19B
100
AcDbEntity
  8
3
100
AcDbCircle
 10
781.3123875629774
 20
399.4158619597386
 30
0.0
 40
14.4192337693406
100
AcDbArc
 50
247.0413627457711
 51
292.3151776011281
  0
ARC
  5
4B8
330
19B
100
AcDbEntity
  8
3
100
AcDbCircle
 10
796.3275674490708
 20
396.0126579033088
 30
0.0
 40
23.72691643055647
100
AcDbArc
 50
167.1631519748071
 51
200.6770953181622
  0
ARC
  5
4B9
330
19B
100
AcDbEntity
  8
3
100
AcDbCircle
 10
777.1162042335008
 20
389.1875680103028
 30
0.0
 40
3.366722114141729
100
AcDbArc
 50
207.4678765724194
 51
244.8978362713432
  0
ARC
  5
4BA
330
19B
100
AcDbEntity
  8
3
100
AcDbCircle
 10
784.8682476065732
 20
390.4815143480131
 30
0.0
 40
4.804922766310802
100
AcDbArc
 50
293.5413857814113
 51
331.5922276868968
  0
ARC
  5
4BB
330
19B
100
AcDbEntity
  8
3
100
AcDbCircle
 10
746.6385765562551
 20
395.1450293594467
 30
0.0
 40
43.02100457939174
100
AcDbArc
 50
350.7039579225383
 51
351.7610509073129
  0
LINE
  5
4BC
330
19B
100
AcDbEntity
  8
3
100
AcDbLine
 10
783.153609824991
 20
421.5651750121983
 30
0.0
 11
783.1536098249912
 21
425.3113067217183
 31
0.0
  0
ARC
  5
4BD
330
19B
100
AcDbEntity
  8
3
100
AcDbCircle
 10
812.153609824991
 20
550.3401750121983
 30
0.0
 40
31.39999999999998
100
AcDbArc
 50
237.2209193319307
 51
302.7790806680692
  0
LINE
  5
4BE
330
19B
100
AcDbEntity
  8
3
100
AcDbLine
 10
829.153609824991
 20
526.9401750121983
 30
0.0
 11
829.153609824991
 21
523.9401750121983
 31
0.0
  0
ARC
  5
4BF
330
19B
100
AcDbEntity
  8
3
100
AcDbCircle
 10
850.1536098249911
 20
531.9401750121983
 30
0.0
 40
5.0
100
AcDbArc
 50
270.0
 51
0.0
  0
LINE
  5
4C4
330
19B
100
AcDbEntity
  8
3
100
AcDbLine
 10
850.1536098249911
 20
608.9401750121983
 30
0.0
 11
829.153609824991
 21
608.9401750121983
 31
0.0
  0
LINE
  5
4C5
330
19B
100
AcDbEntity
  8
1
100
AcDbLine
 10
765.153609824991
 20
567.9401750121983
 30
0.0
 11
861.6536098249909
 21
567.9401750121983
 31
0.0
  0
LINE
  5
4C6
330
19B
100
AcDbEntity
  8
3
100
AcDbLine
 10
802.3479307771161
 20
618.6684373213372
 30
0.0
 11
774.5107526821339
 21
773.4401750121983
 31
0.0
  0
LINE
  5
4C7
330
19B
100
AcDbEntity
  8
3
100
AcDbLine
 10
821.3003811534406
 20
618.7946255378385
 30
0.0
 11
791.2726574440386
 21
775.4401750121983
 31
0.0
  0
LINE
  5
4C8
330
19B
100
AcDbEntity
  8
3
100
AcDbLine
 10
764.1536098249909
 20
567.9401750121983
 30
0.0
 11
764.1536098249909
 21
800.9401750121982
 31
0.0
  0
ARC
  5
4C9
330
19B
100
AcDbEntity
  8
3
100
AcDbCircle
 10
495.0620468855588
 20
597.3156569188074
 30
0.0
 40
124.0900858766473
100
AcDbArc
 50
10.74447095492631
 51
25.25552904507453
  0
ARC
  5
4CA
330
19B
100
AcDbEntity
  8
3
100
AcDbCircle
 10
605.1725600126985
 20
578.4489278956885
 30
0.0
 40
19.70586843350671
100
AcDbArc
 50
321.7456274862724
 51
44.25437251372794
  0
ARC
  5
4CB
330
19B
100
AcDbEntity
  8
3
100
AcDbCircle
 10
404.6536098250024
 20
567.9401750121867
 30
0.0
 40
216.0
100
AcDbArc
 50
355.9488777639387
 51
359.5511222360594
  0
ARC
  5
4CD
330
19B
100
AcDbEntity
  8
3
100
AcDbCircle
 10
404.6536098250024
 20
567.9401750121867
 30
0.0
 40
216.0
100
AcDbArc
 50
6.448877763938637
 51
13.21980815279943
  0
ARC
  5
4CE
330
19B
100
AcDbEntity
  8
3
100
AcDbCircle
 10
614.1601555000167
 20
620.0721750984136
 30
0.0
 40
2.841664762965389
100
AcDbArc
 50
285.7099891474595
 51
7.634022163029235
  0
ARC
  5
4CF
330
19B
100
AcDbEntity
  8
3
100
AcDbCircle
 10
573.053738185977
 20
677.300497065249
 30
0.0
 40
19.70586843350674
100
AcDbArc
 50
351.745627486274
 51
74.25437251373009
  0
ARC
  5
4D0
330
19B
100
AcDbEntity
  8
3
100
AcDbCircle
 10
404.6536098250024
 20
567.9401750121868
 30
0.0
 40
216.0
100
AcDbArc
 50
22.78019184720195
 51
29.551122236063
  0
ARC
  5
4D1
330
19B
100
AcDbEntity
  8
3
100
AcDbCircle
 10
604.7903865320665
 20
648.9093587982089
 30
0.0
 40
2.841664762965389
100
AcDbArc
 50
28.36597783697144
 51
110.2900108525401
  0
ARC
  5
4D2
330
19B
100
AcDbEntity
  8
3
100
AcDbCircle
 10
404.6536098250024
 20
567.9401750121868
 30
0.0
 40
216.0
100
AcDbArc
 50
36.44887776394337
 51
40.05112223606163
  0
LINE
  5
4D3
330
19B
100
AcDbEntity
  8
3
100
AcDbLine
 10
788.6520341000235
 20
641.167190692764
 30
0.0
 11
795.2200382562412
 21
631.3530604201305
 31
0.0
  0
ARC
  5
4D4
330
19B
100
AcDbEntity
  8
3
100
AcDbCircle
 10
821.7656501195154
 20
627.3901574219343
 30
0.0
 40
49.12821995882801
100
AcDbArc
 50
166.8150333083319
 51
194.574550441774
  0
LINE
  5
4D6
330
19B
100
AcDbEntity
  8
1
100
AcDbLine
 10
765.153609824991
 20
567.9401750121983
 30
0.0
 11
759.6536098249909
 21
567.9401750121983
 31
0.0
  0
LINE
  5
4D7
330
19B
100
AcDbEntity
  8
3
100
AcDbLine
 10
774.218325243238
 20
615.0275568285019
 30
0.0
 11
795.153609824991
 21
579.3153581230606
 31
0.0
  0
LINE
  5
4D8
330
19B
100
AcDbEntity
  8
3
100
AcDbLine
 10
795.153609824991
 20
608.9401750121983
 30
0.0
 11
795.153609824991
 21
567.9401750121983
 31
0.0
  0
ARC
  5
4D9
330
19B
100
AcDbEntity
  8
3
100
AcDbCircle
 10
812.153609824991
 20
585.5401750121983
 30
0.0
 40
31.39999999999998
100
AcDbArc
 50
57.22091933193074
 51
122.7790806680692
  0
LINE
  5
4DA
330
19B
100
AcDbEntity
  8
3
100
AcDbLine
 10
795.153609824991
 20
611.9401750121983
 30
0.0
 11
795.153609824991
 21
598.4401750121983
 31
0.0
  0
LINE
  5
4DB
330
19B
100
AcDbEntity
  8
3
100
AcDbLine
 10
829.153609824991
 20
608.9401750121983
 30
0.0
 11
829.153609824991
 21
611.9401750121983
 31
0.0
  0
ARC
  5
4DC
330
19B
100
AcDbEntity
  8
3
100
AcDbCircle
 10
782.653609824991
 20
615.1850880372879
 30
0.0
 40
20.0
100
AcDbArc
 50
0.8103798687244264
 51
10.03021331973309
  0
ARC
  5
4DD
330
19B
100
AcDbEntity
  8
3
100
AcDbCircle
 10
801.6536098249909
 20
615.0523833800386
 30
0.0
 40
20.0
100
AcDbArc
 50
1.196393726831919
 51
10.78429786756381
  0
ARC
  5
4DE
330
19B
100
AcDbEntity
  8
3
100
AcDbCircle
 10
782.6348464676218
 20
632.1954424731373
 30
0.0
 40
10.80272248648012
100
AcDbArc
 50
56.15096465683009
 51
143.6652277864541
  0
LINE
  5
4DF
330
19B
100
AcDbEntity
  8
0
100
AcDbLine
 10
794.7413958764566
 20
647.567478458106
 30
0.0
 11
792.8127212478535
 21
648.967478458106
 31
0.0
  0
LINE
  5
4E0
330
19B
100
AcDbEntity
  8
0
100
AcDbLine
 10
792.8127212478535
 20
648.967478458106
 30
0.0
 11
792.8127212478535
 21
645.992478458106
 31
0.0
  0
LINE
  5
4E1
330
19B
100
AcDbEntity
  8
0
100
AcDbLine
 10
792.8127212478535
 20
645.992478458106
 30
0.0
 11
794.7413958764566
 21
647.567478458106
 31
0.0
  0
LINE
  5
4E2
330
19B
100
AcDbEntity
  8
0
100
AcDbLine
 10
794.7413958764566
 20
644.592478458106
 30
0.0
 11
792.8127212478535
 21
645.992478458106
 31
0.0
  0
LINE
  5
4E3
330
19B
100
AcDbEntity
  8
0
100
AcDbLine
 10
792.8127212478535
 20
643.0174784581059
 30
0.0
 11
794.7413958764566
 21
644.592478458106
 31
0.0
  0
LINE
  5
4E4
330
19B
100
AcDbEntity
  8
0
100
AcDbLine
 10
792.8127212478535
 20
645.992478458106
 30
0.0
 11
792.8127212478535
 21
643.0174784581059
 31
0.0
  0
LWPOLYLINE
  5
4E5
330
19B
100
AcDbEntity
  8
3
100
AcDbPolyline
 90
        2
 70
     0
 43
0.0
 10
768.1560616824484
 20
799.9401750121983
 10
766.153609824991
 20
801.9426268696557
  0
LWPOLYLINE
  5
4E6
330
19B
100
AcDbEntity
  8
3
100
AcDbPolyline
 90
        2
 70
     0
 43
0.0
 10
766.153609824991
 20
783.937723154741
 10
768.1560616824484
 20
785.9401750121983
  0
LINE
  5
4E7
330
19B
100
AcDbEntity
  8
3
100
AcDbLine
 10
794.1632216562486
 20
784.9401750121983
 30
0.0
 11
767.1560616824483
 21
784.9401750121983
 31
0.0
  0
LINE
  5
4E8
330
19B
100
AcDbEntity
  8
3
100
AcDbLine
 10
767.1560616824483
 20
800.9401750121982
 30
0.0
 11
798.1536098249907
 21
800.9401750121982
 31
0.0
  0
LINE
  5
4E9
330
19B
100
AcDbEntity
  8
1
100
AcDbLine
 10
755.995378584256
 20
792.9401750121983
 30
0.0
 11
802.4702438884727
 21
792.9401750121983
 31
0.0
  0
LINE
  5
4EA
330
19B
100
AcDbEntity
  8
3
100
AcDbLine
 10
764.1536098249909
 20
773.4401750121983
 30
0.0
 11
774.5107526821339
 21
773.4401750121983
 31
0.0
  0
ARC
  5
4EB
330
19B
100
AcDbEntity
  8
3
100
AcDbCircle
 10
781.153609824991
 20
800.9401750121982
 30
0.0
 40
17.0
100
AcDbArc
 50
0.0
 51
180.0
  0
LINE
  5
4ED
330
19B
100
AcDbEntity
  8
3
100
AcDbLine
 10
767.1560616824483
 20
784.9401750121983
 30
0.0
 11
767.1560616824483
 21
800.9401750121982
 31
0.0
  0
LINE
  5
4EE
330
19B
100
AcDbEntity
  8
3
100
AcDbLine
 10
766.153609824991
 20
781.8901750121983
 30
0.0
 11
766.153609824991
 21
792.9401750121983
 31
0.0
  0
LINE
  5
4EF
330
19B
100
AcDbEntity
  8
3
100
AcDbLine
 10
764.1536098249909
 20
781.8901750121983
 30
0.0
 11
766.153609824991
 21
781.8901750121983
 31
0.0
  0
LINE
  5
4F1
330
19B
100
AcDbEntity
  8
3
100
AcDbLine
 10
766.153609824991
 20
803.9901750121982
 30
0.0
 11
766.153609824991
 21
792.9401750121983
 31
0.0
  0
LINE
  5
4F2
330
19B
100
AcDbEntity
  8
3
100
AcDbLine
 10
764.1536098249909
 20
803.9901750121982
 30
0.0
 11
766.153609824991
 21
803.9901750121982
 31
0.0
  0
LINE
  5
4F9
330
19B
100
AcDbEntity
  8
3
100
AcDbLine
 10
768.1560616824484
 20
799.9401750121983
 30
0.0
 11
768.1560616824484
 21
785.9401750121983
 31
0.0
  0
LINE
  5
4FA
330
19B
100
AcDbEntity
  8
3
100
AcDbLine
 10
794.1632216562486
 20
796.9401750121983
 30
0.0
 11
794.1632216562486
 21
775.4401750121983
 31
0.0
  0
LINE
  5
4FB
330
19B
100
AcDbEntity
  8
3
100
AcDbLine
 10
798.153609824991
 20
800.9401750121982
 30
0.0
 11
798.153609824991
 21
739.5443283255673
 31
0.0
  0
LINE
  5
4FC
330
19B
100
AcDbEntity
  8
3
100
AcDbLine
 10
794.1632216562486
 20
785.9401750121983
 30
0.0
 11
768.1560616824484
 21
785.9401750121983
 31
0.0
  0
LINE
  5
4FD
330
19B
100
AcDbEntity
  8
3
100
AcDbLine
 10
791.2726574440386
 20
775.4401750121983
 30
0.0
 11
794.1632216562486
 21
775.4401750121983
 31
0.0
  0
LINE
  5
4FE
330
19B
100
AcDbEntity
  8
3
100
AcDbLine
 10
768.1560616824484
 20
799.9401750121983
 30
0.0
 11
796.2974152524834
 21
799.9401750121983
 31
0.0
  0
ARC
  5
4FF
330
19B
100
AcDbEntity
  8
3
100
AcDbCircle
 10
800.2123981503999
 20
794.8959341511295
 30
0.0
 40
6.385253084683099
100
AcDbArc
 50
108.809861139347
 51
161.3279837530881
  0
LINE
  5
502
330
19B
100
AcDbEntity
  8
3
100
AcDbLine
 10
855.153609824991
 20
567.9401750121983
 30
0.0
 11
855.153609824991
 21
603.9401750121982
 31
0.0
  0
ARC
  5
503
330
19B
100
AcDbEntity
  8
3
100
AcDbCircle
 10
850.1536098249911
 20
603.9401750121982
 30
0.0
 40
5.0
100
AcDbArc
 50
0.0
 51
90.0
  0
ARC
  5
639
330
19B
100
AcDbEntity
  8
3
100
AcDbCircle
 10
404.6536098249903
 20
792.9401750121979
 30
0.0
 40
11.05
100
AcDbArc
 50
270.0
 51
90.0
  0
ARC
  5
63A
330
19B
100
AcDbEntity
  8
3
100
AcDbCircle
 10
404.6536098249903
 20
792.9401750121979
 30
0.0
 40
19.49999999999954
100
AcDbArc
 50
270.0
 51
355.6593603338113
  0
ARC
  5
63B
330
19B
100
AcDbEntity
  8
3
100
AcDbCircle
 10
433.9317479741437
 20
788.8510478159911
 30
0.0
 40
10.17536281265847
100
AcDbArc
 50
85.93189851083067
 51
165.1184665627862
  0
ENDSEC
  0
SECTION
  2
OBJECTS
  0
DICTIONARY
  5
190
330
0
100
AcDbDictionary
281
     1
  3
ACAD_GROUP
350
191
  3
ACAD_LAYOUT
350
1C2
  3
ACAD_MLINESTYLE
350
19E
  3
ACAD_PLOTSETTINGS
350
1C3
  3
ACAD_PLOTSTYLENAME
350
1C0
  3
ACDBVARIABLEDICTIONARY
350
1B2
  3
AcmDictionary
350
27F
  3
AMG
350
1C6
  3
AMGSNAPSETTINGS
350
29C
  3
DWGPROPS
350
2A4
  3
MAPISURF_MODULE
350
252
  0
DICTIONARY
  5
63C
330
19B
100
AcDbDictionary
280
     1
281
     1
  3
ACAD_INDEX
360
63D
  0
DICTIONARY
  5
191
102
{ACAD_REACTORS
330
190
102
}
330
190
100
AcDbDictionary
281
     1
  0
DICTIONARY
  5
1C2
102
{ACAD_REACTORS
330
190
102
}
330
190
100
AcDbDictionary
281
     1
  3
Model
350
1C4
  3
ﾚｲｱｳﾄ1
350
1C5
  0
DICTIONARY
  5
19E
102
{ACAD_REACTORS
330
190
102
}
330
190
100
AcDbDictionary
281
     1
  3
STANDARD
350
19F
  0
DICTIONARY
  5
1C3
102
{ACAD_REACTORS
330
190
102
}
330
190
100
AcDbDictionary
281
     1
  0
ACDBDICTIONARYWDFLT
  5
1C0
102
{ACAD_REACTORS
330
190
102
}
330
190
100
AcDbDictionary
281
     1
  3
Normal
350
1C1
100
AcDbDictionaryWithDefault
340
1C1
  0
DICTIONARY
  5
1B2
102
{ACAD_REACTORS
330
190
102
}
330
190
100
AcDbDictionary
281
     1
  3
DIMADEC
350
1B3
  3
DIMASSOC
350
647
  3
INDEXCTL
350
646
  0
DICTIONARY
  5
27F
102
{ACAD_REACTORS
330
190
102
}
330
190
100
AcDbDictionary
281
     1
  3
AcmBOMDATA
350
280
  3
AcmStdDictionary
350
418
  0
DICTIONARY
  5
1C6
102
{ACAD_REACTORS
330
190
102
}
330
190
100
AcDbDictionary
281
     1
  3
AcMgSettings
350
1C7
  3
AMGLAYCFG
350
28C
  0
DICTIONARY
  5
29C
102
{ACAD_REACTORS
330
190
102
}
330
190
100
AcDbDictionary
281
     1
  3
DIMENSION
350
2A1
  3
FEA
350
2A0
  3
HATCH (1)
350
29D
  3
HATCH (2)
350
29E
  3
SIMPLE WELD
350
2A2
  3
SYMBOLS
350
29F
  0
XRECORD
  5
2A4
102
{ACAD_REACTORS
330
190
102
}
330
190
100
AcDbXrecord
280
     1
  1
DWGPROPS COOKIE
  2

  3

  4

  6

  7

  8

  9

300
AmdtFileType=84
301
=
302
=
303
=
304
=
305
=
306
=
307
=
308
=
309
=
 40
0.0007224652777778
 41
2450864.017078935
 42
2453551.654408993
  1

 90
        1
  0
DICTIONARY
  5
63D
102
{ACAD_REACTORS
330
63C
102
}
330
63C
100
AcDbDictionary
281
     1
  3
*A1
350
63E
  0
LAYOUT
  5
1C4
102
{ACAD_REACTORS
330
1C2
102
}
330
1C2
100
AcDbPlotSettings
  1

  2
\\KONISHIDENXP\SHARP MX-2700FG
  4

  6

 40
0.0
 41
0.0
 42
0.0
 43
0.0
 44
0.0
 45
0.0
 46
0.0
 47
0.0
 48
0.0
 49
0.0
140
0.0
141
0.0
142
1.0
143
1.0
 70
  1712
 72
     0
 73
     0
 74
     0
  7

 75
     0
147
1.0
148
0.0
149
0.0
100
AcDbLayout
  1
Model
 70
     1
 71
     0
 10
0.0
 20
0.0
 11
12.0
 21
9.0
 12
0.0
 22
0.0
 32
0.0
 14
0.0
 24
0.0
 34
0.0
 15
0.0
 25
0.0
 35
0.0
146
0.0
 13
0.0
 23
0.0
 33
0.0
 16
1.0
 26
0.0
 36
0.0
 17
0.0
 27
1.0
 37
0.0
 76
     0
330
19B
  0
LAYOUT
  5
1C5
102
{ACAD_REACTORS
330
1C2
102
}
330
1C2
100
AcDbPlotSettings
  1

  2
\\KONISHIDENXP\SHARP MX-2700FG
  4

  6

 40
0.0
 41
0.0
 42
0.0
 43
0.0
 44
0.0
 45
0.0
 46
0.0
 47
0.0
 48
0.0
 49
0.0
140
0.0
141
0.0
142
1.0
143
1.0
 70
   688
 72
     0
 73
     0
 74
     5
  7

 75
    16
147
1.0
148
0.0
149
0.0
100
AcDbLayout
  1
ﾚｲｱｳﾄ1
 70
     0
 71
     1
 10
0.0
 20
0.0
 11
12.0
 21
9.0
 12
0.0
 22
0.0
 32
0.0
 14
1.000000000000000E+20
 24
1.000000000000000E+20
 34
1.000000000000000E+20
 15
-1.000000000000000E+20
 25
-1.000000000000000E+20
 35
-1.000000000000000E+20
146
0.0
 13
0.0
 23
0.0
 33
0.0
 16
1.0
 26
0.0
 36
0.0
 17
0.0
 27
1.0
 37
0.0
 76
     0
330
198
  0
MLINESTYLE
  5
19F
102
{ACAD_REACTORS
330
19E
102
}
330
19E
100
AcDbMlineStyle
  2
STANDARD
 70
     0
  3

 62
   256
 51
90.0
 52
90.0
 71
     2
 49
0.5
 62
   256
  6
BYLAYER
 49
-0.5
 62
   256
  6
BYLAYER
  0
ACDBPLACEHOLDER
  5
1C1
102
{ACAD_REACTORS
330
1C0
102
}
330
1C0
  0
DICTIONARYVAR
  5
1B3
102
{ACAD_REACTORS
330
1B2
102
}
330
1B2
100
DictionaryVariables
280
     0
  1
0
  0
DICTIONARYVAR
  5
647
102
{ACAD_REACTORS
330
1B2
102
}
330
1B2
100
DictionaryVariables
280
     0
  1
0
  0
DICTIONARYVAR
  5
646
102
{ACAD_REACTORS
330
1B2
102
}
330
1B2
100
DictionaryVariables
280
     0
  1
1
  0
ACMDATADICTIONARY
  5
280
102
{ACAD_REACTORS
330
27F
102
}
330
27F
100
AcDbDictionary
281
     1
  3
*A1
350
281
100
AcmDataDictionary
  0
DICTIONARY
  5
418
102
{ACAD_REACTORS
330
27F
102
}
330
27F
100
AcDbDictionary
281
     1
  3
ANSI
350
419
  0
DICTIONARY
  5
1C7
102
{ACAD_REACTORS
330
1C6
102
}
330
1C6
100
AcDbDictionary
281
     1
  3
DWGSETTINGS
350
1C8
  0
ACAMGFILTERDAT
  5
2A1
102
{ACAD_REACTORS
330
29C
102
}
330
29C
100
AcAmgFilterDat
 70
    15
  1
DIMENSION,AMDT_*_DIM
  2
*
  3
*
  4
*
  5
*
290
     1
  0
ACAMGFILTERDAT
  5
2A0
102
{ACAD_REACTORS
330
29C
102
}
330
29C
100
AcAmgFilterDat
 70
    15
  1
*
  2
AM_FEA-AM_*
  3
*
  4
*
  5
*
290
     1
  0
ACAMGFILTERDAT
  5
29D
102
{ACAD_REACTORS
330
29C
102
}
330
29C
100
AcAmgFilterDat
 70
    15
  1
HATCH
  2
*
  3
*
  4
*
  5
*
290
     1
  0
ACAMGFILTERDAT
  5
29E
102
{ACAD_REACTORS
330
29C
102
}
330
29C
100
AcAmgFilterDat
 70
    15
  1
LINE
  2
8,8N,*-8,*-8N,AM_8,AM_8N,*-AM_8,*-AM_8N
  3
*
  4
*
  5
INSERT,STDPART2D
290
     1
  0
ACAMGFILTERDAT
  5
2A2
102
{ACAD_REACTORS
330
29C
102
}
330
29C
100
AcAmgFilterDat
 70
    15
  1
ARC
  2
AM_5
  3
*
  4
2
  5
INSERT
290
     0
  0
ACAMGFILTERDAT
  5
29F
102
{ACAD_REACTORS
330
29C
102
}
330
29C
100
AcAmgFilterDat
 70
    15
  1
ACMFCFRAME,ACMDATUMTARGET,ACMDATUMID,ACMWELDSYM,ACMSURFSYM,ACMFEATID,ACMPARTREF,ACMBALLOON,AMDTEDGESYM,AMGSCREWCALCTABLE
  2
*
  3
*
  4
*
  5
*
290
     1
  0
LAYER_INDEX
  5
63E
102
{ACAD_REACTORS
330
63D
102
}
330
63D
100
AcDbIndex
 40
2456448.450894097
100
AcDbLayerIndex
  8
0
360
63F
 90
        8
  8
1
360
640
 90
       11
  8
10
360
641
 90
        0
  8
11
360
642
 90
        0
  8
2
360
643
 90
        0
  8
3
360
644
 90
      165
  8
DEFPOINTS
360
645
 90
        0
  0
ACMDATAENTRYBLOCK
  5
281
102
{ACAD_REACTORS
330
280
102
}
330
280
100
AcmDataEntry
100
AcmDataEntryBlock
  0
IDBUFFER
  5
63F
330
0
100
AcDbIdBuffer
330
4A8
330
4AA
330
4DF
330
4E0
330
4E1
330
4E2
330
4E3
330
4E4
  0
IDBUFFER
  5
640
330
0
100
AcDbIdBuffer
330
433
330
434
330
43D
330
43E
330
43F
330
468
330
48B
330
49E
330
4C5
330
4D6
330
4E9
  0
IDBUFFER
  5
641
330
0
100
AcDbIdBuffer
  0
IDBUFFER
  5
642
330
0
100
AcDbIdBuffer
  0
IDBUFFER
  5
643
330
0
100
AcDbIdBuffer
  0
IDBUFFER
  5
644
330
0
100
AcDbIdBuffer
330
4B9
330
4BA
330
4BB
330
4BC
330
4BD
330
4BE
330
4BF
330
4C4
330
4C6
330
4C7
330
4C8
330
4C9
330
4CA
330
4CB
330
4CD
330
4CE
330
4CF
330
4D0
330
4D1
330
4D2
330
4D3
330
4D4
330
4D7
330
4D8
330
4D9
330
4DA
330
4DB
330
4DC
330
4DD
330
4DE
330
4E5
330
4E6
330
4E7
330
4E8
330
4EA
330
4EB
330
4ED
330
4EE
330
4EF
330
4F1
330
4F2
330
4F9
330
4FA
330
4FB
330
4FC
330
4FD
330
4FE
330
4FF
330
502
330
503
330
639
330
63A
330
63B
330
42E
330
42F
330
430
330
431
330
432
330
435
330
437
330
438
330
439
330
43A
330
43B
330
43C
330
440
330
441
330
442
330
443
330
444
330
445
330
446
330
447
330
448
330
449
330
44A
330
44B
330
44C
330
44D
330
451
330
453
330
454
330
455
330
456
330
457
330
45B
330
45C
330
45D
330
45E
330
45F
330
460
330
461
330
462
330
463
330
464
330
465
330
466
330
467
330
469
330
46A
330
46B
330
46C
330
46D
330
46E
330
46F
330
470
330
471
330
472
330
473
330
474
330
475
330
476
330
477
330
478
330
47B
330
47C
330
47D
330
47E
330
47F
330
480
330
481
330
482
330
483
330
484
330
485
330
486
330
487
330
488
330
489
330
48A
330
48C
330
48D
330
48E
330
48F
330
490
330
491
330
492
330
494
330
495
330
496
330
497
330
499
330
49A
330
49B
330
49C
330
4A0
330
4A1
330
4A2
330
4A3
330
4A4
330
4A6
330
4AB
330
4AC
330
4AD
330
4AE
330
4AF
330
4B0
330
4B1
330
4B2
330
4B3
330
4B4
330
4B5
330
4B6
330
4B7
330
4B8
  0
IDBUFFER
  5
645
330
0
100
AcDbIdBuffer
  0
ENDSEC
  0
EOF
