  0
SECTION
  2
HEADER
  9
$ACADVER
  1
AC1015
  9
$ACADMAINTVER
 70
    13
  9
$DWGCODEPAGE
  3
ANSI_932
  9
$INSBASE
 10
0.0
 20
0.0
 30
0.0
  9
$EXTMIN
 10
185.0
 20
305.0
 30
0.0
  9
$EXTMAX
 10
1148.848758
 20
907.9329247812085
 30
0.0
  9
$LIMMIN
 10
0.0
 20
0.0
  9
$LIMMAX
 10
1600.0
 20
1200.0
  9
$ORTHOMODE
 70
     1
  9
$REGENMODE
 70
     1
  9
$FILLMODE
 70
     1
  9
$QTEXTMODE
 70
     0
  9
$MIRRTEXT
 70
     1
  9
$LTSCALE
 40
100.0
  9
$ATTMODE
 70
     1
  9
$TEXTSIZE
 40
55.0
  9
$TRACEWID
 40
0.05
  9
$TEXTSTYLE
  7
BIGFONT
  9
$CLAYER
  8
0
  9
$CELTYPE
  6
BYLAYER
  9
$CECOLOR
 62
   256
  9
$CELTSCALE
 40
1.0
  9
$DISPSILH
 70
     0
  9
$DIMSCALE
 40
10.0
  9
$DIMASZ
 40
3.0
  9
$DIMEXO
 40
2.0
  9
$DIMDLI
 40
0.38
  9
$DIMRND
 40
0.0
  9
$DIMDLE
 40
0.0
  9
$DIMEXE
 40
2.0
  9
$DIMTP
 40
0.0
  9
$DIMTM
 40
0.0
  9
$DIMTXT
 40
3.2
  9
$DIMCEN
 40
0.09
  9
$DIMTSZ
 40
0.0
  9
$DIMTOL
 70
     0
  9
$DIMLIM
 70
     0
  9
$DIMTIH
 70
     0
  9
$DIMTOH
 70
     0
  9
$DIMSE1
 70
     0
  9
$DIMSE2
 70
     0
  9
$DIMTAD
 70
     1
  9
$DIMZIN
 70
     0
  9
$DIMBLK
  1

  9
$DIMASO
 70
     0
  9
$DIMSHO
 70
     0
  9
$DIMPOST
  1

  9
$DIMAPOST
  1

  9
$DIMALT
 70
     0
  9
$DIMALTD
 70
     2
  9
$DIMALTF
 40
25.4
  9
$DIMLFAC
 40
1.0
  9
$DIMTOFL
 70
     0
  9
$DIMTVP
 40
1.6
  9
$DIMTIX
 70
     1
  9
$DIMSOXD
 70
     0
  9
$DIMSAH
 70
     0
  9
$DIMBLK1
  1

  9
$DIMBLK2
  1

  9
$DIMSTYLE
  2
STANDARD
  9
$DIMCLRD
 70
     0
  9
$DIMCLRE
 70
     0
  9
$DIMCLRT
 70
     0
  9
$DIMTFAC
 40
1.0
  9
$DIMGAP
 40
0.09
  9
$DIMJUST
 70
     0
  9
$DIMSD1
 70
     0
  9
$DIMSD2
 70
     0
  9
$DIMTOLJ
 70
     1
  9
$DIMTZIN
 70
     0
  9
$DIMALTZ
 70
     0
  9
$DIMALTTZ
 70
     0
  9
$DIMUPT
 70
     0
  9
$DIMDEC
 70
     4
  9
$DIMTDEC
 70
     4
  9
$DIMALTU
 70
     2
  9
$DIMALTTD
 70
     2
  9
$DIMTXSTY
  7
BIGFONT
  9
$DIMAUNIT
 70
     0
  9
$DIMADEC
 70
     0
  9
$DIMALTRND
 40
0.0
  9
$DIMAZIN
 70
     0
  9
$DIMDSEP
 70
    46
  9
$DIMATFIT
 70
     3
  9
$DIMFRAC
 70
     0
  9
$DIMLDRBLK
  1

  9
$DIMLUNIT
 70
     2
  9
$DIMLWD
 70
    -2
  9
$DIMLWE
 70
    -2
  9
$DIMTMOVE
 70
     0
  9
$LUNITS
 70
     2
  9
$LUPREC
 70
     4
  9
$SKETCHINC
 40
0.1
  9
$FILLETRAD
 40
0.0
  9
$AUNITS
 70
     0
  9
$AUPREC
 70
     0
  9
$MENU
  1
ACAD
  9
$ELEVATION
 40
0.0
  9
$PELEVATION
 40
0.0
  9
$THICKNESS
 40
0.0
  9
$LIMCHECK
 70
     0
  9
$CHAMFERA
 40
0.0
  9
$CHAMFERB
 40
0.0
  9
$CHAMFERC
 40
0.0
  9
$CHAMFERD
 40
0.0
  9
$SKPOLY
 70
     0
  9
$TDCREATE
 40
2450863.979750000
  9
$TDUCREATE
 40
2450863.604749999
  9
$TDUPDATE
 40
2456448.469584953
  9
$TDUUPDATE
 40
2456448.094584953
  9
$TDINDWG
 40
0.0021802546
  9
$TDUSRTIMER
 40
0.0021800810
  9
$USRTIMER
 70
     1
  9
$ANGBASE
 50
0.0
  9
$ANGDIR
 70
     0
  9
$PDMODE
 70
     0
  9
$PDSIZE
 40
0.0
  9
$PLINEWID
 40
0.0
  9
$SPLFRAME
 70
     0
  9
$SPLINETYPE
 70
     6
  9
$SPLINESEGS
 70
     8
  9
$HANDSEED
  5
5E4
  9
$SURFTAB1
 70
     6
  9
$SURFTAB2
 70
     6
  9
$SURFTYPE
 70
     6
  9
$SURFU
 70
     6
  9
$SURFV
 70
     6
  9
$UCSBASE
  2

  9
$UCSNAME
  2

  9
$UCSORG
 10
0.0
 20
0.0
 30
0.0
  9
$UCSXDIR
 10
1.0
 20
0.0
 30
0.0
  9
$UCSYDIR
 10
0.0
 20
1.0
 30
0.0
  9
$UCSORTHOREF
  2

  9
$UCSORTHOVIEW
 70
     0
  9
$UCSORGTOP
 10
0.0
 20
0.0
 30
0.0
  9
$UCSORGBOTTOM
 10
0.0
 20
0.0
 30
0.0
  9
$UCSORGLEFT
 10
0.0
 20
0.0
 30
0.0
  9
$UCSORGRIGHT
 10
0.0
 20
0.0
 30
0.0
  9
$UCSORGFRONT
 10
0.0
 20
0.0
 30
0.0
  9
$UCSORGBACK
 10
0.0
 20
0.0
 30
0.0
  9
$PUCSBASE
  2

  9
$PUCSNAME
  2

  9
$PUCSORG
 10
0.0
 20
0.0
 30
0.0
  9
$PUCSXDIR
 10
1.0
 20
0.0
 30
0.0
  9
$PUCSYDIR
 10
0.0
 20
1.0
 30
0.0
  9
$PUCSORTHOREF
  2

  9
$PUCSORTHOVIEW
 70
     0
  9
$PUCSORGTOP
 10
0.0
 20
0.0
 30
0.0
  9
$PUCSORGBOTTOM
 10
0.0
 20
0.0
 30
0.0
  9
$PUCSORGLEFT
 10
0.0
 20
0.0
 30
0.0
  9
$PUCSORGRIGHT
 10
0.0
 20
0.0
 30
0.0
  9
$PUCSORGFRONT
 10
0.0
 20
0.0
 30
0.0
  9
$PUCSORGBACK
 10
0.0
 20
0.0
 30
0.0
  9
$USERI1
 70
     0
  9
$USERI2
 70
     0
  9
$USERI3
 70
     0
  9
$USERI4
 70
     0
  9
$USERI5
 70
     0
  9
$USERR1
 40
0.0
  9
$USERR2
 40
0.0
  9
$USERR3
 40
0.0
  9
$USERR4
 40
0.0
  9
$USERR5
 40
0.0
  9
$WORLDVIEW
 70
     1
  9
$SHADEDGE
 70
     3
  9
$SHADEDIF
 70
    70
  9
$TILEMODE
 70
     1
  9
$MAXACTVP
 70
    16
  9
$PINSBASE
 10
0.0
 20
0.0
 30
0.0
  9
$PLIMCHECK
 70
     0
  9
$PEXTMIN
 10
1.000000000000000E+20
 20
1.000000000000000E+20
 30
1.000000000000000E+20
  9
$PEXTMAX
 10
-1.000000000000000E+20
 20
-1.000000000000000E+20
 30
-1.000000000000000E+20
  9
$PLIMMIN
 10
0.0
 20
0.0
  9
$PLIMMAX
 10
12.0
 20
9.0
  9
$UNITMODE
 70
     0
  9
$VISRETAIN
 70
     0
  9
$PLINEGEN
 70
     1
  9
$PSLTSCALE
 70
     0
  9
$TREEDEPTH
 70
  3020
  9
$CMLSTYLE
  2
STANDARD
  9
$CMLJUST
 70
     0
  9
$CMLSCALE
 40
1.0
  9
$PROXYGRAPHICS
 70
     1
  9
$MEASUREMENT
 70
     0
  9
$CELWEIGHT
370
    -1
  9
$ENDCAPS
280
     0
  9
$JOINSTYLE
280
     0
  9
$LWDISPLAY
290
     0
  9
$INSUNITS
 70
     0
  9
$HYPERLINKBASE
  1

  9
$STYLESHEET
  1

  9
$XEDIT
290
     1
  9
$CEPSNTYPE
380
     0
  9
$PSTYLEMODE
290
     1
  9
$FINGERPRINTGUID
  2
{D25585DD-F23E-4020-98C9-E2DD0FD2F171}
  9
$VERSIONGUID
  2
{220B2D76-B2FF-483D-A602-B42B7C0019D4}
  9
$EXTNAMES
290
     1
  9
$PSVPSCALE
 40
0.0
  9
$OLESTARTUP
290
     0
  0
ENDSEC
  0
SECTION
  2
CLASSES
  0
CLASS
  1
DICTIONARYVAR
  2
AcDbDictionaryVar
  3
AutoCAD 2000
 90
        0
280
     0
281
     0
  0
CLASS
  1
ACDBDICTIONARYWDFLT
  2
AcDbDictionaryWithDefault
  3
AutoCAD 2000
 90
        0
280
     0
281
     0
  0
CLASS
  1
ACDBPLACEHOLDER
  2
AcDbPlaceHolder
  3
AutoCAD 2000
 90
        0
280
     0
281
     0
  0
CLASS
  1
LAYOUT
  2
AcDbLayout
  3
AutoCAD 2000
 90
        0
280
     0
281
     0
  0
CLASS
  1
AMGSETTINGSOBJ
  2
AmgSettingsObj
  3
"AcadM|Product Description: AutoCAD Mechanical 2000|Company: Autodesk"
 90
        0
280
     0
281
     0
  0
CLASS
  1
ACME_DOCUMENT
  2
AcMeDbDoc
  3
AcMeServices
 90
        0
280
     0
281
     0
  0
CLASS
  1
ACMESCOPE
  2
AcMeScope
  3
AcMeServices
 90
        0
280
     0
281
     0
  0
CLASS
  1
ACMECOMMANDHISTORY
  2
AcMeCommandHistory
  3
AcMeServices
 90
        0
280
     0
281
     0
  0
CLASS
  1
ACIMSYSVARMAN
  2
AcImSysVarManager
  3
AcMeServices
 90
        0
280
     0
281
     0
  0
CLASS
  1
ACIMREALSYSVAR
  2
AcImRealSysVar
  3
AcMeServices
 90
        0
280
     0
281
     0
  0
CLASS
  1
ACIMINTSYSVAR
  2
AcImIntSysVar
  3
AcMeServices
 90
        0
280
     0
281
     0
  0
CLASS
  1
ACMEDRAWINGMAN
  2
AcMeDrawingMan
  3
AcMeServices
 90
        0
280
     0
281
     0
  0
CLASS
  1
ACMEVIEW
  2
AcMeView
  3
AcMeServices
 90
        0
280
     0
281
     0
  0
CLASS
  1
ACDBENTITYCACHE
  2
AcMeEntityCache
  3
AcMeServices
 90
        0
280
     0
281
     0
  0
CLASS
  1
GSMANAGER
  2
AcMeGSManager
  3
AcMeServices
 90
        0
280
     0
281
     0
  0
CLASS
  1
AMDTINTERNALREACTOR
  2
AmdtInternalReactor
  3
AcMeServices
 90
        0
280
     0
281
     0
  0
CLASS
  1
ACMESTATEMGR
  2
AcMeStateMgr
  3
AcMeServices
 90
        0
280
     0
281
     0
  0
CLASS
  1
ACGREFMASTER
  2
AcGrefMaster
  3
AcAttribServices
 90
        0
280
     0
281
     0
  0
CLASS
  1
AM_DRAWING_MGR
  2
AcDmDwgMgr
  3
AcMechDwgViewMgmt
 90
        0
280
     0
281
     0
  0
CLASS
  1
AM_DWG_DOCUMENT
  2
AcDmDwgDocument
  3
AcMechDwgViewMgmt
 90
        0
280
     0
281
     0
  0
CLASS
  1
AM_DWG_SHEET
  2
AcDmSheet
  3
AcMechDwgViewMgmt
 90
        0
280
     0
281
     0
  0
CLASS
  1
AM_VIEWDIMPARMAP
  2
AcDmViewDimParMap
  3
AcMechDwgViewMgmt
 90
        0
280
     0
281
     0
  0
CLASS
  1
AM_DWGMGR_NAME
  2
AcDmDwgMgrName
  3
AcMechDwgViewMgmt
 90
        0
280
     0
281
     0
  0
CLASS
  1
ACME_DATABASE
  2
AcMeDbDatabase
  3
AcMeServices
 90
        0
280
     0
281
     0
  0
CLASS
  1
ACRFINSADJUSTERMGR
  2
AcRfInsAdjusterMgr
  3
AcMeServices
 90
        0
280
     0
281
     0
  0
CLASS
  1
ACGREFACADMASTER
  2
AcGrefacadMaster
  3
AcGrefServices
 90
        0
280
     0
281
     0
  0
CLASS
  1
AMDTMENUSTATEMGR
  2
AmdtMenuStateMgr
  3
McadcomServices
 90
        0
280
     0
281
     0
  0
CLASS
  1
AMDTMCOMMENUSTATE
  2
AmdtMcomMenuState
  3
McadcomServices
 90
        0
280
     0
281
     0
  0
CLASS
  1
AMIMASTER
  2
AmiMaster
  3
AmiServices
 90
        0
280
     0
281
     0
  0
CLASS
  1
ASAPP
  2
AcAsAppObject
  3
AutoSurfServices
 90
        0
280
     0
281
     0
  0
CLASS
  1
IM_STATIC_MAN
  2
AcImStaticVarManager
  3
AcMeServices
 90
        0
280
     0
281
     0
  0
CLASS
  1
ACIMSTRSYSVAR
  2
AcImStrSysVar
  3
AcMeServices
 90
        0
280
     0
281
     0
  0
CLASS
  1
ACIMDBLSTATICVAR
  2
AcImDblStaticVar
  3
AcMeServices
 90
        0
280
     0
281
     0
  0
CLASS
  1
ACIMSTRSTATICVAR
  2
AcImStrStaticVar
  3
AcMeServices
 90
        0
280
     0
281
     0
  0
CLASS
  1
ACIMINTSTATICVAR
  2
AcImIntStaticVar
  3
AcMeServices
 90
        0
280
     0
281
     0
  0
CLASS
  1
ACASGREFMASTER
  2
AcAsGrefMaster
  3
AutoSurfResolverServices
 90
        0
280
     0
281
     0
  0
CLASS
  1
ACADGREFMODULE
  2
AcAdGrefModule
  3
AdGrefServices
 90
        0
280
     0
281
     0
  0
CLASS
  1
AMDTMAPISURFMOUDULE
  2
AmdtMApiSurfModule
  3
MApiSurfServices
 90
        0
280
     0
281
     0
  0
CLASS
  1
MAPIAMMOUDLE
  2
MApiAmModule
  3
MApiAmServices
 90
        0
280
     0
281
     0
  0
CLASS
  1
AMDTADMENUSTATE
  2
AmdtAdMenuState
  3
DesignerServices
 90
        0
280
     0
281
     0
  0
CLASS
  1
ADAPPL
  2
AcAdAppl
  3
DesignerServices
 90
        0
280
     0
281
     0
  0
CLASS
  1
DEPMGR
  2
AcAdDepMgr
  3
DesignerServices
 90
        0
280
     0
281
     0
  0
CLASS
  1
PARAMMGR
  2
AcAdParamMgr
  3
DesignerServices
 90
        0
280
     0
281
     0
  0
CLASS
  1
PARAMSCOPE
  2
AcAdParamScope
  3
DesignerServices
 90
        0
280
     0
281
     0
  0
CLASS
  1
NAMEDAPPL
  2
AcAdNamedAppl
  3
DesignerServices
 90
        0
280
     0
281
     0
  0
CLASS
  1
AMDTDMMENUSTATE
  2
AmdtDmMenuState
  3
AcMechDwgViewMgmt
 90
        0
280
     0
281
     0
  0
CLASS
  1
MAPIADMODULE
  2
MApiAdModule
  3
MApiAdServices
 90
        0
280
     0
281
     0
  0
CLASS
  1
AMDTAMMENUSTATE
  2
AmdtAmMenuState
  3
DesignerAssemblies
 90
        0
280
     0
281
     0
  0
CLASS
  1
ACAMPROJECT
  2
AcAmProject
  3
DesignerAssemblies
 90
        0
280
     0
281
     0
  0
CLASS
  1
ACAMGRCOMPDEF
  2
AcAmGrCompDef
  3
DesignerAssemblies
 90
        0
280
     0
281
     0
  0
CLASS
  1
ACCMCONTEXT
  2
AcCmContext
  3
DesignerAssemblies
 90
        0
280
     0
281
     0
  0
CLASS
  1
ACAMCOMPDEF
  2
AcAmCompDef
  3
DesignerAssemblies
 90
        0
280
     0
281
     0
  0
CLASS
  1
ACAMCOMPDEFMGR
  2
AcAmCompDefMgr
  3
DesignerAssemblies
 90
        0
280
     0
281
     0
  0
CLASS
  1
AMCONTEXTMGR
  2
AcAmContextMgr
  3
DesignerAssemblies
 90
        0
280
     0
281
     0
  0
CLASS
  1
ACAMCONTEXTMODELER
  2
AcAmContextModeler
  3
DesignerAssemblies
 90
        0
280
     0
281
     0
  0
CLASS
  1
ACMDATADICTIONARY
  2
AcmDataDictionary
  3
"AcmSymBB|Product Description: AutoCAD Mechanical 2000|Company: Autodesk"
 90
        0
280
     0
281
     0
  0
CLASS
  1
ACMDATAENTRYBLOCK
  2
AcmDataEntryBlock
  3
"AcmSymBB|Product Description: AutoCAD Mechanical 2000|Company: Autodesk"
 90
        0
280
     0
281
     0
  0
CLASS
  1
CATALOGSTATE
  2
AcAmCatalogState
  3
DesignerAssemblies
 90
        0
280
     0
281
     0
  0
CLASS
  1
ACAMGRCOMPDEFSET
  2
AcAmGrCompDefSet
  3
DesignerAssemblies
 90
        0
280
     0
281
     0
  0
CLASS
  1
AMDTBROWSERDBTAB
  2
AmdtBrowserDbTab
  3
McadcomServices
 90
        0
280
     0
281
     0
  0
CLASS
  1
CBROWSERAPPOBJECT
  2
CBrowserAppObject
  3
McadcomServices
 90
        0
280
     0
281
     0
  0
CLASS
  1
DM_PLACEHOLDER
  2
AcDmSelsetPlaceholder
  3
AcMechDwgViewMgmt
 90
        0
280
     0
281
     0
  0
CLASS
  1
AMGOBJPROPCFG
  2
AmgObjPropCfg
  3
"AmgLay|Product Description: AutoCAD Mechanical 2000|Company: Autodesk"
 90
        1
280
     0
281
     0
  0
CLASS
  1
ACAMGFILTERDAT
  2
AcAmgFilterDat
  3
"AcadM|Product Description: AutoCAD Mechanical 2000|Company: Autodesk"
 90
        0
280
     0
281
     0
  0
CLASS
  1
ACMSTANDARDANSI
  2
AcmStandardANSI
  3
"Amdt_StdImp|Product Description: AutoCAD Mechanical 2000|Company: Autodesk"
 90
        0
280
     0
281
     0
  0
CLASS
  1
ACMSURFSTANDARDANSI
  2
AcmSurfTextStdANSI
  3
"Amdt_StdImp|Product Description: AutoCAD Mechanical 2000|Company: Autodesk"
 90
        0
280
     0
281
     0
  0
CLASS
  1
ACMFCFSTANDARDANSI
  2
AcmFCFStdANSI
  3
"Amdt_StdImp|Product Description: AutoCAD Mechanical 2000|Company: Autodesk"
 90
        0
280
     0
281
     0
  0
CLASS
  1
ACMWELDSTANDARDANSI
  2
AcmWeldingStdANSI
  3
"Amdt_StdImp|Product Description: AutoCAD Mechanical 2000|Company: Autodesk"
 90
        0
280
     0
281
     0
  0
CLASS
  1
ACMIDSTANDARDANSI
  2
AcmIdStdANSI
  3
"Amdt_StdImp|Product Description: AutoCAD Mechanical 2000|Company: Autodesk"
 90
        0
280
     0
281
     0
  0
CLASS
  1
ACMDATUMSTANDARDANSI
  2
AcmDatumStdANSI
  3
"Amdt_StdImp|Product Description: AutoCAD Mechanical 2000|Company: Autodesk"
 90
        0
280
     0
281
     0
  0
CLASS
  1
ACMBOMSTANDARDANSI
  2
AcmBOMStdANSI
  3
"Amdt_StdImp|Product Description: AutoCAD Mechanical 2000|Company: Autodesk"
 90
        0
280
     0
281
     0
  0
CLASS
  1
ACMDETAILSTANDARDANSI
  2
AmdtDetailSymStdANSI
  3
"Amdt_StdImp|Product Description: AutoCAD Mechanical 2000|Company: Autodesk"
 90
        0
280
     0
281
     0
  0
CLASS
  1
ACMSECTIONSTANDARDANSI
  2
AmdtSectionSymStdANSI
  3
"Amdt_StdImp|Product Description: AutoCAD Mechanical 2000|Company: Autodesk"
 90
        0
280
     0
281
     0
  0
CLASS
  1
ACMCENTERLINESTANDARDANSI
  2
AmdtCenterLineStdANSI
  3
"Amdt_StdImp|Product Description: AutoCAD Mechanical 2000|Company: Autodesk"
 90
        0
280
     0
281
     0
  0
CLASS
  1
ACMTHREADLINESTANDARDANSI
  2
AmdtThreadLineStdANSI
  3
"Amdt_StdImp|Product Description: AutoCAD Mechanical 2000|Company: Autodesk"
 90
        0
280
     0
281
     0
  0
CLASS
  1
ACMNOTESTANDARDANSI
  2
AmdtNoteStdANSI
  3
"Amdt_StdImp|Product Description: AutoCAD Mechanical 2000|Company: Autodesk"
 90
        0
280
     0
281
     0
  0
CLASS
  1
ACAMGLAYSTD
  2
AcAmgLayStd
  3
"AcAmgLayStd|Product Description: AutoCAD Mechanical 2000|Company: Autodesk"
 90
        0
280
     0
281
     0
  0
CLASS
  1
ACAMGDIMSTD
  2
AcAmgDimStd
  3
"AcAmgDimStd|Product Description: AutoCAD Mechanical 2000|Company: Autodesk"
 90
        0
280
     0
281
     0
  0
CLASS
  1
ACAMGHOLECHARTSTDANSI
  2
AcAmgHoleChartStdANSI
  3
ACMSYMBB_MODULE_NAME
 90
        0
280
     0
281
     0
  0
CLASS
  1
ACAMGTITLESTD
  2
AcAmgTitleStd
  3
"TITLEAPP"
 90
        0
280
     0
281
     0
  0
CLASS
  1
AMDTFORMULAUPDATEDISPATCHER
  2
AmdtFormulaUpdateDispatcher
  3
AcMeServices
 90
        0
280
     0
281
     0
  0
CLASS
  1
LAYER_INDEX
  2
AcDbLayerIndex
  3
AutoCAD 2000
 90
        0
280
     0
281
     0
  0
CLASS
  1
IDBUFFER
  2
AcDbIdBuffer
  3
AutoCAD 2000
 90
        0
280
     0
281
     0
  0
ENDSEC
  0
SECTION
  2
TABLES
  0
TABLE
  2
VPORT
  5
1AD
330
0
100
AcDbSymbolTable
 70
     3
  0
VPORT
  5
5E3
330
1AD
100
AcDbSymbolTableRecord
100
AcDbViewportTableRecord
  2
*Active
 70
     0
 10
0.0
 20
0.0
 11
1.0
 21
1.0
 12
0.0
 22
0.0
 13
0.0
 23
0.0
 14
5.0
 24
5.0
 15
10.0
 25
10.0
 16
0.0
 26
0.0
 36
1.0
 17
691.9054386905943
 27
639.7329519999999
 37
0.0
 40
756.330649924627
 41
1.489721886336154
 42
50.0
 43
0.0
 44
0.0
 50
0.0
 51
0.0
 71
     0
 72
   500
 73
     1
 74
     1
 75
     0
 76
     0
 77
     0
 78
     2
281
     0
 65
     0
110
0.0
120
0.0
130
0.0
111
1.0
121
0.0
131
0.0
112
0.0
122
1.0
132
0.0
 79
     0
146
0.0
  0
ENDTAB
  0
TABLE
  2
LTYPE
  5
1AA
330
0
100
AcDbSymbolTable
 70
    20
  0
LTYPE
  5
1B6
330
1AA
100
AcDbSymbolTableRecord
100
AcDbLinetypeTableRecord
  2
BYBLOCK
 70
     0
  3

 72
    65
 73
     0
 40
0.0
  0
LTYPE
  5
1B7
330
1AA
100
AcDbSymbolTableRecord
100
AcDbLinetypeTableRecord
  2
BYLAYER
 70
     0
  3

 72
    65
 73
     0
 40
0.0
  0
LTYPE
  5
1B8
330
1AA
100
AcDbSymbolTableRecord
100
AcDbLinetypeTableRecord
  2
CONTINUOUS
 70
     0
  3
実線
 72
    65
 73
     0
 40
0.0
  0
LTYPE
  5
1C6
330
1AA
100
AcDbSymbolTableRecord
100
AcDbLinetypeTableRecord
  2
CENTER
 70
     0
  3
____ _ ____ _ ____ _ ____ _ ____ _ ____ _ ____
 72
    65
 73
     4
 40
2.0
 49
1.25
 74
     0
 49
-0.25
 74
     0
 49
0.25
 74
     0
 49
-0.25
 74
     0
  0
LTYPE
  5
1C7
330
1AA
100
AcDbSymbolTableRecord
100
AcDbLinetypeTableRecord
  2
TENSEN1
 70
     0
  3

 72
    65
 73
     2
 40
0.4
 49
0.3
 74
     0
 49
-0.1
 74
     0
  0
LTYPE
  5
20D
330
1AA
100
AcDbSymbolTableRecord
100
AcDbLinetypeTableRecord
  2
HIDDEN
 70
     0
  3
Hidden __ __ __ __ __ __ __ __ __ __ __ __ __ _
 72
    65
 73
     2
 40
0.375
 49
0.25
 74
     0
 49
-0.125
 74
     0
  0
LTYPE
  5
20E
330
1AA
100
AcDbSymbolTableRecord
100
AcDbLinetypeTableRecord
  2
PHANTOM2
 70
     0
  3
Phantom (.5x) ___ _ _ ___ _ _ ___ _ _ ___ _ _
 72
    65
 73
     6
 40
1.25
 49
0.625
 74
     0
 49
-0.125
 74
     0
 49
0.125
 74
     0
 49
-0.125
 74
     0
 49
0.125
 74
     0
 49
-0.125
 74
     0
  0
LTYPE
  5
270
330
1AA
100
AcDbSymbolTableRecord
100
AcDbLinetypeTableRecord
  2
ASULTYPE
 70
     0
  3
実線
 72
    65
 73
     2
 40
3.0
 49
2.5
 74
     0
 49
0.5
 74
     0
  0
LTYPE
  5
271
330
1AA
100
AcDbSymbolTableRecord
100
AcDbLinetypeTableRecord
  2
ASVLTYPE
 70
     0
  3
__ __ __ __ __ __ __ __ __ __ __ __ __ __ __ __ __ __ __ __ __
 72
    65
 73
     2
 40
0.75
 49
0.5
 74
     0
 49
-0.25
 74
     0
  0
LTYPE
  5
2B2
330
1AA
100
AcDbSymbolTableRecord
100
AcDbLinetypeTableRecord
  2
AM_ISO02W050
 70
     0
  3
__ __ __ __ __ __ __ __ __ __ __ __ __ __ __
 72
    65
 73
     2
 40
7.5
 49
6.0
 74
     0
 49
-1.5
 74
     0
  0
LTYPE
  5
2B3
330
1AA
100
AcDbSymbolTableRecord
100
AcDbLinetypeTableRecord
  2
AM_ISO08W050
 70
     0
  3
____ . ____ . ____ . ____ . ____ . ____ . ____
 72
    65
 73
     4
 40
18.0
 49
12.0
 74
     0
 49
-1.5
 74
     0
 49
3.0
 74
     0
 49
-1.5
 74
     0
  0
LTYPE
  5
2B4
330
1AA
100
AcDbSymbolTableRecord
100
AcDbLinetypeTableRecord
  2
AM_ISO09W050
 70
     0
  3
_____ . . _____ . . _____ . . ____ .. ____
 72
    65
 73
     6
 40
22.5
 49
12.0
 74
     0
 49
-1.5
 74
     0
 49
3.0
 74
     0
 49
-1.5
 74
     0
 49
3.0
 74
     0
 49
-1.5
 74
     0
  0
LTYPE
  5
2B5
330
1AA
100
AcDbSymbolTableRecord
100
AcDbLinetypeTableRecord
  2
Amconstr
 70
     0
  3
_______________________
 72
    65
 73
     2
 40
9999.0
 49
9999.0
 74
     0
 49
0.0
 74
     0
  0
LTYPE
  5
2B6
330
1AA
100
AcDbSymbolTableRecord
100
AcDbLinetypeTableRecord
  2
AM_ISO08W050x2
 70
     0
  3
__ . __ . __ . __ . __ . __
 72
    65
 73
     4
 40
9.0
 49
6.0
 74
     0
 49
-0.75
 74
     0
 49
1.5
 74
     0
 49
-0.75
 74
     0
  0
LTYPE
  5
2B7
330
1AA
100
AcDbSymbolTableRecord
100
AcDbLinetypeTableRecord
  2
AM_ISO02W050x2
 70
     0
  3
 _ _ _ _ _ _ _ _ _ _ _ _
 72
    65
 73
     2
 40
3.75
 49
3.0
 74
     0
 49
-0.75
 74
     0
  0
LTYPE
  5
2BA
330
1AA
100
AcDbSymbolTableRecord
100
AcDbLinetypeTableRecord
  2
Amzigzag
 70
     0
  3
/\/-/\/-/\/-/\/-/\/-/\/
 72
    65
 73
     2
 40
11.00009999999999
 49
0.0001
 74
     4
 75
   135
340
2B9
 46
0.04
 50
0.0
 44
0.0
 45
0.0
 49
-11.0
 74
     0
  0
LTYPE
  5
2BB
330
1AA
100
AcDbSymbolTableRecord
100
AcDbLinetypeTableRecord
  2
CENTER2
 70
     0
  3
Center (.5x) ___ _ ___ _ ___ _ ___ _ ___ _ ___
 72
    65
 73
     4
 40
1.125
 49
0.75
 74
     0
 49
-0.125
 74
     0
 49
0.125
 74
     0
 49
-0.125
 74
     0
  0
LTYPE
  5
2BC
330
1AA
100
AcDbSymbolTableRecord
100
AcDbLinetypeTableRecord
  2
HIDDEN2
 70
     0
  3
Hidden (.5x) _ _ _ _ _ _ _ _ _ _ _ _ _ _ _ _ _
 72
    65
 73
     2
 40
0.1875
 49
0.125
 74
     0
 49
-0.0625
 74
     0
  0
LTYPE
  5
2BD
330
1AA
100
AcDbSymbolTableRecord
100
AcDbLinetypeTableRecord
  2
Amzigzag2
 70
     0
  3
/\/-/\/-/\/-/\/-/\/-/\/
 72
    65
 73
     2
 40
0.4401
 49
0.0001
 74
     4
 75
   135
340
2B9
 46
0.0016
 50
0.0
 44
0.0
 45
0.0
 49
-0.4400000000000001
 74
     0
  0
LTYPE
  5
360
330
1AA
100
AcDbSymbolTableRecord
100
AcDbLinetypeTableRecord
  2
ITTEN1
 70
     0
  3

 72
    65
 73
     4
 40
8.199999999999999
 49
5.0
 74
     0
 49
-1.0
 74
     0
 49
1.199999999999999
 74
     0
 49
-1.0
 74
     0
  0
LTYPE
  5
361
330
1AA
100
AcDbSymbolTableRecord
100
AcDbLinetypeTableRecord
  2
ACANSTGB
 70
     0
  3
__ . . __ . .
 72
    65
 73
     6
 40
0.35433070866
 49
0.15748031496
 74
     0
 49
-0.03937007874
 74
     0
 49
0.03937007874
 74
     0
 49
-0.03937007874
 74
     0
 49
0.03937007874
 74
     0
 49
-0.03937007874
 74
     0
  0
LTYPE
  5
362
330
1AA
100
AcDbSymbolTableRecord
100
AcDbLinetypeTableRecord
  2
ACANSTGL
 70
     0
  3
_ _ _ _ _
 72
    65
 73
     2
 40
0.11811023622
 49
0.07874015748
 74
     0
 49
-0.03937007874
 74
     0
  0
ENDTAB
  0
TABLE
  2
LAYER
  5
1A7
330
0
100
AcDbSymbolTable
 70
     8
  0
LAYER
  5
1B3
330
1A7
100
AcDbSymbolTableRecord
100
AcDbLayerTableRecord
  2
0
 70
     0
 62
     7
  6
CONTINUOUS
370
    -3
390
1E3
  0
LAYER
  5
1CC
330
1A7
100
AcDbSymbolTableRecord
100
AcDbLayerTableRecord
  2
1
 70
     0
 62
     1
  6
CENTER
370
    -3
390
1E3
  0
LAYER
  5
1CD
330
1A7
100
AcDbSymbolTableRecord
100
AcDbLayerTableRecord
  2
4
 70
     0
 62
     4
  6
CONTINUOUS
370
    -3
390
1E3
  0
LAYER
  5
1CE
330
1A7
100
AcDbSymbolTableRecord
100
AcDbLayerTableRecord
  2
10
 70
     0
 62
     7
  6
CONTINUOUS
370
    -3
390
1E3
  0
LAYER
  5
1CF
330
1A7
100
AcDbSymbolTableRecord
100
AcDbLayerTableRecord
  2
11
 70
     0
 62
     3
  6
CONTINUOUS
370
    -3
390
1E3
  0
LAYER
  5
1D0
330
1A7
100
AcDbSymbolTableRecord
100
AcDbLayerTableRecord
  2
2
 70
     0
 62
     2
  6
TENSEN1
370
    -3
390
1E3
  0
LAYER
  5
363
330
1A7
100
AcDbSymbolTableRecord
100
AcDbLayerTableRecord
  2
3
 70
     0
 62
     7
  6
CONTINUOUS
370
    -3
390
1E3
  0
LAYER
  5
364
330
1A7
100
AcDbSymbolTableRecord
100
AcDbLayerTableRecord
  2
DEFPOINTS
 70
     0
 62
     7
  6
CONTINUOUS
290
     0
370
    -3
390
1E3
  0
ENDTAB
  0
TABLE
  2
STYLE
  5
1A8
330
0
100
AcDbSymbolTable
 70
     7
  0
STYLE
  5
1B4
330
1A8
100
AcDbSymbolTableRecord
100
AcDbTextStyleTableRecord
  2
STANDARD
 70
     0
 40
0.0
 41
1.0
 50
0.0
 71
     0
 42
0.2
  3
TXT
  4
BIGFONT
  0
STYLE
  5
1C3
330
1A8
100
AcDbSymbolTableRecord
100
AcDbTextStyleTableRecord
  2
K80
 70
     0
 40
0.0
 41
0.8
 50
0.0
 71
     0
 42
0.2
  3
TXT
  4
BIGFONT
  0
STYLE
  5
1C4
330
1A8
100
AcDbSymbolTableRecord
100
AcDbTextStyleTableRecord
  2
07500
 70
     0
 40
0.0
 41
0.75
 50
0.0
 71
     0
 42
0.2
  3
TXT
  4
BIGFONT
  0
STYLE
  5
1C5
330
1A8
100
AcDbSymbolTableRecord
100
AcDbTextStyleTableRecord
  2
BIGFONT
 70
     0
 40
55.0
 41
0.8
 50
0.0
 71
     0
 42
55.0
  3

  4
bigfont
  0
STYLE
  5
2B9
330
1A8
100
AcDbSymbolTableRecord
100
AcDbTextStyleTableRecord
  2

 70
     1
 40
0.0
 41
1.0
 50
0.0
 71
     0
 42
55.0
  3
ltypeshp.shx
  4

  0
STYLE
  5
365
330
1A8
100
AcDbSymbolTableRecord
100
AcDbTextStyleTableRecord
  2
ACANSTS
 70
     0
 40
1.0
 41
1.0
 50
0.0
 71
     0
 42
15.0
  3
romans.shx
  4
extfont.shx
  0
STYLE
  5
366
330
1A8
100
AcDbSymbolTableRecord
100
AcDbTextStyleTableRecord
  2
ACANSGDT
 70
     0
 40
0.0
 41
1.0
 50
0.0
 71
     0
 42
15.0
  3
amgdtans.shx
  4

  0
ENDTAB
  0
TABLE
  2
VIEW
  5
1AB
330
0
100
AcDbSymbolTable
 70
     1
  0
VIEW
  5
1C8
330
1AB
100
AcDbSymbolTableRecord
100
AcDbViewTableRecord
  2
ALL
 70
     0
 40
2700.0
 10
2209.915966
 20
1350.0
 41
0.0
 11
0.0
 21
0.0
 31
1.0
 12
0.0
 22
0.0
 32
0.0
 42
50.0
 43
0.0
 44
0.0
 50
0.0
 71
     0
281
     0
 72
     0
  0
ENDTAB
  0
TABLE
  2
UCS
  5
1AC
330
0
100
AcDbSymbolTable
 70
     0
  0
ENDTAB
  0
TABLE
  2
APPID
  5
1AE
330
0
100
AcDbSymbolTable
 70
    12
  0
APPID
  5
1B5
330
1AE
100
AcDbSymbolTableRecord
100
AcDbRegAppTableRecord
  2
ACAD
 70
     0
  0
APPID
  5
1EC
330
1AE
100
AcDbSymbolTableRecord
100
AcDbRegAppTableRecord
  2
GENIUS_GENDIM_13
 70
     0
  0
APPID
  5
1ED
330
1AE
100
AcDbSymbolTableRecord
100
AcDbRegAppTableRecord
  2
GENIUS_GENDTOL_13
 70
     0
  0
APPID
  5
1EE
330
1AE
100
AcDbSymbolTableRecord
100
AcDbRegAppTableRecord
  2
GENIUS_GE3DTOL_13
 70
     0
  0
APPID
  5
1F0
330
1AE
100
AcDbSymbolTableRecord
100
AcDbRegAppTableRecord
  2
MCAD_NO_VIS
 70
     0
  0
APPID
  5
1F1
330
1AE
100
AcDbSymbolTableRecord
100
AcDbRegAppTableRecord
  2
ACAD_TEMP_GRAPHIC
 70
     0
  0
APPID
  5
223
330
1AE
100
AcDbSymbolTableRecord
100
AcDbRegAppTableRecord
  2
AD_DRAW
 70
     0
  0
APPID
  5
226
330
1AE
100
AcDbSymbolTableRecord
100
AcDbRegAppTableRecord
  2
ACATTRIBSERVICES
 70
     0
  0
APPID
  5
272
330
1AE
100
AcDbSymbolTableRecord
100
AcDbRegAppTableRecord
  2
ASURF_PCURVE_APPNAME
 70
     0
  0
APPID
  5
2A1
330
1AE
100
AcDbSymbolTableRecord
100
AcDbRegAppTableRecord
  2
DESIGNERASSEMBLIES
 70
     0
  0
APPID
  5
2A9
330
1AE
100
AcDbSymbolTableRecord
100
AcDbRegAppTableRecord
  2
ACADM_DIM_EDIT
 70
     0
  0
APPID
  5
2AA
330
1AE
100
AcDbSymbolTableRecord
100
AcDbRegAppTableRecord
  2
AMDT_DM_ADJ
 70
     0
  0
ENDTAB
  0
TABLE
  2
DIMSTYLE
  5
1AF
330
0
100
AcDbSymbolTable
 70
     7
100
AcDbDimStyleTable
 71
     0
  0
DIMSTYLE
105
1CB
330
1AF
100
AcDbSymbolTableRecord
100
AcDbDimStyleTableRecord
  2
STANDARD
 70
     0
340
1C5
  0
DIMSTYLE
105
367
330
1AF
100
AcDbSymbolTableRecord
100
AcDbDimStyleTableRecord
  2
AM_ANSI
 70
     0
  4
mm
 41
0.1
 42
0.05
 43
0.5
 44
0.1
 47
0.1
 48
0.1
 78
     7
 79
     2
140
0.12
141
0.0
146
0.71
147
0.06
176
   256
177
   256
178
     2
274
     4
284
     7
340
1B4
371
    -1
372
    -1
  0
DIMSTYLE
105
368
330
1AF
100
AcDbSymbolTableRecord
100
AcDbDimStyleTableRecord
  2
AM_ANSI$3
 70
     0
  4
mm
 41
0.1
 42
0.05
 43
0.5
 44
0.1
 47
0.1
 48
0.1
 78
     7
 79
     2
140
0.12
141
0.0
146
0.71
147
0.06
176
   256
177
   256
178
     2
274
     4
284
     7
288
     1
289
     0
340
1B4
371
    -1
372
    -1
  0
DIMSTYLE
105
369
330
1AF
100
AcDbSymbolTableRecord
100
AcDbDimStyleTableRecord
  2
AM_ANSI$4
 70
     0
  4
mm
 41
0.1
 42
0.05
 43
0.5
 44
0.1
 47
0.1
 48
0.1
 78
     7
 79
     2
140
0.12
141
0.0
146
0.71
147
0.06
176
   256
177
   256
178
     2
274
     4
284
     7
288
     1
289
     0
340
1B4
371
    -1
372
    -1
  0
DIMSTYLE
105
36A
330
1AF
100
AcDbSymbolTableRecord
100
AcDbDimStyleTableRecord
  2
AM_ANSI$7
 70
     0
  4
mm
 41
0.1
 42
0.05
 43
0.5
 44
0.1
 47
0.1
 48
0.1
 78
     7
 79
     2
140
0.24
141
0.0
146
0.71
147
0.06
176
   256
177
   256
178
     2
274
     4
284
     7
340
1B4
371
    -1
372
    -1
  0
DIMSTYLE
105
36B
330
1AF
100
AcDbSymbolTableRecord
100
AcDbDimStyleTableRecord
  2
AM_ANSI$SF
 70
     0
  4
mm
 41
0.1
 42
0.05
 43
0.5
 44
0.1
 47
0.1
 48
0.1
 75
     1
 76
     1
 78
     7
 79
     2
140
0.12
141
0.0
146
0.71
147
0.06
176
   256
177
   256
178
     2
274
     4
284
     7
340
1B4
371
    -1
372
    -1
  0
DIMSTYLE
105
36C
330
1AF
100
AcDbSymbolTableRecord
100
AcDbDimStyleTableRecord
  2
AM_ANSI$SH
 70
     0
  4
mm
 41
0.1
 42
0.05
 43
0.5
 44
0.1
 47
0.1
 48
0.1
 75
     1
 76
     1
 78
     7
 79
     2
140
0.12
141
0.0
146
0.71
147
0.06
173
     1
176
   256
177
   256
178
     2
274
     4
284
     7
340
1B4
343
350
371
    -1
372
    -1
  0
ENDTAB
  0
TABLE
  2
BLOCK_RECORD
  5
1A6
330
0
100
AcDbSymbolTable
 70
    29
  0
BLOCK_RECORD
  5
1BC
102
{ACAD_XDICTIONARY
360
5D6
102
}
330
1A6
100
AcDbSymbolTableRecord
100
AcDbBlockTableRecord
  2
*MODEL_SPACE
340
1E6
  0
BLOCK_RECORD
  5
1B9
330
1A6
100
AcDbSymbolTableRecord
100
AcDbBlockTableRecord
  2
*PAPER_SPACE
340
1E7
  0
BLOCK_RECORD
  5
1C1
330
1A6
100
AcDbSymbolTableRecord
100
AcDbBlockTableRecord
  2
WAKU
340
0
  0
BLOCK_RECORD
  5
1C2
330
1A6
100
AcDbSymbolTableRecord
100
AcDbBlockTableRecord
  2
QQ
340
0
  0
BLOCK_RECORD
  5
298
330
1A6
100
AcDbSymbolTableRecord
100
AcDbBlockTableRecord
  2
*U2
340
0
  0
BLOCK_RECORD
  5
2C8
330
1A6
100
AcDbSymbolTableRecord
100
AcDbBlockTableRecord
  2
*D3
340
0
  0
BLOCK_RECORD
  5
2D4
330
1A6
100
AcDbSymbolTableRecord
100
AcDbBlockTableRecord
  2
*D4
340
0
  0
BLOCK_RECORD
  5
2E0
330
1A6
100
AcDbSymbolTableRecord
100
AcDbBlockTableRecord
  2
*D5
340
0
  0
BLOCK_RECORD
  5
2ED
330
1A6
100
AcDbSymbolTableRecord
100
AcDbBlockTableRecord
  2
*D6
340
0
  0
BLOCK_RECORD
  5
2F9
330
1A6
100
AcDbSymbolTableRecord
100
AcDbBlockTableRecord
  2
*D7
340
0
  0
BLOCK_RECORD
  5
304
330
1A6
100
AcDbSymbolTableRecord
100
AcDbBlockTableRecord
  2
*D8
340
0
  0
BLOCK_RECORD
  5
311
330
1A6
100
AcDbSymbolTableRecord
100
AcDbBlockTableRecord
  2
*D9
340
0
  0
BLOCK_RECORD
  5
31E
330
1A6
100
AcDbSymbolTableRecord
100
AcDbBlockTableRecord
  2
*D10
340
0
  0
BLOCK_RECORD
  5
329
330
1A6
100
AcDbSymbolTableRecord
100
AcDbBlockTableRecord
  2
*D11
340
0
  0
BLOCK_RECORD
  5
335
330
1A6
100
AcDbSymbolTableRecord
100
AcDbBlockTableRecord
  2
*D12
340
0
  0
BLOCK_RECORD
  5
342
330
1A6
100
AcDbSymbolTableRecord
100
AcDbBlockTableRecord
  2
*D13
340
0
  0
BLOCK_RECORD
  5
350
330
1A6
100
AcDbSymbolTableRecord
100
AcDbBlockTableRecord
  2
GENAXEH
340
0
  0
BLOCK_RECORD
  5
354
330
1A6
100
AcDbSymbolTableRecord
100
AcDbBlockTableRecord
  2
*D15
340
0
  0
BLOCK_RECORD
  5
461
330
1A6
100
AcDbSymbolTableRecord
100
AcDbBlockTableRecord
  2
*D17
340
0
  0
BLOCK_RECORD
  5
46D
330
1A6
100
AcDbSymbolTableRecord
100
AcDbBlockTableRecord
  2
*D18
340
0
  0
BLOCK_RECORD
  5
479
330
1A6
100
AcDbSymbolTableRecord
100
AcDbBlockTableRecord
  2
*D19
340
0
  0
BLOCK_RECORD
  5
486
330
1A6
100
AcDbSymbolTableRecord
100
AcDbBlockTableRecord
  2
*D20
340
0
  0
BLOCK_RECORD
  5
493
330
1A6
100
AcDbSymbolTableRecord
100
AcDbBlockTableRecord
  2
*D21
340
0
  0
BLOCK_RECORD
  5
49E
330
1A6
100
AcDbSymbolTableRecord
100
AcDbBlockTableRecord
  2
*D22
340
0
  0
BLOCK_RECORD
  5
4AA
330
1A6
100
AcDbSymbolTableRecord
100
AcDbBlockTableRecord
  2
*D23
340
0
  0
BLOCK_RECORD
  5
4B6
330
1A6
100
AcDbSymbolTableRecord
100
AcDbBlockTableRecord
  2
*D24
340
0
  0
BLOCK_RECORD
  5
4C3
330
1A6
100
AcDbSymbolTableRecord
100
AcDbBlockTableRecord
  2
*D25
340
0
  0
BLOCK_RECORD
  5
4D1
330
1A6
100
AcDbSymbolTableRecord
100
AcDbBlockTableRecord
  2
*D26
340
0
  0
BLOCK_RECORD
  5
4DE
330
1A6
100
AcDbSymbolTableRecord
100
AcDbBlockTableRecord
  2
*D27
340
0
  0
BLOCK_RECORD
  5
4EA
330
1A6
100
AcDbSymbolTableRecord
100
AcDbBlockTableRecord
  2
*D28
340
0
  0
ENDTAB
  0
ENDSEC
  0
SECTION
  2
BLOCKS
  0
BLOCK
  5
1D3
330
1BC
100
AcDbEntity
  8
0
100
AcDbBlockBegin
  2
*MODEL_SPACE
 70
     0
 10
0.0
 20
0.0
 30
0.0
  3
*MODEL_SPACE
  1

  0
ENDBLK
  5
1D4
330
1BC
100
AcDbEntity
  8
0
100
AcDbBlockEnd
  0
BLOCK
  5
1D1
330
1B9
100
AcDbEntity
 67
     1
  8
0
100
AcDbBlockBegin
  2
*PAPER_SPACE
 70
     0
 10
0.0
 20
0.0
 30
0.0
  3
*PAPER_SPACE
  1

  0
ENDBLK
  5
1D2
330
1B9
100
AcDbEntity
 67
     1
  8
0
100
AcDbBlockEnd
  0
BLOCK
  5
2F
330
1C1
100
AcDbEntity
  8
0
100
AcDbBlockBegin
  2
WAKU
 70
     0
 10
549.0
 20
0.0
 30
0.0
  3
WAKU
  1

  0
LINE
  5
30
330
1C1
100
AcDbEntity
  8
11
100
AcDbLine
 10
452.0
 20
12.0
 30
0.0
 11
549.0
 21
12.0
 31
0.0
  0
LINE
  5
31
330
1C1
100
AcDbEntity
  8
11
100
AcDbLine
 10
477.0
 20
0.0
 30
0.0
 11
477.0
 21
12.0
 31
0.0
  0
LINE
  5
32
330
1C1
100
AcDbEntity
  8
11
100
AcDbLine
 10
452.0
 20
12.0
 30
0.0
 11
452.0
 21
0.0
 31
0.0
  0
TEXT
  5
33
330
1C1
100
AcDbEntity
  8
11
100
AcDbText
 10
454.0
 20
8.5
 30
0.0
 40
2.5
  1
尺度
100
AcDbText
  0
TEXT
  5
34
330
1C1
100
AcDbEntity
  8
11
100
AcDbText
 10
479.0
 20
8.5
 30
0.0
 40
2.5
  1
図番
100
AcDbText
  0
ENDBLK
  5
35
330
1C1
100
AcDbEntity
  8
0
100
AcDbBlockEnd
  0
BLOCK
  5
36
330
1C2
100
AcDbEntity
  8
0
100
AcDbBlockBegin
  2
QQ
 70
     0
 10
270.0
 20
0.0
 30
0.0
  3
QQ
  1

  0
LINE
  5
37
330
1C2
100
AcDbEntity
  8
11
100
AcDbLine
 10
173.0
 20
36.0
 30
0.0
 11
270.0
 21
36.0
 31
0.0
  0
TEXT
  5
38
330
1C2
100
AcDbEntity
  8
11
100
AcDbText
 10
175.0
 20
32.5
 30
0.0
 40
2.5
  1
部品名称
100
AcDbText
  0
LINE
  5
39
330
1C2
100
AcDbEntity
  8
11
100
AcDbLine
 10
173.0
 20
36.0
 30
0.0
 11
173.0
 21
0.0
 31
0.0
  0
LINE
  5
3A
330
1C2
100
AcDbEntity
  8
11
100
AcDbLine
 10
173.0
 20
24.0
 30
0.0
 11
270.0
 21
24.0
 31
0.0
  0
TEXT
  5
3B
330
1C2
100
AcDbEntity
  8
11
100
AcDbText
 10
175.0
 20
20.5
 30
0.0
 40
2.5
  1
品番
100
AcDbText
  0
LINE
  5
3C
330
1C2
100
AcDbEntity
  8
11
100
AcDbLine
 10
173.0
 20
12.0
 30
0.0
 11
270.0
 21
12.0
 31
0.0
  0
TEXT
  5
3D
330
1C2
100
AcDbEntity
  8
11
100
AcDbText
 10
175.0
 20
8.5
 30
0.0
 40
2.5
  1
尺度
100
AcDbText
  0
TEXT
  5
3E
330
1C2
100
AcDbEntity
  8
11
100
AcDbText
 10
200.0
 20
8.5
 30
0.0
 40
2.5
  1
図番
100
AcDbText
  0
LINE
  5
3F
330
1C2
100
AcDbEntity
  8
11
100
AcDbLine
 10
198.0
 20
0.0
 30
0.0
 11
198.0
 21
12.0
 31
0.0
  0
ENDBLK
  5
40
330
1C2
100
AcDbEntity
  8
0
100
AcDbBlockEnd
  0
BLOCK
  5
299
330
298
100
AcDbEntity
  8
0
100
AcDbBlockBegin
  2
*U2
 70
     1
 10
0.0
 20
0.0
 30
0.0
  3
*U2
  1

  0
ENDBLK
  5
29A
330
298
100
AcDbEntity
  8
0
100
AcDbBlockEnd
  0
BLOCK
  5
2D2
330
2C8
100
AcDbEntity
  8
0
100
AcDbBlockBegin
  2
*D3
 70
     1
 10
0.0
 20
0.0
 30
0.0
  3
*D3
  1

  0
LINE
  5
2C9
330
2C8
100
AcDbEntity
  8
0
  6
ByBlock
 62
     0
100
AcDbLine
 10
348.0000026818771
 20
699.9198035508879
 30
0.0
 11
641.0
 21
699.9198035508879
 31
0.0
  0
LINE
  5
2CA
330
2C8
100
AcDbEntity
  8
0
  6
ByBlock
 62
     0
100
AcDbLine
 10
348.000002681877
 20
249.919803550888
 30
0.0
 11
641.0
 21
249.919803550888
 31
0.0
  0
LINE
  5
2CB
330
2C8
100
AcDbEntity
  8
0
  6
ByBlock
 62
     0
100
AcDbLine
 10
640.0
 20
697.9198035508878
 30
0.0
 11
640.0
 21
251.919803550888
 31
0.0
  0
SOLID
  5
2CC
330
2C8
100
AcDbEntity
  8
0
  6
ByBlock
 62
     0
100
AcDbTrace
 10
639.6666666666666
 20
697.9198035508878
 30
0.0
 11
640.3333333333334
 21
697.9198035508878
 31
0.0
 12
640.0
 22
699.9198035508879
 32
0.0
 13
640.0
 23
699.9198035508879
 33
0.0
  0
SOLID
  5
2CD
330
2C8
100
AcDbEntity
  8
0
  6
ByBlock
 62
     0
100
AcDbTrace
 10
639.6666666666666
 20
251.919803550888
 30
0.0
 11
640.3333333333334
 21
251.919803550888
 31
0.0
 12
640.0
 22
249.919803550888
 32
0.0
 13
640.0
 23
249.919803550888
 33
0.0
  0
MTEXT
  5
2CE
330
2C8
100
AcDbEntity
  8
0
  6
ByBlock
 62
     0
100
AcDbMText
 10
632.4099999999999
 20
474.0
 30
0.0
 40
15.0
 41
0.0
 71
     5
 72
     1
  1
\A1;450
 11
0.0000000000000001
 21
1.0
 31
0.0
 73
     1
 44
1.0
  0
POINT
  5
2CF
330
2C8
100
AcDbEntity
  8
DEFPOINTS
  6
ByBlock
 62
     0
100
AcDbPoint
 10
347.0000026818771
 20
699.9198035508879
 30
0.0
  0
POINT
  5
2D0
330
2C8
100
AcDbEntity
  8
DEFPOINTS
  6
ByBlock
 62
     0
100
AcDbPoint
 10
347.000002681877
 20
249.919803550888
 30
0.0
  0
POINT
  5
2D1
330
2C8
100
AcDbEntity
  8
DEFPOINTS
  6
ByBlock
 62
     0
100
AcDbPoint
 10
640.0
 20
249.919803550888
 30
0.0
  0
ENDBLK
  5
2D3
330
2C8
100
AcDbEntity
  8
0
100
AcDbBlockEnd
  0
BLOCK
  5
2DE
330
2D4
100
AcDbEntity
  8
0
100
AcDbBlockBegin
  2
*D4
 70
     1
 10
0.0
 20
0.0
 30
0.0
  3
*D4
  1

  0
LINE
  5
2D5
330
2D4
100
AcDbEntity
  8
0
  6
ByBlock
 62
     0
100
AcDbLine
 10
906.0000026818768
 20
512.050597608999
 30
0.0
 11
983.0
 21
512.0505976089989
 31
0.0
  0
LINE
  5
2D6
330
2D4
100
AcDbEntity
  8
0
  6
ByBlock
 62
     0
100
AcDbLine
 10
906.000002681881
 20
437.6268139601026
 30
0.0
 11
983.0
 21
437.6268139601026
 31
0.0
  0
LINE
  5
2D7
330
2D4
100
AcDbEntity
  8
0
  6
ByBlock
 62
     0
100
AcDbLine
 10
982.0
 20
510.050597608999
 30
0.0
 11
982.0
 21
439.6268139601026
 31
0.0
  0
SOLID
  5
2D8
330
2D4
100
AcDbEntity
  8
0
  6
ByBlock
 62
     0
100
AcDbTrace
 10
981.6666666666666
 20
510.0505976089989
 30
0.0
 11
982.3333333333334
 21
510.0505976089989
 31
0.0
 12
982.0
 22
512.0505976089989
 32
0.0
 13
982.0
 23
512.0505976089989
 33
0.0
  0
SOLID
  5
2D9
330
2D4
100
AcDbEntity
  8
0
  6
ByBlock
 62
     0
100
AcDbTrace
 10
981.6666666666666
 20
439.6268139601026
 30
0.0
 11
982.3333333333334
 21
439.6268139601026
 31
0.0
 12
982.0
 22
437.6268139601026
 32
0.0
 13
982.0
 23
437.6268139601026
 33
0.0
  0
MTEXT
  5
2DA
330
2D4
100
AcDbEntity
  8
0
  6
ByBlock
 62
     0
100
AcDbMText
 10
974.4099999999999
 20
476.0
 30
0.0
 40
15.0
 41
0.0
 71
     5
 72
     1
  1
\A1;75
 11
0.0000000000000001
 21
1.0
 31
0.0
 73
     1
 44
1.0
  0
POINT
  5
2DB
330
2D4
100
AcDbEntity
  8
DEFPOINTS
  6
ByBlock
 62
     0
100
AcDbPoint
 10
905.0000026818766
 20
512.050597608999
 30
0.0
  0
POINT
  5
2DC
330
2D4
100
AcDbEntity
  8
DEFPOINTS
  6
ByBlock
 62
     0
100
AcDbPoint
 10
905.000002681881
 20
437.6268139601026
 30
0.0
  0
POINT
  5
2DD
330
2D4
100
AcDbEntity
  8
DEFPOINTS
  6
ByBlock
 62
     0
100
AcDbPoint
 10
982.0
 20
437.6268139601026
 30
0.0
  0
ENDBLK
  5
2DF
330
2D4
100
AcDbEntity
  8
0
100
AcDbBlockEnd
  0
BLOCK
  5
2EB
330
2E0
100
AcDbEntity
  8
0
100
AcDbBlockBegin
  2
*D5
 70
     1
 10
0.0
 20
0.0
 30
0.0
  3
*D5
  1

  0
LINE
  5
2E1
330
2E0
100
AcDbEntity
  8
0
  6
ByBlock
 62
     0
100
AcDbLine
 10
885.000002681877
 20
516.0505976089991
 30
0.0
 11
885.000002681877
 21
583.0
 31
0.0
  0
LINE
  5
2E2
330
2E0
100
AcDbEntity
  8
0
  6
ByBlock
 62
     0
100
AcDbLine
 10
910.0000026818772
 20
508.0505976090007
 30
0.0
 11
910.0000026818772
 21
583.0
 31
0.0
  0
LINE
  5
2E3
330
2E0
100
AcDbEntity
  8
0
  6
ByBlock
 62
     0
100
AcDbLine
 10
887.000002681877
 20
582.0
 30
0.0
 11
908.0000026818771
 21
582.0
 31
0.0
  0
LINE
  5
2E4
330
2E0
100
AcDbEntity
  8
0
  6
ByBlock
 62
     0
100
AcDbLine
 10
910.0000026818772
 20
582.0
 30
0.0
 11
944.5899999999999
 21
582.0
 31
0.0
  0
SOLID
  5
2E5
330
2E0
100
AcDbEntity
  8
0
  6
ByBlock
 62
     0
100
AcDbTrace
 10
887.000002681877
 20
582.3333333333334
 30
0.0
 11
887.000002681877
 21
581.6666666666666
 31
0.0
 12
885.000002681877
 22
582.0
 32
0.0
 13
885.000002681877
 23
582.0
 33
0.0
  0
SOLID
  5
2E6
330
2E0
100
AcDbEntity
  8
0
  6
ByBlock
 62
     0
100
AcDbTrace
 10
908.0000026818771
 20
582.3333333333334
 30
0.0
 11
908.0000026818771
 21
581.6666666666666
 31
0.0
 12
910.0000026818772
 22
582.0
 32
0.0
 13
910.0000026818772
 23
582.0
 33
0.0
  0
MTEXT
  5
2E7
330
2E0
100
AcDbEntity
  8
0
  6
ByBlock
 62
     0
100
AcDbMText
 10
932.0
 20
589.59
 30
0.0
 40
15.0
 41
0.0
 71
     5
 72
     1
  1
\A1;25
 73
     1
 44
1.0
  0
POINT
  5
2E8
330
2E0
100
AcDbEntity
  8
DEFPOINTS
  6
ByBlock
 62
     0
100
AcDbPoint
 10
885.000002681877
 20
515.0505976089991
 30
0.0
  0
POINT
  5
2E9
330
2E0
100
AcDbEntity
  8
DEFPOINTS
  6
ByBlock
 62
     0
100
AcDbPoint
 10
910.0000026818772
 20
507.0505976090007
 30
0.0
  0
POINT
  5
2EA
330
2E0
100
AcDbEntity
  8
DEFPOINTS
  6
ByBlock
 62
     0
100
AcDbPoint
 10
910.0000026818772
 20
582.0
 30
0.0
  0
ENDBLK
  5
2EC
330
2E0
100
AcDbEntity
  8
0
100
AcDbBlockEnd
  0
BLOCK
  5
2F7
330
2ED
100
AcDbEntity
  8
0
100
AcDbBlockBegin
  2
*D6
 70
     1
 10
0.0
 20
0.0
 30
0.0
  3
*D6
  1

  0
LINE
  5
2EE
330
2ED
100
AcDbEntity
  8
0
  6
ByBlock
 62
     0
100
AcDbLine
 10
856.0000026818769
 20
471.1955800241364
 30
0.0
 11
856.0000026818769
 21
625.0
 31
0.0
  0
LINE
  5
2EF
330
2ED
100
AcDbEntity
  8
0
  6
ByBlock
 62
     0
100
AcDbLine
 10
910.0000026818772
 20
508.0505976090007
 30
0.0
 11
910.0000026818772
 21
625.0
 31
0.0
  0
LINE
  5
2F0
330
2ED
100
AcDbEntity
  8
0
  6
ByBlock
 62
     0
100
AcDbLine
 10
858.0000026818771
 20
624.0
 30
0.0
 11
908.0000026818771
 21
624.0
 31
0.0
  0
SOLID
  5
2F1
330
2ED
100
AcDbEntity
  8
0
  6
ByBlock
 62
     0
100
AcDbTrace
 10
858.0000026818771
 20
624.3333333333334
 30
0.0
 11
858.0000026818771
 21
623.6666666666666
 31
0.0
 12
856.0000026818769
 22
624.0
 32
0.0
 13
856.0000026818769
 23
624.0
 33
0.0
  0
SOLID
  5
2F2
330
2ED
100
AcDbEntity
  8
0
  6
ByBlock
 62
     0
100
AcDbTrace
 10
908.0000026818771
 20
624.3333333333334
 30
0.0
 11
908.0000026818771
 21
623.6666666666666
 31
0.0
 12
910.0000026818772
 22
624.0
 32
0.0
 13
910.0000026818772
 23
624.0
 33
0.0
  0
MTEXT
  5
2F3
330
2ED
100
AcDbEntity
  8
0
  6
ByBlock
 62
     0
100
AcDbMText
 10
882.0
 20
631.59
 30
0.0
 40
15.0
 41
0.0
 71
     5
 72
     1
  1
\A1;54
 73
     1
 44
1.0
  0
POINT
  5
2F4
330
2ED
100
AcDbEntity
  8
DEFPOINTS
  6
ByBlock
 62
     0
100
AcDbPoint
 10
856.0000026818769
 20
470.1955800241364
 30
0.0
  0
POINT
  5
2F5
330
2ED
100
AcDbEntity
  8
DEFPOINTS
  6
ByBlock
 62
     0
100
AcDbPoint
 10
910.0000026818772
 20
507.0505976090007
 30
0.0
  0
POINT
  5
2F6
330
2ED
100
AcDbEntity
  8
DEFPOINTS
  6
ByBlock
 62
     0
100
AcDbPoint
 10
910.0000026818772
 20
624.0
 30
0.0
  0
ENDBLK
  5
2F8
330
2ED
100
AcDbEntity
  8
0
100
AcDbBlockEnd
  0
BLOCK
  5
302
330
2F9
100
AcDbEntity
  8
0
100
AcDbBlockBegin
  2
*D7
 70
     1
 10
0.0
 20
0.0
 30
0.0
  3
*D7
  1

  0
LINE
  5
2FA
330
2F9
100
AcDbEntity
  8
0
  6
ByBlock
 62
     0
100
AcDbLine
 10
959.0899999999997
 20
402.0000000000001
 30
0.0
 11
933.9999999999996
 21
402.0
 31
0.0
  0
LINE
  5
2FB
330
2F9
100
AcDbEntity
  8
0
  6
ByBlock
 62
     0
100
AcDbLine
 10
933.9999999999996
 20
402.0
 30
0.0
 11
907.9334906756118
 21
438.5427365431584
 31
0.0
  0
MTEXT
  5
2FC
330
2F9
100
AcDbEntity
  8
0
  6
ByBlock
 62
     0
100
AcDbMText
 10
946.5899999999997
 20
409.5899999999999
 30
0.0
 40
15.0
 41
0.0
 71
     5
 72
     1
  1
\A1;R5
 73
     1
 44
1.0
  0
SOLID
  5
2FD
330
2F9
100
AcDbEntity
  8
0
  6
ByBlock
 62
     0
100
AcDbTrace
 10
909.3662899886679
 20
437.1080946925149
 30
0.0
 11
908.8235521282939
 21
436.7209512315587
 31
0.0
 12
907.9334906756118
 22
438.5427365431584
 32
0.0
 13
907.9334906756118
 23
438.5427365431584
 33
0.0
  0
LINE
  5
2FE
330
2F9
100
AcDbEntity
  8
0
  6
ByBlock
 62
     0
100
AcDbLine
 10
904.9806423140477
 20
442.5561743279319
 30
0.0
 11
905.1606423140478
 21
442.5561743279319
 31
0.0
  0
LINE
  5
2FF
330
2F9
100
AcDbEntity
  8
0
  6
ByBlock
 62
     0
100
AcDbLine
 10
905.0706423140477
 20
442.466174327932
 30
0.0
 11
905.0706423140477
 21
442.6461743279319
 31
0.0
  0
POINT
  5
300
330
2F9
100
AcDbEntity
  8
DEFPOINTS
  6
ByBlock
 62
     0
100
AcDbPoint
 10
907.9334906756118
 20
438.5427365431584
 30
0.0
  0
POINT
  5
301
330
2F9
100
AcDbEntity
  8
DEFPOINTS
  6
ByBlock
 62
     0
100
AcDbPoint
 10
905.0706423140477
 20
442.5561743279319
 30
0.0
  0
ENDBLK
  5
303
330
2F9
100
AcDbEntity
  8
0
100
AcDbBlockEnd
  0
BLOCK
  5
30F
330
304
100
AcDbEntity
  8
0
100
AcDbBlockBegin
  2
*D8
 70
     1
 10
0.0
 20
0.0
 30
0.0
  3
*D8
  1

  0
LINE
  5
305
330
304
100
AcDbEntity
  8
0
  6
ByBlock
 62
     0
100
AcDbLine
 10
333.7817993925153
 20
652.6203017361378
 30
0.0
 11
333.7817993925153
 21
639.0
 31
0.0
  0
LINE
  5
306
330
304
100
AcDbEntity
  8
0
  6
ByBlock
 62
     0
100
AcDbLine
 10
360.0510473478651
 20
652.2793628261609
 30
0.0
 11
360.0510473478651
 21
639.0
 31
0.0
  0
LINE
  5
307
330
304
100
AcDbEntity
  8
0
  6
ByBlock
 62
     0
100
AcDbLine
 10
335.7817993925154
 20
640.0
 30
0.0
 11
358.0510473478651
 21
640.0
 31
0.0
  0
LINE
  5
308
330
304
100
AcDbEntity
  8
0
  6
ByBlock
 62
     0
100
AcDbLine
 10
360.0510473478651
 20
640.0
 30
0.0
 11
396.59
 21
640.0
 31
0.0
  0
SOLID
  5
309
330
304
100
AcDbEntity
  8
0
  6
ByBlock
 62
     0
100
AcDbTrace
 10
335.7817993925154
 20
640.3333333333334
 30
0.0
 11
335.7817993925154
 21
639.6666666666666
 31
0.0
 12
333.7817993925153
 22
640.0
 32
0.0
 13
333.7817993925153
 23
640.0
 33
0.0
  0
SOLID
  5
30A
330
304
100
AcDbEntity
  8
0
  6
ByBlock
 62
     0
100
AcDbTrace
 10
358.0510473478651
 20
640.3333333333334
 30
0.0
 11
358.0510473478651
 21
639.6666666666666
 31
0.0
 12
360.0510473478651
 22
640.0
 32
0.0
 13
360.0510473478651
 23
640.0
 33
0.0
  0
MTEXT
  5
30B
330
304
100
AcDbEntity
  8
0
  6
ByBlock
 62
     0
100
AcDbMText
 10
384.0
 20
647.59
 30
0.0
 40
15.0
 41
0.0
 71
     5
 72
     1
  1
\A1;26
 73
     1
 44
1.0
  0
POINT
  5
30C
330
304
100
AcDbEntity
  8
DEFPOINTS
  6
ByBlock
 62
     0
100
AcDbPoint
 10
333.7817993925153
 20
653.6203017361379
 30
0.0
  0
POINT
  5
30D
330
304
100
AcDbEntity
  8
DEFPOINTS
  6
ByBlock
 62
     0
100
AcDbPoint
 10
360.0510473478651
 20
653.2793628261608
 30
0.0
  0
POINT
  5
30E
330
304
100
AcDbEntity
  8
DEFPOINTS
  6
ByBlock
 62
     0
100
AcDbPoint
 10
360.0510473478651
 20
640.0
 30
0.0
  0
ENDBLK
  5
310
330
304
100
AcDbEntity
  8
0
100
AcDbBlockEnd
  0
BLOCK
  5
31C
330
311
100
AcDbEntity
  8
0
100
AcDbBlockBegin
  2
*D9
 70
     1
 10
0.0
 20
0.0
 30
0.0
  3
*D9
  1

  0
LINE
  5
312
330
311
100
AcDbEntity
  8
0
  6
ByBlock
 62
     0
100
AcDbLine
 10
332.0260284666868
 20
520.3522180729948
 30
0.0
 11
332.0260284666868
 21
523.0
 31
0.0
  0
LINE
  5
313
330
311
100
AcDbEntity
  8
0
  6
ByBlock
 62
     0
100
AcDbLine
 10
361.9739768970674
 20
520.3522180729948
 30
0.0
 11
361.9739768970674
 21
523.0
 31
0.0
  0
LINE
  5
314
330
311
100
AcDbEntity
  8
0
  6
ByBlock
 62
     0
100
AcDbLine
 10
334.0260284666868
 20
522.0
 30
0.0
 11
359.9739768970674
 21
522.0
 31
0.0
  0
LINE
  5
315
330
311
100
AcDbEntity
  8
0
  6
ByBlock
 62
     0
100
AcDbLine
 10
361.9739768970674
 20
522.0
 30
0.0
 11
395.34
 21
522.0
 31
0.0
  0
SOLID
  5
316
330
311
100
AcDbEntity
  8
0
  6
ByBlock
 62
     0
100
AcDbTrace
 10
334.0260284666868
 20
522.3333333333333
 30
0.0
 11
334.0260284666868
 21
521.6666666666666
 31
0.0
 12
332.0260284666868
 22
522.0
 32
0.0
 13
332.0260284666868
 23
522.0
 33
0.0
  0
SOLID
  5
317
330
311
100
AcDbEntity
  8
0
  6
ByBlock
 62
     0
100
AcDbTrace
 10
359.9739768970674
 20
522.3333333333333
 30
0.0
 11
359.9739768970674
 21
521.6666666666666
 31
0.0
 12
361.9739768970674
 22
522.0
 32
0.0
 13
361.9739768970674
 23
522.0
 33
0.0
  0
MTEXT
  5
318
330
311
100
AcDbEntity
  8
0
  6
ByBlock
 62
     0
100
AcDbMText
 10
384.0
 20
529.59
 30
0.0
 40
15.0
 41
0.0
 71
     5
 72
     1
  1
\A1;30
 73
     1
 44
1.0
  0
POINT
  5
319
330
311
100
AcDbEntity
  8
DEFPOINTS
  6
ByBlock
 62
     0
100
AcDbPoint
 10
332.0260284666868
 20
519.3522180729948
 30
0.0
  0
POINT
  5
31A
330
311
100
AcDbEntity
  8
DEFPOINTS
  6
ByBlock
 62
     0
100
AcDbPoint
 10
361.9739768970674
 20
519.3522180729948
 30
0.0
  0
POINT
  5
31B
330
311
100
AcDbEntity
  8
DEFPOINTS
  6
ByBlock
 62
     0
100
AcDbPoint
 10
361.9739768970674
 20
522.0
 30
0.0
  0
ENDBLK
  5
31D
330
311
100
AcDbEntity
  8
0
100
AcDbBlockEnd
  0
BLOCK
  5
327
330
31E
100
AcDbEntity
  8
0
100
AcDbBlockBegin
  2
*D10
 70
     1
 10
0.0
 20
0.0
 30
0.0
  3
*D10
  1

  0
LINE
  5
31F
330
31E
100
AcDbEntity
  8
0
  6
ByBlock
 62
     0
100
AcDbLine
 10
218.9099999999999
 20
729.9999999999998
 30
0.0
 11
274.0
 21
730.0
 31
0.0
  0
LINE
  5
320
330
31E
100
AcDbEntity
  8
0
  6
ByBlock
 62
     0
100
AcDbLine
 10
274.0
 20
730.0
 30
0.0
 11
336.582663752968
 21
682.7799275728251
 31
0.0
  0
MTEXT
  5
321
330
31E
100
AcDbEntity
  8
0
  6
ByBlock
 62
     0
100
AcDbMText
 10
246.41
 20
737.59
 30
0.0
 40
15.0
 41
0.0
 71
     5
 72
     1
  1
\A1;\U+220522.1
 73
     1
 44
1.0
  0
SOLID
  5
322
330
31E
100
AcDbEntity
  8
0
  6
ByBlock
 62
     0
100
AcDbTrace
 10
336.7834332043585
 20
683.046015412644
 30
0.0
 11
336.3818943015775
 21
682.5138397330063
 31
0.0
 12
338.1791907918813
 22
681.5753108644822
 32
0.0
 13
338.1791907918813
 23
681.5753108644822
 33
0.0
  0
LINE
  5
323
330
31E
100
AcDbEntity
  8
0
  6
ByBlock
 62
     0
100
AcDbLine
 10
346.9100026818772
 20
674.919803550888
 30
0.0
 11
347.0900026818771
 21
674.919803550888
 31
0.0
  0
LINE
  5
324
330
31E
100
AcDbEntity
  8
0
  6
ByBlock
 62
     0
100
AcDbLine
 10
347.0000026818772
 20
674.8298035508879
 30
0.0
 11
347.0000026818772
 21
675.009803550888
 31
0.0
  0
POINT
  5
325
330
31E
100
AcDbEntity
  8
DEFPOINTS
  6
ByBlock
 62
     0
100
AcDbPoint
 10
338.1791907918813
 20
681.5753108644822
 30
0.0
  0
POINT
  5
326
330
31E
100
AcDbEntity
  8
DEFPOINTS
  6
ByBlock
 62
     0
100
AcDbPoint
 10
355.820814571873
 20
668.2642962372937
 30
0.0
  0
ENDBLK
  5
328
330
31E
100
AcDbEntity
  8
0
100
AcDbBlockEnd
  0
BLOCK
  5
333
330
329
100
AcDbEntity
  8
0
100
AcDbBlockBegin
  2
*D11
 70
     1
 10
0.0
 20
0.0
 30
0.0
  3
*D11
  1

  0
LINE
  5
32A
330
329
100
AcDbEntity
  8
0
  6
ByBlock
 62
     0
100
AcDbLine
 10
590.0000015979458
 20
474.919803550888
 30
0.0
 11
607.0
 21
474.919803550888
 31
0.0
  0
LINE
  5
32B
330
329
100
AcDbEntity
  8
0
  6
ByBlock
 62
     0
100
AcDbLine
 10
379.1939725316404
 20
674.919803550888
 30
0.0
 11
607.0
 21
674.919803550888
 31
0.0
  0
LINE
  5
32C
330
329
100
AcDbEntity
  8
0
  6
ByBlock
 62
     0
100
AcDbLine
 10
606.0
 20
476.9198035508879
 30
0.0
 11
606.0
 21
672.9198035508879
 31
0.0
  0
SOLID
  5
32D
330
329
100
AcDbEntity
  8
0
  6
ByBlock
 62
     0
100
AcDbTrace
 10
605.6666666666666
 20
476.9198035508879
 30
0.0
 11
606.3333333333333
 21
476.9198035508879
 31
0.0
 12
606.0
 22
474.919803550888
 32
0.0
 13
606.0
 23
474.919803550888
 33
0.0
  0
SOLID
  5
32E
330
329
100
AcDbEntity
  8
0
  6
ByBlock
 62
     0
100
AcDbTrace
 10
605.6666666666666
 20
672.9198035508879
 30
0.0
 11
606.3333333333333
 21
672.9198035508879
 31
0.0
 12
606.0
 22
674.919803550888
 32
0.0
 13
606.0
 23
674.919803550888
 33
0.0
  0
MTEXT
  5
32F
330
329
100
AcDbEntity
  8
0
  6
ByBlock
 62
     0
100
AcDbMText
 10
598.4099999999999
 20
580.0
 30
0.0
 40
15.0
 41
0.0
 71
     5
 72
     1
  1
\A1;200
 11
0.0000000000000001
 21
1.0
 31
0.0
 73
     1
 44
1.0
  0
POINT
  5
330
330
329
100
AcDbEntity
  8
DEFPOINTS
  6
ByBlock
 62
     0
100
AcDbPoint
 10
589.0000015979458
 20
474.919803550888
 30
0.0
  0
POINT
  5
331
330
329
100
AcDbEntity
  8
DEFPOINTS
  6
ByBlock
 62
     0
100
AcDbPoint
 10
378.1939725316405
 20
674.919803550888
 30
0.0
  0
POINT
  5
332
330
329
100
AcDbEntity
  8
DEFPOINTS
  6
ByBlock
 62
     0
100
AcDbPoint
 10
606.0
 20
674.919803550888
 30
0.0
  0
ENDBLK
  5
334
330
329
100
AcDbEntity
  8
0
100
AcDbBlockEnd
  0
BLOCK
  5
340
330
335
100
AcDbEntity
  8
0
100
AcDbBlockBegin
  2
*D12
 70
     1
 10
0.0
 20
0.0
 30
0.0
  3
*D12
  1

  0
LINE
  5
336
330
335
100
AcDbEntity
  8
0
  6
ByBlock
 62
     0
100
AcDbLine
 10
815.0000026818769
 20
683.0962991507373
 30
0.0
 11
815.0000026818769
 21
730.9745282386195
 31
0.0
  0
LINE
  5
337
330
335
100
AcDbEntity
  8
0
  6
ByBlock
 62
     0
100
AcDbLine
 10
817.0000026818771
 20
686.9698035508879
 30
0.0
 11
817.0000026818771
 21
730.9745282386195
 31
0.0
  0
LINE
  5
338
330
335
100
AcDbEntity
  8
0
  6
ByBlock
 62
     0
100
AcDbLine
 10
813.000002681877
 20
729.9745282386195
 30
0.0
 11
811.000002681877
 21
729.9745282386195
 31
0.0
  0
LINE
  5
339
330
335
100
AcDbEntity
  8
0
  6
ByBlock
 62
     0
100
AcDbLine
 10
819.000002681877
 20
729.9745282386195
 30
0.0
 11
840.1812849330278
 21
729.9745282386195
 31
0.0
  0
SOLID
  5
33A
330
335
100
AcDbEntity
  8
0
  6
ByBlock
 62
     0
100
AcDbTrace
 10
813.000002681877
 20
730.3078615719528
 30
0.0
 11
813.000002681877
 21
729.6411949052862
 31
0.0
 12
815.0000026818769
 22
729.9745282386195
 32
0.0
 13
815.0000026818769
 23
729.9745282386195
 33
0.0
  0
SOLID
  5
33B
330
335
100
AcDbEntity
  8
0
  6
ByBlock
 62
     0
100
AcDbTrace
 10
819.000002681877
 20
730.3078615719528
 30
0.0
 11
819.000002681877
 21
729.6411949052862
 31
0.0
 12
817.0000026818771
 22
729.9745282386195
 32
0.0
 13
817.0000026818771
 23
729.9745282386195
 33
0.0
  0
MTEXT
  5
33C
330
335
100
AcDbEntity
  8
0
  6
ByBlock
 62
     0
100
AcDbMText
 10
835.0912849330279
 20
737.5645282386195
 30
0.0
 40
15.0
 41
0.0
 71
     5
 72
     1
  1
\A1;2
 73
     1
 44
1.0
  0
POINT
  5
33D
330
335
100
AcDbEntity
  8
DEFPOINTS
  6
ByBlock
 62
     0
100
AcDbPoint
 10
815.0000026818769
 20
682.0962991507372
 30
0.0
  0
POINT
  5
33E
330
335
100
AcDbEntity
  8
DEFPOINTS
  6
ByBlock
 62
     0
100
AcDbPoint
 10
817.0000026818771
 20
685.9698035508879
 30
0.0
  0
POINT
  5
33F
330
335
100
AcDbEntity
  8
DEFPOINTS
  6
ByBlock
 62
     0
100
AcDbPoint
 10
817.0000026818771
 20
729.9745282386195
 30
0.0
  0
ENDBLK
  5
341
330
335
100
AcDbEntity
  8
0
100
AcDbBlockEnd
  0
BLOCK
  5
34E
330
342
100
AcDbEntity
  8
0
100
AcDbBlockBegin
  2
*D13
 70
     1
 10
0.0
 20
0.0
 30
0.0
  3
*D13
  1

  0
LINE
  5
343
330
342
100
AcDbEntity
  8
0
  6
ByBlock
 62
     0
100
AcDbLine
 10
814.7892309530512
 20
685.9698035508874
 30
0.0
 11
704.9013504621258
 21
685.9698035508874
 31
0.0
  0
LINE
  5
344
330
342
100
AcDbEntity
  8
0
  6
ByBlock
 62
     0
100
AcDbLine
 10
814.0000026818769
 20
663.8698035508879
 30
0.0
 11
704.9013504621258
 21
663.8698035508879
 31
0.0
  0
LINE
  5
345
330
342
100
AcDbEntity
  8
0
  6
ByBlock
 62
     0
100
AcDbLine
 10
705.9013504621258
 20
665.8698035508879
 30
0.0
 11
705.9013504621258
 21
683.9698035508875
 31
0.0
  0
LINE
  5
346
330
342
100
AcDbEntity
  8
0
  6
ByBlock
 62
     0
100
AcDbLine
 10
705.9013504621258
 20
685.9698035508874
 30
0.0
 11
705.9013504621258
 21
700.5432261620123
 31
0.0
  0
LINE
  5
347
330
342
100
AcDbEntity
  8
0
  6
ByBlock
 62
     0
100
AcDbLine
 10
705.9013504621258
 20
700.5432261620123
 30
0.0
 11
760.9913504621259
 21
700.5432261620123
 31
0.0
  0
SOLID
  5
348
330
342
100
AcDbEntity
  8
0
  6
ByBlock
 62
     0
100
AcDbTrace
 10
705.5680171287924
 20
665.8698035508879
 30
0.0
 11
706.2346837954592
 21
665.8698035508879
 31
0.0
 12
705.9013504621258
 22
663.8698035508879
 32
0.0
 13
705.9013504621258
 23
663.8698035508879
 33
0.0
  0
SOLID
  5
349
330
342
100
AcDbEntity
  8
0
  6
ByBlock
 62
     0
100
AcDbTrace
 10
705.5680171287924
 20
683.9698035508875
 30
0.0
 11
706.2346837954592
 21
683.9698035508875
 31
0.0
 12
705.9013504621258
 22
685.9698035508874
 32
0.0
 13
705.9013504621258
 23
685.9698035508874
 33
0.0
  0
MTEXT
  5
34A
330
342
100
AcDbEntity
  8
0
  6
ByBlock
 62
     0
100
AcDbMText
 10
733.4913504621258
 20
708.1332261620124
 30
0.0
 40
15.0
 41
0.0
 71
     5
 72
     1
  1
\A1;\U+220522.1
 73
     1
 44
1.0
  0
POINT
  5
34B
330
342
100
AcDbEntity
  8
DEFPOINTS
  6
ByBlock
 62
     0
100
AcDbPoint
 10
815.7892309530511
 20
685.9698035508874
 30
0.0
  0
POINT
  5
34C
330
342
100
AcDbEntity
  8
DEFPOINTS
  6
ByBlock
 62
     0
100
AcDbPoint
 10
815.0000026818769
 20
663.8698035508879
 30
0.0
  0
POINT
  5
34D
330
342
100
AcDbEntity
  8
DEFPOINTS
  6
ByBlock
 62
     0
100
AcDbPoint
 10
705.9013504621258
 20
663.8698035508879
 30
0.0
  0
ENDBLK
  5
34F
330
342
100
AcDbEntity
  8
0
100
AcDbBlockEnd
  0
BLOCK
  5
352
330
350
100
AcDbEntity
  8
0
100
AcDbBlockBegin
  2
GENAXEH
 70
     0
 10
0.0
 20
0.0
 30
0.0
  3
GENAXEH
  1

  0
LINE
  5
351
330
350
100
AcDbEntity
  8
0
100
AcDbLine
 10
-1.0
 20
0.0
 30
0.0
 11
1.0
 21
0.0
 31
0.0
  0
ENDBLK
  5
353
330
350
100
AcDbEntity
  8
0
100
AcDbBlockEnd
  0
BLOCK
  5
35E
330
354
100
AcDbEntity
  8
0
100
AcDbBlockBegin
  2
*D15
 70
     1
 10
0.0
 20
0.0
 30
0.0
  3
*D15
  1

  0
LINE
  5
355
330
354
100
AcDbEntity
  8
0
 62
     0
370
    -2
100
AcDbLine
 10
852.9350916098948
 20
668.7198035508879
 30
0.0
 11
852.9350916098948
 21
729.6345344606106
 31
0.0
  0
LINE
  5
356
330
354
100
AcDbEntity
  8
0
 62
     0
370
    -2
100
AcDbLine
 10
910.000002681877
 20
508.0505976089991
 30
0.0
 11
910.000002681877
 21
729.6345344606106
 31
0.0
  0
LINE
  5
357
330
354
100
AcDbEntity
  8
0
 62
     0
370
    -2
100
AcDbLine
 10
854.9350916098948
 20
728.6345344606107
 30
0.0
 11
908.0000026818771
 21
728.6345344606107
 31
0.0
  0
SOLID
  5
358
330
354
100
AcDbEntity
  8
0
 62
     0
100
AcDbTrace
 10
854.9350916098948
 20
728.967867793944
 30
0.0
 11
854.9350916098948
 21
728.3012011272773
 31
0.0
 12
852.9350916098948
 22
728.6345344606107
 32
0.0
 13
852.9350916098948
 23
728.6345344606107
 33
0.0
  0
SOLID
  5
359
330
354
100
AcDbEntity
  8
0
 62
     0
100
AcDbTrace
 10
908.0000026818771
 20
728.967867793944
 30
0.0
 11
908.0000026818771
 21
728.3012011272773
 31
0.0
 12
910.000002681877
 22
728.6345344606107
 32
0.0
 13
910.000002681877
 23
728.6345344606107
 33
0.0
  0
MTEXT
  5
35A
330
354
100
AcDbEntity
  8
0
 62
     0
100
AcDbMText
 10
886.1859402446
 20
736.2245344606106
 30
0.0
 40
15.0
 41
0.0
 71
     5
 72
     1
  1
\A1;53
 73
     1
 44
1.0
  0
POINT
  5
35B
330
354
100
AcDbEntity
  8
DEFPOINTS
 62
     0
100
AcDbPoint
 10
852.9350916098948
 20
667.719803550888
 30
0.0
  0
POINT
  5
35C
330
354
100
AcDbEntity
  8
DEFPOINTS
 62
     0
100
AcDbPoint
 10
910.000002681877
 20
507.0505976089991
 30
0.0
  0
POINT
  5
35D
330
354
100
AcDbEntity
  8
DEFPOINTS
 62
     0
100
AcDbPoint
 10
910.000002681877
 20
728.6345344606107
 30
0.0
  0
ENDBLK
  5
35F
330
354
100
AcDbEntity
  8
0
100
AcDbBlockEnd
  0
BLOCK
  5
46B
330
461
100
AcDbEntity
  8
0
100
AcDbBlockBegin
  2
*D17
 70
     1
 10
0.0
 20
0.0
 30
0.0
  3
*D17
  1

  0
LINE
  5
4FE
330
461
100
AcDbEntity
  8
0
 62
     0
370
    -2
100
AcDbLine
 10
674.9675707740224
 20
597.7627283320962
 30
0.0
 11
691.9675691760767
 21
597.7627283320962
 31
0.0
  0
LINE
  5
4FF
330
461
100
AcDbEntity
  8
0
 62
     0
370
    -2
100
AcDbLine
 10
464.161541707717
 20
797.7627283320962
 30
0.0
 11
691.9675691760768
 21
797.7627283320962
 31
0.0
  0
LINE
  5
500
330
461
100
AcDbEntity
  8
0
 62
     0
370
    -2
100
AcDbLine
 10
690.9675691760767
 20
599.7627283320962
 30
0.0
 11
690.9675691760768
 21
795.7627283320962
 31
0.0
  0
SOLID
  5
501
330
461
100
AcDbEntity
  8
0
 62
     0
100
AcDbTrace
 10
690.6342358427433
 20
599.7627283320962
 30
0.0
 11
691.30090250941
 21
599.7627283320962
 31
0.0
 12
690.9675691760767
 22
597.7627283320962
 32
0.0
 13
690.9675691760767
 23
597.7627283320962
 33
0.0
  0
SOLID
  5
502
330
461
100
AcDbEntity
  8
0
 62
     0
100
AcDbTrace
 10
690.6342358427434
 20
795.7627283320962
 30
0.0
 11
691.3009025094102
 21
795.7627283320962
 31
0.0
 12
690.9675691760768
 22
797.7627283320962
 32
0.0
 13
690.9675691760768
 23
797.7627283320962
 33
0.0
  0
MTEXT
  5
503
330
461
100
AcDbEntity
  8
0
 62
     0
100
AcDbMText
 10
663.3775691760765
 20
702.8429247812082
 30
0.0
 40
55.0
 41
0.0
 71
     5
 72
     1
  1
\A1;200
  7
BIGFONT
 11
0.0000000000000001
 21
1.0
 31
0.0
 73
     1
 44
1.0
  0
POINT
  5
504
330
461
100
AcDbEntity
  8
DEFPOINTS
 62
     0
100
AcDbPoint
 10
673.9675707740224
 20
597.7627283320962
 30
0.0
  0
POINT
  5
505
330
461
100
AcDbEntity
  8
DEFPOINTS
 62
     0
100
AcDbPoint
 10
463.1615417077171
 20
797.7627283320962
 30
0.0
  0
POINT
  5
506
330
461
100
AcDbEntity
  8
DEFPOINTS
 62
     0
100
AcDbPoint
 10
690.9675691760768
 20
797.7627283320962
 30
0.0
  0
ENDBLK
  5
46C
330
461
100
AcDbEntity
  8
0
100
AcDbBlockEnd
  0
BLOCK
  5
477
330
46D
100
AcDbEntity
  8
0
100
AcDbBlockBegin
  2
*D18
 70
     1
 10
0.0
 20
0.0
 30
0.0
  3
*D18
  1

  0
LINE
  5
510
330
46D
100
AcDbEntity
  8
0
 62
     0
370
    -2
100
AcDbLine
 10
432.9675718579538
 20
822.7627283320959
 30
0.0
 11
725.9675691760768
 21
822.7627283320959
 31
0.0
  0
LINE
  5
511
330
46D
100
AcDbEntity
  8
0
 62
     0
370
    -2
100
AcDbLine
 10
432.9675718579536
 20
372.7627283320963
 30
0.0
 11
725.9675691760767
 21
372.7627283320962
 31
0.0
  0
LINE
  5
512
330
46D
100
AcDbEntity
  8
0
 62
     0
370
    -2
100
AcDbLine
 10
724.9675691760768
 20
820.762728332096
 30
0.0
 11
724.9675691760767
 21
374.7627283320962
 31
0.0
  0
SOLID
  5
513
330
46D
100
AcDbEntity
  8
0
 62
     0
100
AcDbTrace
 10
724.6342358427434
 20
820.762728332096
 30
0.0
 11
725.3009025094102
 21
820.762728332096
 31
0.0
 12
724.9675691760768
 22
822.7627283320959
 32
0.0
 13
724.9675691760768
 23
822.7627283320959
 33
0.0
  0
SOLID
  5
514
330
46D
100
AcDbEntity
  8
0
 62
     0
100
AcDbTrace
 10
724.6342358427433
 20
374.7627283320962
 30
0.0
 11
725.3009025094101
 21
374.7627283320962
 31
0.0
 12
724.9675691760767
 22
372.7627283320962
 32
0.0
 13
724.9675691760767
 23
372.7627283320962
 33
0.0
  0
MTEXT
  5
515
330
46D
100
AcDbEntity
  8
0
 62
     0
100
AcDbMText
 10
697.3775691760765
 20
596.8429247812082
 30
0.0
 40
55.0
 41
0.0
 71
     5
 72
     1
  1
\A1;450
  7
BIGFONT
 11
0.0000000000000001
 21
1.0
 31
0.0
 73
     1
 44
1.0
  0
POINT
  5
516
330
46D
100
AcDbEntity
  8
DEFPOINTS
 62
     0
100
AcDbPoint
 10
431.9675718579538
 20
822.7627283320959
 30
0.0
  0
POINT
  5
517
330
46D
100
AcDbEntity
  8
DEFPOINTS
 62
     0
100
AcDbPoint
 10
431.9675718579536
 20
372.7627283320963
 30
0.0
  0
POINT
  5
518
330
46D
100
AcDbEntity
  8
DEFPOINTS
 62
     0
100
AcDbPoint
 10
724.9675691760767
 20
372.7627283320962
 30
0.0
  0
ENDBLK
  5
478
330
46D
100
AcDbEntity
  8
0
100
AcDbBlockEnd
  0
BLOCK
  5
484
330
479
100
AcDbEntity
  8
0
100
AcDbBlockBegin
  2
*D19
 70
     1
 10
0.0
 20
0.0
 30
0.0
  3
*D19
  1

  0
LINE
  5
523
330
479
100
AcDbEntity
  8
0
 62
     0
370
    -2
100
AcDbLine
 10
418.749368568592
 20
775.4632265173461
 30
0.0
 11
418.749368568592
 21
761.8429247812082
 31
0.0
  0
LINE
  5
524
330
479
100
AcDbEntity
  8
0
 62
     0
370
    -2
100
AcDbLine
 10
445.0186165239418
 20
775.1222876073691
 30
0.0
 11
445.0186165239418
 21
761.8429247812082
 31
0.0
  0
LINE
  5
525
330
479
100
AcDbEntity
  8
0
 62
     0
370
    -2
100
AcDbLine
 10
420.7493685685919
 20
762.8429247812082
 30
0.0
 11
443.0186165239417
 21
762.8429247812082
 31
0.0
  0
LINE
  5
526
330
479
100
AcDbEntity
  8
0
 62
     0
370
    -2
100
AcDbLine
 10
445.0186165239418
 20
762.8429247812082
 30
0.0
 11
520.5319498572751
 21
762.8429247812082
 31
0.0
  0
SOLID
  5
527
330
479
100
AcDbEntity
  8
0
 62
     0
100
AcDbTrace
 10
420.7493685685919
 20
763.1762581145416
 30
0.0
 11
420.7493685685919
 21
762.5095914478748
 31
0.0
 12
418.749368568592
 22
762.8429247812082
 32
0.0
 13
418.749368568592
 23
762.8429247812082
 33
0.0
  0
SOLID
  5
528
330
479
100
AcDbEntity
  8
0
 62
     0
100
AcDbTrace
 10
443.0186165239417
 20
763.1762581145416
 30
0.0
 11
443.0186165239417
 21
762.5095914478748
 31
0.0
 12
445.0186165239418
 22
762.8429247812082
 32
0.0
 13
445.0186165239418
 23
762.8429247812082
 33
0.0
  0
MTEXT
  5
529
330
479
100
AcDbEntity
  8
0
 62
     0
100
AcDbMText
 10
483.7752831906084
 20
790.4329247812082
 30
0.0
 40
55.0
 41
0.0
 71
     5
 72
     1
  1
\A1;26
  7
BIGFONT
 73
     1
 44
1.0
  0
POINT
  5
52A
330
479
100
AcDbEntity
  8
DEFPOINTS
 62
     0
100
AcDbPoint
 10
418.749368568592
 20
776.4632265173461
 30
0.0
  0
POINT
  5
52B
330
479
100
AcDbEntity
  8
DEFPOINTS
 62
     0
100
AcDbPoint
 10
445.0186165239418
 20
776.122287607369
 30
0.0
  0
POINT
  5
52C
330
479
100
AcDbEntity
  8
DEFPOINTS
 62
     0
100
AcDbPoint
 10
445.0186165239418
 20
762.8429247812082
 30
0.0
  0
ENDBLK
  5
485
330
479
100
AcDbEntity
  8
0
100
AcDbBlockEnd
  0
BLOCK
  5
491
330
486
100
AcDbEntity
  8
0
100
AcDbBlockBegin
  2
*D20
 70
     1
 10
0.0
 20
0.0
 30
0.0
  3
*D20
  1

  0
LINE
  5
537
330
486
100
AcDbEntity
  8
0
 62
     0
370
    -2
100
AcDbLine
 10
416.9935976427634
 20
643.1951428542031
 30
0.0
 11
416.9935976427634
 21
645.8429247812082
 31
0.0
  0
LINE
  5
538
330
486
100
AcDbEntity
  8
0
 62
     0
370
    -2
100
AcDbLine
 10
446.9415460731441
 20
643.1951428542031
 30
0.0
 11
446.9415460731441
 21
645.8429247812082
 31
0.0
  0
LINE
  5
539
330
486
100
AcDbEntity
  8
0
 62
     0
370
    -2
100
AcDbLine
 10
418.9935976427634
 20
644.8429247812082
 30
0.0
 11
444.941546073144
 21
644.8429247812082
 31
0.0
  0
LINE
  5
53A
330
486
100
AcDbEntity
  8
0
 62
     0
370
    -2
100
AcDbLine
 10
446.9415460731441
 20
644.8429247812082
 30
0.0
 11
515.1215460731441
 21
644.8429247812082
 31
0.0
  0
SOLID
  5
53B
330
486
100
AcDbEntity
  8
0
 62
     0
100
AcDbTrace
 10
418.9935976427634
 20
645.1762581145416
 30
0.0
 11
418.9935976427634
 21
644.5095914478748
 31
0.0
 12
416.9935976427634
 22
644.8429247812082
 32
0.0
 13
416.9935976427634
 23
644.8429247812082
 33
0.0
  0
SOLID
  5
53C
330
486
100
AcDbEntity
  8
0
 62
     0
100
AcDbTrace
 10
444.941546073144
 20
645.1762581145416
 30
0.0
 11
444.941546073144
 21
644.5095914478748
 31
0.0
 12
446.9415460731441
 22
644.8429247812082
 32
0.0
 13
446.9415460731441
 23
644.8429247812082
 33
0.0
  0
MTEXT
  5
53D
330
486
100
AcDbEntity
  8
0
 62
     0
100
AcDbMText
 10
482.0315460731441
 20
672.4329247812082
 30
0.0
 40
55.0
 41
0.0
 71
     5
 72
     1
  1
\A1;30
  7
BIGFONT
 73
     1
 44
1.0
  0
POINT
  5
53E
330
486
100
AcDbEntity
  8
DEFPOINTS
 62
     0
100
AcDbPoint
 10
416.9935976427634
 20
642.1951428542031
 30
0.0
  0
POINT
  5
53F
330
486
100
AcDbEntity
  8
DEFPOINTS
 62
     0
100
AcDbPoint
 10
446.9415460731441
 20
642.1951428542031
 30
0.0
  0
POINT
  5
540
330
486
100
AcDbEntity
  8
DEFPOINTS
 62
     0
100
AcDbPoint
 10
446.9415460731441
 20
644.8429247812082
 30
0.0
  0
ENDBLK
  5
492
330
486
100
AcDbEntity
  8
0
100
AcDbBlockEnd
  0
BLOCK
  5
49C
330
493
100
AcDbEntity
  8
0
100
AcDbBlockBegin
  2
*D21
 70
     1
 10
0.0
 20
0.0
 30
0.0
  3
*D21
  1

  0
LINE
  5
549
330
493
100
AcDbEntity
  8
0
 62
     0
370
    -2
100
AcDbLine
 10
197.544235842743
 20
852.8429247812082
 30
0.0
 11
358.9675691760777
 21
852.8429247812082
 31
0.0
  0
LINE
  5
54A
330
493
100
AcDbEntity
  8
0
 62
     0
370
    -2
100
AcDbLine
 10
358.9675691760777
 20
852.8429247812082
 30
0.0
 11
421.5502329290448
 21
805.6228523540333
 31
0.0
  0
MTEXT
  5
54B
330
493
100
AcDbEntity
  8
0
 62
     0
100
AcDbMText
 10
278.2109025094098
 20
880.4329247812082
 30
0.0
 40
55.0
 41
0.0
 71
     5
 72
     1
  1
\A1;\U+220522.1
  7
BIGFONT
 73
     1
 44
1.0
  0
SOLID
  5
54C
330
493
100
AcDbEntity
  8
0
 62
     0
100
AcDbTrace
 10
421.7510023804352
 20
805.8889401938522
 30
0.0
 11
421.3494634776542
 21
805.3567645142145
 31
0.0
 12
423.146759967958
 22
804.4182356456905
 32
0.0
 13
423.146759967958
 23
804.4182356456905
 33
0.0
  0
LINE
  5
54D
330
493
100
AcDbEntity
  8
0
 62
     0
370
    -2
100
AcDbLine
 10
431.8775718579539
 20
797.7627283320964
 30
0.0
 11
432.0575718579539
 21
797.7627283320962
 31
0.0
  0
LINE
  5
54E
330
493
100
AcDbEntity
  8
0
 62
     0
370
    -2
100
AcDbLine
 10
431.967571857954
 20
797.6727283320964
 30
0.0
 11
431.967571857954
 21
797.8527283320963
 31
0.0
  0
POINT
  5
54F
330
493
100
AcDbEntity
  8
DEFPOINTS
 62
     0
100
AcDbPoint
 10
423.146759967958
 20
804.4182356456905
 30
0.0
  0
POINT
  5
550
330
493
100
AcDbEntity
  8
DEFPOINTS
 62
     0
100
AcDbPoint
 10
440.7883837479497
 20
791.1072210185018
 30
0.0
  0
ENDBLK
  5
49D
330
493
100
AcDbEntity
  8
0
100
AcDbBlockEnd
  0
BLOCK
  5
4A8
330
49E
100
AcDbEntity
  8
0
100
AcDbBlockBegin
  2
*D22
 70
     1
 10
0.0
 20
0.0
 30
0.0
  3
*D22
  1

  0
LINE
  5
55A
330
49E
100
AcDbEntity
  8
0
 62
     0
370
    -2
100
AcDbLine
 10
937.9026607859714
 20
791.5627283320961
 30
0.0
 11
937.9026607859714
 21
852.4774592418189
 31
0.0
  0
LINE
  5
55B
330
49E
100
AcDbEntity
  8
0
 62
     0
370
    -2
100
AcDbLine
 10
994.9675718579536
 20
630.8935223902074
 30
0.0
 11
994.9675718579536
 21
852.4774592418189
 31
0.0
  0
LINE
  5
55C
330
49E
100
AcDbEntity
  8
0
 62
     0
370
    -2
100
AcDbLine
 10
939.9026607859713
 20
851.4774592418188
 30
0.0
 11
992.9675718579536
 21
851.4774592418188
 31
0.0
  0
SOLID
  5
55D
330
49E
100
AcDbEntity
  8
0
 62
     0
100
AcDbTrace
 10
939.9026607859713
 20
851.8107925751522
 30
0.0
 11
939.9026607859713
 21
851.1441259084856
 31
0.0
 12
937.9026607859714
 22
851.4774592418188
 32
0.0
 13
937.9026607859714
 23
851.4774592418188
 33
0.0
  0
SOLID
  5
55E
330
49E
100
AcDbEntity
  8
0
 62
     0
100
AcDbTrace
 10
992.9675718579536
 20
851.8107925751522
 30
0.0
 11
992.9675718579536
 21
851.1441259084856
 31
0.0
 12
994.9675718579536
 22
851.4774592418188
 32
0.0
 13
994.9675718579536
 23
851.4774592418188
 33
0.0
  0
MTEXT
  5
55F
330
49E
100
AcDbEntity
  8
0
 62
     0
100
AcDbMText
 10
966.4351163219626
 20
879.067459241819
 30
0.0
 40
55.0
 41
0.0
 71
     5
 72
     1
  1
\A1;53
  7
BIGFONT
 73
     1
 44
1.0
  0
POINT
  5
560
330
49E
100
AcDbEntity
  8
DEFPOINTS
 62
     0
100
AcDbPoint
 10
937.9026607859714
 20
790.5627283320962
 30
0.0
  0
POINT
  5
561
330
49E
100
AcDbEntity
  8
DEFPOINTS
 62
     0
100
AcDbPoint
 10
994.9675718579536
 20
629.8935223902073
 30
0.0
  0
POINT
  5
562
330
49E
100
AcDbEntity
  8
DEFPOINTS
 62
     0
100
AcDbPoint
 10
994.9675718579536
 20
851.4774592418188
 30
0.0
  0
ENDBLK
  5
4A9
330
49E
100
AcDbEntity
  8
0
100
AcDbBlockEnd
  0
BLOCK
  5
4B4
330
4AA
100
AcDbEntity
  8
0
100
AcDbBlockBegin
  2
*D23
 70
     1
 10
0.0
 20
0.0
 30
0.0
  3
*D23
  1

  0
LINE
  5
56C
330
4AA
100
AcDbEntity
  8
0
 62
     0
370
    -2
100
AcDbLine
 10
940.9675718579537
 20
594.0385048053447
 30
0.0
 11
940.9675718579537
 21
747.8429247812082
 31
0.0
  0
LINE
  5
56D
330
4AA
100
AcDbEntity
  8
0
 62
     0
370
    -2
100
AcDbLine
 10
994.9675718579538
 20
630.8935223902089
 30
0.0
 11
994.9675718579538
 21
747.8429247812082
 31
0.0
  0
LINE
  5
56E
330
4AA
100
AcDbEntity
  8
0
 62
     0
370
    -2
100
AcDbLine
 10
942.9675718579536
 20
746.8429247812082
 30
0.0
 11
992.9675718579538
 21
746.8429247812082
 31
0.0
  0
SOLID
  5
56F
330
4AA
100
AcDbEntity
  8
0
 62
     0
100
AcDbTrace
 10
942.9675718579536
 20
747.1762581145416
 30
0.0
 11
942.9675718579536
 21
746.5095914478748
 31
0.0
 12
940.9675718579537
 22
746.8429247812082
 32
0.0
 13
940.9675718579537
 23
746.8429247812082
 33
0.0
  0
SOLID
  5
570
330
4AA
100
AcDbEntity
  8
0
 62
     0
100
AcDbTrace
 10
992.9675718579538
 20
747.1762581145416
 30
0.0
 11
992.9675718579538
 21
746.5095914478748
 31
0.0
 12
994.9675718579538
 22
746.8429247812082
 32
0.0
 13
994.9675718579538
 23
746.8429247812082
 33
0.0
  0
MTEXT
  5
571
330
4AA
100
AcDbEntity
  8
0
 62
     0
100
AcDbMText
 10
967.9675718579538
 20
774.4329247812083
 30
0.0
 40
55.0
 41
0.0
 71
     5
 72
     1
  1
\A1;54
  7
BIGFONT
 73
     1
 44
1.0
  0
POINT
  5
572
330
4AA
100
AcDbEntity
  8
DEFPOINTS
 62
     0
100
AcDbPoint
 10
940.9675718579537
 20
593.0385048053446
 30
0.0
  0
POINT
  5
573
330
4AA
100
AcDbEntity
  8
DEFPOINTS
 62
     0
100
AcDbPoint
 10
994.9675718579538
 20
629.8935223902089
 30
0.0
  0
POINT
  5
574
330
4AA
100
AcDbEntity
  8
DEFPOINTS
 62
     0
100
AcDbPoint
 10
994.9675718579538
 20
746.8429247812082
 30
0.0
  0
ENDBLK
  5
4B5
330
4AA
100
AcDbEntity
  8
0
100
AcDbBlockEnd
  0
BLOCK
  5
4C1
330
4B6
100
AcDbEntity
  8
0
100
AcDbBlockBegin
  2
*D24
 70
     1
 10
0.0
 20
0.0
 30
0.0
  3
*D24
  1

  0
LINE
  5
57F
330
4B6
100
AcDbEntity
  8
0
 62
     0
370
    -2
100
AcDbLine
 10
969.9675718579536
 20
638.8935223902073
 30
0.0
 11
969.9675718579536
 21
705.8429247812082
 31
0.0
  0
LINE
  5
580
330
4B6
100
AcDbEntity
  8
0
 62
     0
370
    -2
100
AcDbLine
 10
994.9675718579538
 20
630.8935223902089
 30
0.0
 11
994.9675718579538
 21
705.8429247812082
 31
0.0
  0
LINE
  5
581
330
4B6
100
AcDbEntity
  8
0
 62
     0
370
    -2
100
AcDbLine
 10
971.9675718579535
 20
704.8429247812082
 30
0.0
 11
992.9675718579538
 21
704.8429247812082
 31
0.0
  0
LINE
  5
582
330
4B6
100
AcDbEntity
  8
0
 62
     0
370
    -2
100
AcDbLine
 10
994.9675718579538
 20
704.8429247812082
 30
0.0
 11
1070.480905191287
 21
704.8429247812082
 31
0.0
  0
SOLID
  5
583
330
4B6
100
AcDbEntity
  8
0
 62
     0
100
AcDbTrace
 10
971.9675718579535
 20
705.1762581145416
 30
0.0
 11
971.9675718579535
 21
704.5095914478748
 31
0.0
 12
969.9675718579536
 22
704.8429247812082
 32
0.0
 13
969.9675718579536
 23
704.8429247812082
 33
0.0
  0
SOLID
  5
584
330
4B6
100
AcDbEntity
  8
0
 62
     0
100
AcDbTrace
 10
992.9675718579538
 20
705.1762581145416
 30
0.0
 11
992.9675718579538
 21
704.5095914478748
 31
0.0
 12
994.9675718579538
 22
704.8429247812082
 32
0.0
 13
994.9675718579538
 23
704.8429247812082
 33
0.0
  0
MTEXT
  5
585
330
4B6
100
AcDbEntity
  8
0
 62
     0
100
AcDbMText
 10
1033.72423852462
 20
732.4329247812082
 30
0.0
 40
55.0
 41
0.0
 71
     5
 72
     1
  1
\A1;25
  7
BIGFONT
 73
     1
 44
1.0
  0
POINT
  5
586
330
4B6
100
AcDbEntity
  8
DEFPOINTS
 62
     0
100
AcDbPoint
 10
969.9675718579536
 20
637.8935223902074
 30
0.0
  0
POINT
  5
587
330
4B6
100
AcDbEntity
  8
DEFPOINTS
 62
     0
100
AcDbPoint
 10
994.9675718579538
 20
629.8935223902089
 30
0.0
  0
POINT
  5
588
330
4B6
100
AcDbEntity
  8
DEFPOINTS
 62
     0
100
AcDbPoint
 10
994.9675718579538
 20
704.8429247812082
 30
0.0
  0
ENDBLK
  5
4C2
330
4B6
100
AcDbEntity
  8
0
100
AcDbBlockEnd
  0
BLOCK
  5
4CF
330
4C3
100
AcDbEntity
  8
0
100
AcDbBlockBegin
  2
*D25
 70
     1
 10
0.0
 20
0.0
 30
0.0
  3
*D25
  1

  0
LINE
  5
594
330
4C3
100
AcDbEntity
  8
0
 62
     0
370
    -2
100
AcDbLine
 10
899.7568001291277
 20
808.8127283320957
 30
0.0
 11
736.702252971536
 21
808.8127283320957
 31
0.0
  0
LINE
  5
595
330
4C3
100
AcDbEntity
  8
0
 62
     0
370
    -2
100
AcDbLine
 10
898.9675718579537
 20
786.712728332096
 30
0.0
 11
736.702252971536
 21
786.7127283320962
 31
0.0
  0
LINE
  5
596
330
4C3
100
AcDbEntity
  8
0
 62
     0
370
    -2
100
AcDbLine
 10
737.702252971536
 20
788.7127283320961
 30
0.0
 11
737.702252971536
 21
806.8127283320958
 31
0.0
  0
LINE
  5
597
330
4C3
100
AcDbEntity
  8
0
 62
     0
370
    -2
100
AcDbLine
 10
737.702252971536
 20
808.8127283320957
 30
0.0
 11
737.702252971536
 21
823.3861509432205
 31
0.0
  0
LINE
  5
598
330
4C3
100
AcDbEntity
  8
0
 62
     0
370
    -2
100
AcDbLine
 10
737.702252971536
 20
823.3861509432205
 30
0.0
 11
899.1255863048692
 21
823.3861509432204
 31
0.0
  0
SOLID
  5
599
330
4C3
100
AcDbEntity
  8
0
 62
     0
100
AcDbTrace
 10
737.3689196382026
 20
788.7127283320961
 30
0.0
 11
738.0355863048694
 21
788.7127283320961
 31
0.0
 12
737.702252971536
 22
786.7127283320962
 32
0.0
 13
737.702252971536
 23
786.7127283320962
 33
0.0
  0
SOLID
  5
59A
330
4C3
100
AcDbEntity
  8
0
 62
     0
100
AcDbTrace
 10
737.3689196382026
 20
806.8127283320958
 30
0.0
 11
738.0355863048694
 21
806.8127283320958
 31
0.0
 12
737.702252971536
 22
808.8127283320957
 32
0.0
 13
737.702252971536
 23
808.8127283320957
 33
0.0
  0
MTEXT
  5
59B
330
4C3
100
AcDbEntity
  8
0
 62
     0
100
AcDbMText
 10
818.4589196382024
 20
850.9761509432205
 30
0.0
 40
55.0
 41
0.0
 71
     5
 72
     1
  1
\A1;%%C22.1
  7
BIGFONT
 73
     1
 44
1.0
  0
POINT
  5
59C
330
4C3
100
AcDbEntity
  8
DEFPOINTS
 62
     0
100
AcDbPoint
 10
900.7568001291277
 20
808.8127283320957
 30
0.0
  0
POINT
  5
59D
330
4C3
100
AcDbEntity
  8
DEFPOINTS
 62
     0
100
AcDbPoint
 10
899.9675718579537
 20
786.712728332096
 30
0.0
  0
POINT
  5
59E
330
4C3
100
AcDbEntity
  8
DEFPOINTS
 62
     0
100
AcDbPoint
 10
737.702252971536
 20
786.7127283320962
 30
0.0
  0
ENDBLK
  5
4D0
330
4C3
100
AcDbEntity
  8
0
100
AcDbBlockEnd
  0
BLOCK
  5
4DC
330
4D1
100
AcDbEntity
  8
0
100
AcDbBlockBegin
  2
*D26
 70
     1
 10
0.0
 20
0.0
 30
0.0
  3
*D26
  1

  0
LINE
  5
5A9
330
4D1
100
AcDbEntity
  8
0
 62
     0
370
    -2
100
AcDbLine
 10
899.9675718579537
 20
805.9392239319453
 30
0.0
 11
899.9675718579537
 21
853.8174530198277
 31
0.0
  0
LINE
  5
5AA
330
4D1
100
AcDbEntity
  8
0
 62
     0
370
    -2
100
AcDbLine
 10
901.9675718579536
 20
809.8127283320961
 30
0.0
 11
901.9675718579536
 21
853.8174530198277
 31
0.0
  0
LINE
  5
5AB
330
4D1
100
AcDbEntity
  8
0
 62
     0
370
    -2
100
AcDbLine
 10
897.9675718579537
 20
852.8174530198278
 30
0.0
 11
895.9675718579536
 21
852.8174530198278
 31
0.0
  0
LINE
  5
5AC
330
4D1
100
AcDbEntity
  8
0
 62
     0
370
    -2
100
AcDbLine
 10
903.9675718579536
 20
852.8174530198278
 30
0.0
 11
935.4809051912869
 21
852.8174530198278
 31
0.0
  0
SOLID
  5
5AD
330
4D1
100
AcDbEntity
  8
0
 62
     0
100
AcDbTrace
 10
897.9675718579537
 20
853.1507863531611
 30
0.0
 11
897.9675718579537
 21
852.4841196864944
 31
0.0
 12
899.9675718579537
 22
852.8174530198278
 32
0.0
 13
899.9675718579537
 23
852.8174530198278
 33
0.0
  0
SOLID
  5
5AE
330
4D1
100
AcDbEntity
  8
0
 62
     0
100
AcDbTrace
 10
903.9675718579536
 20
853.1507863531611
 30
0.0
 11
903.9675718579536
 21
852.4841196864944
 31
0.0
 12
901.9675718579536
 22
852.8174530198278
 32
0.0
 13
901.9675718579536
 23
852.8174530198278
 33
0.0
  0
MTEXT
  5
5AF
330
4D1
100
AcDbEntity
  8
0
 62
     0
100
AcDbMText
 10
920.7242385246203
 20
880.4074530198278
 30
0.0
 40
55.0
 41
0.0
 71
     5
 72
     1
  1
\A1;2
  7
BIGFONT
 73
     1
 44
1.0
  0
POINT
  5
5B0
330
4D1
100
AcDbEntity
  8
DEFPOINTS
 62
     0
100
AcDbPoint
 10
899.9675718579537
 20
804.9392239319454
 30
0.0
  0
POINT
  5
5B1
330
4D1
100
AcDbEntity
  8
DEFPOINTS
 62
     0
100
AcDbPoint
 10
901.9675718579536
 20
808.8127283320961
 30
0.0
  0
POINT
  5
5B2
330
4D1
100
AcDbEntity
  8
DEFPOINTS
 62
     0
100
AcDbPoint
 10
901.9675718579536
 20
852.8174530198278
 30
0.0
  0
ENDBLK
  5
4DD
330
4D1
100
AcDbEntity
  8
0
100
AcDbBlockEnd
  0
BLOCK
  5
4E8
330
4DE
100
AcDbEntity
  8
0
100
AcDbBlockBegin
  2
*D27
 70
     1
 10
0.0
 20
0.0
 30
0.0
  3
*D27
  1

  0
LINE
  5
5BC
330
4DE
100
AcDbEntity
  8
0
 62
     0
370
    -2
100
AcDbLine
 10
990.9675718579533
 20
634.8935223902071
 30
0.0
 11
1067.967569176077
 21
634.8935223902071
 31
0.0
  0
LINE
  5
5BD
330
4DE
100
AcDbEntity
  8
0
 62
     0
370
    -2
100
AcDbLine
 10
990.9675718579576
 20
560.4697387413108
 30
0.0
 11
1067.967569176077
 21
560.4697387413108
 31
0.0
  0
LINE
  5
5BE
330
4DE
100
AcDbEntity
  8
0
 62
     0
370
    -2
100
AcDbLine
 10
1066.967569176076
 20
632.8935223902071
 30
0.0
 11
1066.967569176076
 21
562.4697387413108
 31
0.0
  0
SOLID
  5
5BF
330
4DE
100
AcDbEntity
  8
0
 62
     0
100
AcDbTrace
 10
1066.634235842743
 20
632.8935223902071
 30
0.0
 11
1067.30090250941
 21
632.8935223902071
 31
0.0
 12
1066.967569176076
 22
634.8935223902071
 32
0.0
 13
1066.967569176076
 23
634.8935223902071
 33
0.0
  0
SOLID
  5
5C0
330
4DE
100
AcDbEntity
  8
0
 62
     0
100
AcDbTrace
 10
1066.634235842743
 20
562.4697387413108
 30
0.0
 11
1067.30090250941
 21
562.4697387413108
 31
0.0
 12
1066.967569176076
 22
560.4697387413108
 32
0.0
 13
1066.967569176076
 23
560.4697387413108
 33
0.0
  0
MTEXT
  5
5C1
330
4DE
100
AcDbEntity
  8
0
 62
     0
100
AcDbMText
 10
1039.377569176076
 20
598.8429247812082
 30
0.0
 40
55.0
 41
0.0
 71
     5
 72
     1
  1
\A1;75
  7
BIGFONT
 11
0.0000000000000001
 21
1.0
 31
0.0
 73
     1
 44
1.0
  0
POINT
  5
5C2
330
4DE
100
AcDbEntity
  8
DEFPOINTS
 62
     0
100
AcDbPoint
 10
989.9675718579533
 20
634.8935223902071
 30
0.0
  0
POINT
  5
5C3
330
4DE
100
AcDbEntity
  8
DEFPOINTS
 62
     0
100
AcDbPoint
 10
989.9675718579576
 20
560.4697387413108
 30
0.0
  0
POINT
  5
5C4
330
4DE
100
AcDbEntity
  8
DEFPOINTS
 62
     0
100
AcDbPoint
 10
1066.967569176076
 20
560.4697387413108
 30
0.0
  0
ENDBLK
  5
4E9
330
4DE
100
AcDbEntity
  8
0
100
AcDbBlockEnd
  0
BLOCK
  5
4F3
330
4EA
100
AcDbEntity
  8
0
100
AcDbBlockBegin
  2
*D28
 70
     1
 10
0.0
 20
0.0
 30
0.0
  3
*D28
  1

  0
LINE
  5
5CD
330
4EA
100
AcDbEntity
  8
0
 62
     0
370
    -2
100
AcDbLine
 10
1100.586589479657
 20
513.3533606812799
 30
0.0
 11
1027.163256146324
 21
513.3533606812801
 31
0.0
  0
LINE
  5
5CE
330
4EA
100
AcDbEntity
  8
0
 62
     0
370
    -2
100
AcDbLine
 10
1027.163256146324
 20
513.3533606812801
 30
0.0
 11
994.0624902345572
 21
559.7574477432449
 31
0.0
  0
MTEXT
  5
5CF
330
4EA
100
AcDbEntity
  8
0
 62
     0
100
AcDbMText
 10
1063.91992281299
 20
540.94336068128
 30
0.0
 40
55.0
 41
0.0
 71
     5
 72
     1
  1
\A1;R5
  7
BIGFONT
 73
     1
 44
1.0
  0
SOLID
  5
5D0
330
4EA
100
AcDbEntity
  8
0
 62
     0
100
AcDbTrace
 10
994.3338591647441
 20
559.951019473723
 30
0.0
 11
993.7911213043703
 21
559.5638760127667
 31
0.0
 12
992.9010598516882
 22
561.3856613243665
 32
0.0
 13
992.9010598516882
 23
561.3856613243665
 33
0.0
  0
LINE
  5
5D1
330
4EA
100
AcDbEntity
  8
0
 62
     0
370
    -2
100
AcDbLine
 10
989.9482114901241
 20
565.3990991091401
 30
0.0
 11
990.1282114901238
 21
565.39909910914
 31
0.0
  0
LINE
  5
5D2
330
4EA
100
AcDbEntity
  8
0
 62
     0
370
    -2
100
AcDbLine
 10
990.038211490124
 20
565.3090991091401
 30
0.0
 11
990.0382114901239
 21
565.4890991091401
 31
0.0
  0
POINT
  5
5D3
330
4EA
100
AcDbEntity
  8
DEFPOINTS
 62
     0
100
AcDbPoint
 10
992.9010598516882
 20
561.3856613243665
 30
0.0
  0
POINT
  5
5D4
330
4EA
100
AcDbEntity
  8
DEFPOINTS
 62
     0
100
AcDbPoint
 10
990.038211490124
 20
565.3990991091401
 30
0.0
  0
ENDBLK
  5
4F4
330
4EA
100
AcDbEntity
  8
0
100
AcDbBlockEnd
  0
ENDSEC
  0
SECTION
  2
ENTITIES
  0
TEXT
  5
5D
330
1BC
100
AcDbEntity
  8
4
100
AcDbText
 10
732.890485
 20
169.402423
 30
0.0
 40
6.4
  1
           
100
AcDbText
  0
ARC
  5
3F5
330
1BC
100
AcDbEntity
  8
3
100
AcDbCircle
 10
431.9675718579536
 20
597.7627283320962
 30
0.0
 40
189.5904238069616
100
AcDbArc
 50
312.7121621250968
 51
12.29011525080886
  0
LINE
  5
3F6
330
1BC
100
AcDbEntity
  8
1
100
AcDbLine
 10
673.9675707740224
 20
597.7627283320962
 30
0.0
 11
192.9675707740224
 21
597.7627283320962
 31
0.0
  0
CIRCLE
  5
3F7
330
1BC
100
AcDbEntity
  8
3
100
AcDbCircle
 10
431.9675718579536
 20
597.7627283320962
 30
0.0
 40
224.9999999999999
  0
ARC
  5
3F8
330
1BC
100
AcDbEntity
  8
3
100
AcDbCircle
 10
431.9675718579536
 20
597.7627283320962
 30
0.0
 40
206.5904255477696
100
AcDbArc
 50
97.1348408470663
 51
83.20081234620264
  0
LINE
  5
3F9
330
1BC
100
AcDbEntity
  8
3
100
AcDbLine
 10
445.9700902243728
 20
553.0146686707025
 30
0.0
 11
526.4001287863865
 21
445.4269196785741
 31
0.0
  0
LINE
  5
3FA
330
1BC
100
AcDbEntity
  8
1
100
AcDbLine
 10
431.9675718579538
 20
834.7627274077805
 30
0.0
 11
431.9675718579536
 21
359.7627274077803
 31
0.0
  0
LINE
  5
3FB
330
1BC
100
AcDbEntity
  8
3
100
AcDbLine
 10
470.1984894512154
 20
570.6176310944961
 30
0.0
 11
547.6069119122729
 21
460.9293251173086
 31
0.0
  0
ARC
  5
3FC
330
1BC
100
AcDbEntity
  8
3
100
AcDbCircle
 10
431.9675718579536
 20
597.7627283320962
 30
0.0
 40
189.5904238069616
100
AcDbArc
 50
168.4611002827129
 51
227.390943684607
  0
LINE
  5
3FD
330
1BC
100
AcDbEntity
  8
3
100
AcDbLine
 10
393.72699478913
 20
570.6244522745198
 30
0.0
 11
316.2209654578786
 21
460.8476354206217
 31
0.0
  0
LINE
  5
3FE
330
1BC
100
AcDbEntity
  8
3
100
AcDbLine
 10
417.9650534915344
 20
553.0146686707025
 30
0.0
 11
337.5212489841906
 21
445.3720735801838
 31
0.0
  0
ARC
  5
3FF
330
1BC
100
AcDbEntity
  8
3
100
AcDbCircle
 10
431.9675718579536
 20
597.7627283320962
 30
0.0
 40
189.5904238069616
100
AcDbArc
 50
240.1314750682276
 51
299.504525490989
  0
ARC
  5
400
330
1BC
100
AcDbEntity
  8
3
100
AcDbCircle
 10
305.4600234566435
 20
481.7297698956597
 30
0.0
 40
23.57591703490412
100
AcDbArc
 50
265.5147105364095
 51
296.4390385953621
  0
ARC
  5
401
330
1BC
100
AcDbEntity
  8
3
100
AcDbCircle
 10
351.2933928487159
 20
439.3959921042149
 30
0.0
 40
15.01284438181524
100
AcDbArc
 50
156.5427588307159
 51
203.7254237988598
  0
ARC
  5
402
330
1BC
100
AcDbEntity
  8
3
100
AcDbCircle
 10
557.8850366183722
 20
479.6021617515485
 30
0.0
 40
21.31465869872518
100
AcDbArc
 50
241.1702114046916
 51
277.2359085385915
  0
ARC
  5
403
330
1BC
100
AcDbEntity
  8
3
100
AcDbCircle
 10
506.5149624652148
 20
440.7136082569385
 30
0.0
 40
20.43612351151705
100
AcDbArc
 50
337.0926172937198
 51
13.33453485594856
  0
LINE
  5
404
330
1BC
100
AcDbEntity
  8
3
100
AcDbLine
 10
394.3405493834077
 20
625.7454898404581
 30
0.0
 11
266.1430707684346
 21
665.3807491030159
 31
0.0
  0
LINE
  5
405
330
1BC
100
AcDbEntity
  8
3
100
AcDbLine
 10
385.0788166952852
 20
597.2408076205057
 30
0.0
 11
257.8499278094464
 21
640.4952170390384
 31
0.0
  0
ARC
  5
406
330
1BC
100
AcDbEntity
  8
3
100
AcDbCircle
 10
431.9675718579536
 20
597.7627283320962
 30
0.0
 40
189.5904238069616
100
AcDbArc
 50
96.08745853520282
 51
155.6989234079137
  0
ARC
  5
407
330
1BC
100
AcDbEntity
  8
3
100
AcDbCircle
 10
255.2886523701561
 20
630.2002154462683
 30
0.0
 40
10.60882602699509
100
AcDbArc
 50
76.02911924254326
 51
148.8553503390923
  0
ARC
  5
408
330
1BC
100
AcDbEntity
  8
3
100
AcDbCircle
 10
271.3230056777585
 20
676.384590404489
 30
0.0
 40
12.16208243076984
100
AcDbArc
 50
182.8250867470265
 51
244.791814691757
  0
LINE
  5
40A
330
1BC
100
AcDbEntity
  8
3
100
AcDbLine
 10
446.9415460731441
 20
642.1951428542031
 30
0.0
 11
445.1318710472242
 21
776.5635135287697
 31
0.0
  0
LINE
  5
40B
330
1BC
100
AcDbEntity
  8
3
100
AcDbLine
 10
416.9935976427634
 20
642.1951428542031
 30
0.0
 11
418.749368568592
 21
776.4632265173461
 31
0.0
  0
ARC
  5
40C
330
1BC
100
AcDbEntity
  8
3
100
AcDbCircle
 10
431.9675718579536
 20
597.7627283320962
 30
0.0
 40
189.5904238069616
100
AcDbArc
 50
24.46504151307862
 51
83.98839354767799
  0
ARC
  5
40E
330
1BC
100
AcDbEntity
  8
3
100
AcDbCircle
 10
431.9675718579536
 20
597.7627283320962
 30
0.0
 40
42.5
100
AcDbArc
 50
41.06189920591851
 51
65.13561398629487
  0
CIRCLE
  5
40F
330
1BC
100
AcDbEntity
  8
3
100
AcDbCircle
 10
431.9675718579536
 20
597.7627283320962
 30
0.0
 40
37.40801481270256
  0
ARC
  5
410
330
1BC
100
AcDbEntity
  8
3
100
AcDbCircle
 10
431.9675718579536
 20
597.7627283320962
 30
0.0
 40
42.5
100
AcDbArc
 50
185.0618992059176
 51
209.1356139862954
  0
ARC
  5
411
330
1BC
100
AcDbEntity
  8
3
100
AcDbCircle
 10
432.7105078845144
 20
537.8178925588742
 30
0.0
 40
21.17475925361379
100
AcDbArc
 50
118.9779915732597
 51
134.1364413683606
  0
ARC
  5
412
330
1BC
100
AcDbEntity
  8
3
100
AcDbCircle
 10
374.3990023491771
 20
577.2970284639945
 30
0.0
 40
20.44736082635672
100
AcDbArc
 50
340.9538606942096
 51
359.3649377283766
  0
ARC
  5
413
330
1BC
100
AcDbEntity
  8
3
100
AcDbCircle
 10
433.6419427579851
 20
536.6875161059631
 30
0.0
 40
20.44736082635672
100
AcDbArc
 50
52.95386069420781
 51
71.364937728379
  0
ARC
  5
414
330
1BC
100
AcDbEntity
  8
3
100
AcDbCircle
 10
431.9675718579536
 20
597.7627283320962
 30
0.0
 40
42.5
100
AcDbArc
 50
257.0618992059187
 51
281.1356139862944
  0
ARC
  5
415
330
1BC
100
AcDbEntity
  8
3
100
AcDbCircle
 10
375.1862250355288
 20
578.5321812039041
 30
0.0
 40
21.17475925361379
100
AcDbArc
 50
46.97799157325978
 51
62.13644136836186
  0
ARC
  5
416
330
1BC
100
AcDbEntity
  8
3
100
AcDbCircle
 10
394.7138683177873
 20
646.1894424361883
 30
0.0
 40
20.44736082635672
100
AcDbArc
 50
268.9538606942085
 51
287.3649377283797
  0
ARC
  5
417
330
1BC
100
AcDbEntity
  8
3
100
AcDbCircle
 10
431.9675718579536
 20
597.7627283320962
 30
0.0
 40
42.5
100
AcDbArc
 50
113.0618992059182
 51
137.135613986293
  0
ARC
  5
418
330
1BC
100
AcDbEntity
  8
3
100
AcDbCircle
 10
396.1318335681383
 20
645.8224323578388
 30
0.0
 40
21.17475925361379
100
AcDbArc
 50
334.9779915732606
 51
350.1364413683631
  0
ARC
  5
419
330
1BC
100
AcDbEntity
  8
3
100
AcDbCircle
 10
466.5120863720952
 20
648.1577834800007
 30
0.0
 40
20.44736082635672
100
AcDbArc
 50
196.9538606942075
 51
215.3649377283791
  0
LINE
  5
41A
330
1BC
100
AcDbEntity
  8
3
100
AcDbLine
 10
469.5980967181049
 20
625.734195272732
 30
0.0
 11
597.7412566937564
 21
665.5327482912837
 31
0.0
  0
LINE
  5
41B
330
1BC
100
AcDbEntity
  8
3
100
AcDbLine
 10
478.8525217297571
 20
597.2520037683469
 30
0.0
 11
606.0852159064609
 21
640.4952170390381
 31
0.0
  0
ARC
  5
41C
330
1BC
100
AcDbEntity
  8
3
100
AcDbCircle
 10
431.9675718579536
 20
597.7627283320962
 30
0.0
 40
42.5
100
AcDbArc
 50
329.0618992059174
 51
353.135613986292
  0
ARC
  5
41D
330
1BC
100
AcDbEntity
  8
3
100
AcDbCircle
 10
489.2080783962599
 20
579.9453295024063
 30
0.0
 40
21.17475925361379
100
AcDbArc
 50
190.9779915732605
 51
206.136441368362
  0
ARC
  5
41E
330
1BC
100
AcDbEntity
  8
3
100
AcDbCircle
 10
490.5709594927235
 20
580.4818711743344
 30
0.0
 40
20.44736082635672
100
AcDbArc
 50
124.9538606942092
 51
143.3649377283786
  0
ARC
  5
41F
330
1BC
100
AcDbEntity
  8
3
100
AcDbCircle
 10
466.6012144053267
 20
646.6958060374572
 30
0.0
 40
21.17475925361379
100
AcDbArc
 50
262.9779915732588
 51
278.1364413683619
  0
ARC
  5
420
330
1BC
100
AcDbEntity
  8
3
100
AcDbCircle
 10
607.543083225447
 20
620.0763645886975
 30
0.0
 40
20.47083077231053
100
AcDbArc
 50
61.81133228123901
 51
94.08387989349405
  0
ARC
  5
421
330
1BC
100
AcDbEntity
  8
3
100
AcDbCircle
 10
586.1617780783025
 20
680.3745240316845
 30
0.0
 40
18.82452209576938
100
AcDbArc
 50
307.9611752126889
 51
347.4350469448863
  0
LINE
  5
422
330
1BC
100
AcDbEntity
  8
1
100
AcDbLine
 10
463.1615417077171
 20
797.7627283320962
 30
0.0
 11
400.7736020081845
 21
797.7627283320962
 31
0.0
  0
ARC
  5
424
330
1BC
100
AcDbEntity
  8
3
100
AcDbCircle
 10
431.8185880227106
 20
798.0510101365009
 30
0.0
 40
20.2888297331486
100
AcDbArc
 50
180.7922762239635
 51
359.2077237760331
  0
ARC
  5
425
330
1BC
100
AcDbEntity
  8
3
100
AcDbCircle
 10
405.035379382723
 20
774.1712211817014
 30
0.0
 40
13.90420036711041
100
AcDbArc
 50
9.48809423404691
 51
60.59440468623872
  0
ARC
  5
426
330
1BC
100
AcDbEntity
  8
3
100
AcDbCircle
 10
405.5963697900923
 20
796.7779234720604
 30
0.0
 40
6.017745952731899
100
AcDbArc
 50
9.493537804123949
 51
83.20826180467889
  0
CIRCLE
  5
427
330
1BC
100
AcDbEntity
  8
3
100
AcDbCircle
 10
431.9675718579538
 20
797.7627283320962
 30
0.0
 40
11.05
  0
CIRCLE
  5
428
330
1BC
100
AcDbEntity
  8
3
100
AcDbCircle
 10
431.9675718579538
 20
797.7627283320962
 30
0.0
 40
8.0
  0
CIRCLE
  5
429
330
1BC
100
AcDbEntity
  8
0
100
AcDbCircle
 10
431.9675718579538
 20
797.7627283320962
 30
0.0
 40
7.2
  0
ARC
  5
42A
330
1BC
100
AcDbEntity
  8
3
100
AcDbCircle
 10
456.7438006827083
 20
775.657595917012
 30
0.0
 40
11.73438886027214
100
AcDbArc
 50
114.7915268009484
 51
177.7304453740282
  0
ARC
  5
42B
330
1BC
100
AcDbEntity
  8
3
100
AcDbCircle
 10
462.97695232206
 20
792.9986550857238
 30
0.0
 40
11.87262213869711
100
AcDbArc
 50
123.4897193685286
 51
156.3019001751808
  0
LINE
  5
42C
330
1BC
100
AcDbEntity
  8
3
100
AcDbLine
 10
938.2540705536364
 20
483.1921087892792
 30
0.0
 11
961.7528276113933
 21
552.6816305657591
 31
0.0
  0
LINE
  5
42D
330
1BC
100
AcDbEntity
  8
1
100
AcDbLine
 10
918.9675718579536
 20
597.9697387413109
 30
0.0
 11
918.9675718579536
 21
361.4697387413109
 31
0.0
  0
LINE
  5
42E
330
1BC
100
AcDbEntity
  8
3
100
AcDbLine
 10
937.9675718579536
 20
803.3935223902073
 30
0.0
 11
937.9675718579536
 21
391.9697387413108
 31
0.0
  0
LINE
  5
42F
330
1BC
100
AcDbEntity
  8
3
100
AcDbLine
 10
899.9675718579537
 20
391.9697387413108
 30
0.0
 11
899.9675718579537
 21
803.3935223902073
 31
0.0
  0
ARC
  5
430
330
1BC
100
AcDbEntity
  8
3
100
AcDbCircle
 10
918.9675718579534
 20
391.9697387413109
 30
0.0
 40
18.99999999999988
100
AcDbArc
 50
180.0
 51
0.0
  0
LINE
  5
436
330
1BC
100
AcDbEntity
  8
3
100
AcDbLine
 10
989.9675718579537
 20
634.8935223902074
 30
0.0
 11
969.9675718579536
 21
634.8935223902074
 31
0.0
  0
LINE
  5
437
330
1BC
100
AcDbEntity
  8
1
100
AcDbLine
 10
1006.967570774022
 20
597.7627283320962
 30
0.0
 11
879.9675707740224
 21
597.7627283320962
 31
0.0
  0
LINE
  5
438
330
1BC
100
AcDbEntity
  8
3
100
AcDbLine
 10
969.9675718579536
 20
560.4697387413109
 30
0.0
 11
989.9675718579537
 21
560.4697387413109
 31
0.0
  0
LINE
  5
439
330
1BC
100
AcDbEntity
  8
1
100
AcDbLine
 10
918.9675718579536
 20
597.3935223902074
 30
0.0
 11
918.9675718579536
 21
833.8935223902074
 31
0.0
  0
LINE
  5
43A
330
1BC
100
AcDbEntity
  8
3
100
AcDbLine
 10
938.2716567202486
 20
654.6673190899582
 30
0.0
 11
958.7590742190633
 21
630.2693406267901
 31
0.0
  0
LINE
  5
43B
330
1BC
100
AcDbEntity
  8
3
100
AcDbLine
 10
964.663188536762
 20
640.9619197658392
 30
0.0
 11
937.9717104091893
 21
739.2308659273281
 31
0.0
  0
ARC
  5
43C
330
1BC
100
AcDbEntity
  8
3
100
AcDbCircle
 10
954.8535298232975
 20
588.8508656542687
 30
0.0
 40
8.807780498661641
100
AcDbArc
 50
297.1447532668631
 51
359.3032272154625
  0
LINE
  5
43D
330
1BC
100
AcDbEntity
  8
3
100
AcDbLine
 10
937.960351000563
 20
598.7113915383072
 30
0.0
 11
946.7528276113934
 21
582.1816305657591
 31
0.0
  0
LINE
  5
43E
330
1BC
100
AcDbEntity
  8
3
100
AcDbLine
 10
969.9675718579536
 20
557.4697387413109
 30
0.0
 11
969.9675718579536
 21
634.8935223902074
 31
0.0
  0
LINE
  5
43F
330
1BC
100
AcDbEntity
  8
3
100
AcDbLine
 10
940.9671027968618
 20
560.4353843754149
 30
0.0
 11
940.9675718579537
 21
593.0385048053446
 31
0.0
  0
ARC
  5
440
330
1BC
100
AcDbEntity
  8
3
100
AcDbCircle
 10
953.8319785467082
 20
585.0278084036107
 30
0.0
 40
31.93437920201492
100
AcDbArc
 50
285.411917639023
 51
300.3495049304969
  0
LINE
  5
441
330
1BC
100
AcDbEntity
  8
3
100
AcDbLine
 10
937.9722896424901
 20
546.321549674669
 30
0.0
 11
948.2324904511635
 21
576.4234615549967
 31
0.0
  0
ARC
  5
442
330
1BC
100
AcDbEntity
  8
3
100
AcDbCircle
 10
954.6853531701467
 20
569.3428012400431
 30
0.0
 40
9.579936730782698
100
AcDbArc
 50
29.24549401135723
 51
132.344048206296
  0
ARC
  5
443
330
1BC
100
AcDbEntity
  8
3
100
AcDbCircle
 10
953.6263329238
 20
590.0395883006215
 30
0.0
 40
10.43995091188486
100
AcDbArc
 50
228.8231931810042
 51
300.1628980821623
  0
LINE
  5
444
330
1BC
100
AcDbEntity
  8
3
100
AcDbLine
 10
942.029272476544
 20
559.4368154033296
 30
0.0
 11
940.9671027968618
 21
560.4353843754149
 31
0.0
  0
ARC
  5
445
330
1BC
100
AcDbEntity
  8
3
100
AcDbCircle
 10
932.0807191609972
 20
565.2293211879181
 30
0.0
 40
32.17241969174875
100
AcDbArc
 50
340.0304701852222
 51
15.75692121194841
  0
ARC
  5
446
330
1BC
100
AcDbEntity
  8
3
100
AcDbCircle
 10
825.6942500275714
 20
605.9112515858953
 30
0.0
 40
139.0304027343179
100
AcDbArc
 50
352.90700536313
 51
4.611480509816916
  0
ARC
  5
447
330
1BC
100
AcDbEntity
  8
3
100
AcDbCircle
 10
958.7675865888957
 20
637.2409653664004
 30
0.0
 40
6.971629936419891
100
AcDbArc
 50
269.9300417562764
 51
32.25769145000008
  0
ARC
  5
448
330
1BC
100
AcDbEntity
  8
3
100
AcDbCircle
 10
924.9166373681919
 20
608.3632094771858
 30
0.0
 40
40.31363434309636
100
AcDbArc
 50
12.50062793073697
 51
32.91488880442971
  0
ARC
  5
449
330
1BC
100
AcDbEntity
  8
3
100
AcDbCircle
 10
963.8663625821939
 20
631.2915637021634
 30
0.0
 40
8.895269231547343
100
AcDbArc
 50
46.98655929853472
 51
84.28820217691047
  0
LINE
  5
44A
330
1BC
100
AcDbEntity
  8
3
100
AcDbLine
 10
969.9675718579536
 20
634.8935223902074
 30
0.0
 11
969.9675718579536
 21
637.8935223902074
 31
0.0
  0
LINE
  5
44B
330
1BC
100
AcDbEntity
  8
3
100
AcDbLine
 10
942.2635027897346
 20
650.0219029018801
 30
0.0
 11
938.2528276113934
 21
666.6816305657591
 31
0.0
  0
LINE
  5
44D
330
1BC
100
AcDbEntity
  8
1
100
AcDbLine
 10
886.9675691760766
 20
797.7627283320962
 30
0.0
 11
944.9675691760766
 21
797.7627283320962
 31
0.0
  0
LINE
  5
44F
330
1BC
100
AcDbEntity
  8
0
100
AcDbLine
 10
937.8192790274626
 20
789.7627283320962
 30
0.0
 11
901.9675718579536
 21
789.7627283320962
 31
0.0
  0
LINE
  5
450
330
1BC
100
AcDbEntity
  8
3
100
AcDbLine
 10
901.9675718579536
 20
790.5627283320962
 30
0.0
 11
937.9026607859714
 21
790.5627283320962
 31
0.0
  0
LINE
  5
451
330
1BC
100
AcDbEntity
  8
0
100
AcDbLine
 10
937.8192790274626
 20
805.7627283320963
 30
0.0
 11
901.9675718579536
 21
805.7627283320963
 31
0.0
  0
LINE
  5
452
330
1BC
100
AcDbEntity
  8
3
100
AcDbLine
 10
901.9675718579536
 20
804.9627283320962
 30
0.0
 11
937.9026607859714
 21
804.9627283320962
 31
0.0
  0
ARC
  5
453
330
1BC
100
AcDbEntity
  8
3
100
AcDbCircle
 10
918.9675718579536
 20
803.3935223902073
 30
0.0
 40
19.0
100
AcDbArc
 50
0.0
 51
163.4279188913458
  0
LINE
  5
454
330
1BC
100
AcDbEntity
  8
3
100
AcDbLine
 10
899.9675718579537
 20
804.9858420125326
 30
0.0
 11
899.9675718579537
 21
786.712728332096
 31
0.0
  0
LINE
  5
455
330
1BC
100
AcDbEntity
  8
3
100
AcDbLine
 10
901.9675718579536
 20
797.7627283320962
 30
0.0
 11
901.9675718579536
 21
804.9627283320962
 31
0.0
  0
LINE
  5
456
330
1BC
100
AcDbEntity
  8
3
100
AcDbLine
 10
901.9675718579536
 20
797.7627283320962
 30
0.0
 11
901.9675718579536
 21
808.8127283320961
 31
0.0
  0
LINE
  5
457
330
1BC
100
AcDbEntity
  8
3
100
AcDbLine
 10
901.9675718579536
 20
786.712728332096
 30
0.0
 11
901.9675718579536
 21
797.762728332096
 31
0.0
  0
LINE
  5
458
330
1BC
100
AcDbEntity
  8
3
100
AcDbLine
 10
899.9675718579537
 20
786.712728332096
 30
0.0
 11
901.9675718579536
 21
786.712728332096
 31
0.0
  0
LINE
  5
459
330
1BC
100
AcDbEntity
  8
3
100
AcDbLine
 10
899.9675718579537
 20
797.7627283320962
 30
0.0
 11
901.9675718579536
 21
797.7627283320962
 31
0.0
  0
ARC
  5
45A
330
1BC
100
AcDbEntity
  8
3
100
AcDbCircle
 10
952.6789920858821
 20
796.2164032594539
 30
0.0
 40
53.42828298691343
100
AcDbArc
 50
166.3634929652497
 51
170.6037012179206
  0
LINE
  5
45B
330
1BC
100
AcDbEntity
  8
3
100
AcDbLine
 10
901.9675718579536
 20
808.8127283320961
 30
0.0
 11
900.7568001291279
 21
808.8127283320961
 31
0.0
  0
LINE
  5
45D
330
1BC
100
AcDbEntity
  8
3
100
AcDbLine
 10
994.9675718579536
 20
629.8935223902073
 30
0.0
 11
994.9675718579536
 21
565.4697387413109
 31
0.0
  0
ARC
  5
45F
330
1BC
100
AcDbEntity
  8
3
100
AcDbCircle
 10
990.0382114901242
 20
565.3990991091401
 30
0.0
 40
4.929866488411109
100
AcDbArc
 50
269.1789856153393
 51
0.8210143846638954
  0
ARC
  5
460
330
1BC
100
AcDbEntity
  8
3
100
AcDbCircle
 10
990.2676053054962
 20
630.19355583775
 30
0.0
 40
4.709533486860672
100
AcDbArc
 50
356.3473452053222
 51
93.65265479467618
  0
ENDSEC
  0
SECTION
  2
OBJECTS
  0
DICTIONARY
  5
1B1
330
0
100
AcDbDictionary
281
     1
  3
ACAD_GROUP
350
1B2
  3
ACAD_LAYOUT
350
1E4
  3
ACAD_MLINESTYLE
350
1BF
  3
ACAD_PLOTSETTINGS
350
1E5
  3
ACAD_PLOTSTYLENAME
350
1E2
  3
ACDBVARIABLEDICTIONARY
350
1D5
  3
AcmDictionary
350
2A2
  3
AMG
350
1E9
  3
AMGSNAPSETTINGS
350
2BF
  3
DWGPROPS
350
2C7
  3
MAPISURF_MODULE
350
275
  0
DICTIONARY
  5
5D6
330
1BC
100
AcDbDictionary
280
     1
281
     1
  3
ACAD_INDEX
360
5D7
  0
DICTIONARY
  5
1B2
102
{ACAD_REACTORS
330
1B1
102
}
330
1B1
100
AcDbDictionary
281
     1
  0
DICTIONARY
  5
1E4
102
{ACAD_REACTORS
330
1B1
102
}
330
1B1
100
AcDbDictionary
281
     1
  3
Model
350
1E6
  3
ﾚｲｱｳﾄ1
350
1E7
  0
DICTIONARY
  5
1BF
102
{ACAD_REACTORS
330
1B1
102
}
330
1B1
100
AcDbDictionary
281
     1
  3
STANDARD
350
1C0
  0
DICTIONARY
  5
1E5
102
{ACAD_REACTORS
330
1B1
102
}
330
1B1
100
AcDbDictionary
281
     1
  0
ACDBDICTIONARYWDFLT
  5
1E2
102
{ACAD_REACTORS
330
1B1
102
}
330
1B1
100
AcDbDictionary
281
     1
  3
Normal
350
1E3
100
AcDbDictionaryWithDefault
340
1E3
  0
DICTIONARY
  5
1D5
102
{ACAD_REACTORS
330
1B1
102
}
330
1B1
100
AcDbDictionary
281
     1
  3
DIMADEC
350
1D6
  3
DIMASSOC
350
5E2
  3
INDEXCTL
350
5E1
  0
DICTIONARY
  5
2A2
102
{ACAD_REACTORS
330
1B1
102
}
330
1B1
100
AcDbDictionary
281
     1
  3
AcmBOMDATA
350
2A3
  3
AcmStdDictionary
350
3DE
  0
DICTIONARY
  5
1E9
102
{ACAD_REACTORS
330
1B1
102
}
330
1B1
100
AcDbDictionary
281
     1
  3
AcMgSettings
350
1EA
  3
AMGLAYCFG
350
2AF
  0
DICTIONARY
  5
2BF
102
{ACAD_REACTORS
330
1B1
102
}
330
1B1
100
AcDbDictionary
281
     1
  3
DIMENSION
350
2C4
  3
FEA
350
2C3
  3
HATCH (1)
350
2C0
  3
HATCH (2)
350
2C1
  3
SIMPLE WELD
350
2C5
  3
SYMBOLS
350
2C2
  0
XRECORD
  5
2C7
102
{ACAD_REACTORS
330
1B1
102
}
330
1B1
100
AcDbXrecord
280
     1
  1
DWGPROPS COOKIE
  2

  3

  4

  6

  7

  8

  9

300
AmdtFileType=84
301
=
302
=
303
=
304
=
305
=
306
=
307
=
308
=
309
=
 40
0.0017400810185185
 41
2450863.97975
 42
2453551.653674398
  1

 90
        1
  0
DICTIONARY
  5
5D7
102
{ACAD_REACTORS
330
5D6
102
}
330
5D6
100
AcDbDictionary
281
     1
  3
*A1
350
5D8
  0
LAYOUT
  5
1E6
102
{ACAD_REACTORS
330
1E4
102
}
330
1E4
100
AcDbPlotSettings
  1

  2
\\KONISHIDENXP\SHARP MX-2700FG
  4

  6

 40
0.0
 41
0.0
 42
0.0
 43
0.0
 44
0.0
 45
0.0
 46
0.0
 47
0.0
 48
0.0
 49
0.0
140
0.0
141
0.0
142
1.0
143
1.0
 70
  1712
 72
     0
 73
     0
 74
     0
  7

 75
     0
147
1.0
148
0.0
149
0.0
100
AcDbLayout
  1
Model
 70
     1
 71
     0
 10
0.0
 20
0.0
 11
12.0
 21
9.0
 12
0.0
 22
0.0
 32
0.0
 14
0.0
 24
0.0
 34
0.0
 15
0.0
 25
0.0
 35
0.0
146
0.0
 13
0.0
 23
0.0
 33
0.0
 16
1.0
 26
0.0
 36
0.0
 17
0.0
 27
1.0
 37
0.0
 76
     0
330
1BC
  0
LAYOUT
  5
1E7
102
{ACAD_REACTORS
330
1E4
102
}
330
1E4
100
AcDbPlotSettings
  1

  2
\\KONISHIDENXP\SHARP MX-2700FG
  4

  6

 40
0.0
 41
0.0
 42
0.0
 43
0.0
 44
0.0
 45
0.0
 46
0.0
 47
0.0
 48
0.0
 49
0.0
140
0.0
141
0.0
142
1.0
143
1.0
 70
   688
 72
     0
 73
     0
 74
     5
  7

 75
    16
147
1.0
148
0.0
149
0.0
100
AcDbLayout
  1
ﾚｲｱｳﾄ1
 70
     0
 71
     1
 10
0.0
 20
0.0
 11
12.0
 21
9.0
 12
0.0
 22
0.0
 32
0.0
 14
1.000000000000000E+20
 24
1.000000000000000E+20
 34
1.000000000000000E+20
 15
-1.000000000000000E+20
 25
-1.000000000000000E+20
 35
-1.000000000000000E+20
146
0.0
 13
0.0
 23
0.0
 33
0.0
 16
1.0
 26
0.0
 36
0.0
 17
0.0
 27
1.0
 37
0.0
 76
     0
330
1B9
  0
MLINESTYLE
  5
1C0
102
{ACAD_REACTORS
330
1BF
102
}
330
1BF
100
AcDbMlineStyle
  2
STANDARD
 70
     0
  3

 62
   256
 51
90.0
 52
90.0
 71
     2
 49
0.5
 62
   256
  6
BYLAYER
 49
-0.5
 62
   256
  6
BYLAYER
  0
ACDBPLACEHOLDER
  5
1E3
102
{ACAD_REACTORS
330
1E2
102
}
330
1E2
  0
DICTIONARYVAR
  5
1D6
102
{ACAD_REACTORS
330
1D5
102
}
330
1D5
100
DictionaryVariables
280
     0
  1
0
  0
DICTIONARYVAR
  5
5E2
102
{ACAD_REACTORS
330
1D5
102
}
330
1D5
100
DictionaryVariables
280
     0
  1
0
  0
DICTIONARYVAR
  5
5E1
102
{ACAD_REACTORS
330
1D5
102
}
330
1D5
100
DictionaryVariables
280
     0
  1
1
  0
ACMDATADICTIONARY
  5
2A3
102
{ACAD_REACTORS
330
2A2
102
}
330
2A2
100
AcDbDictionary
281
     1
  3
*A1
350
2A4
100
AcmDataDictionary
  0
DICTIONARY
  5
3DE
102
{ACAD_REACTORS
330
2A2
102
}
330
2A2
100
AcDbDictionary
281
     1
  3
ANSI
350
3DF
  0
DICTIONARY
  5
1EA
102
{ACAD_REACTORS
330
1E9
102
}
330
1E9
100
AcDbDictionary
281
     1
  3
DWGSETTINGS
350
1EB
  0
ACAMGFILTERDAT
  5
2C4
102
{ACAD_REACTORS
330
2BF
102
}
330
2BF
100
AcAmgFilterDat
 70
    15
  1
DIMENSION,AMDT_*_DIM
  2
*
  3
*
  4
*
  5
*
290
     1
  0
ACAMGFILTERDAT
  5
2C3
102
{ACAD_REACTORS
330
2BF
102
}
330
2BF
100
AcAmgFilterDat
 70
    15
  1
*
  2
AM_FEA-AM_*
  3
*
  4
*
  5
*
290
     1
  0
ACAMGFILTERDAT
  5
2C0
102
{ACAD_REACTORS
330
2BF
102
}
330
2BF
100
AcAmgFilterDat
 70
    15
  1
HATCH
  2
*
  3
*
  4
*
  5
*
290
     1
  0
ACAMGFILTERDAT
  5
2C1
102
{ACAD_REACTORS
330
2BF
102
}
330
2BF
100
AcAmgFilterDat
 70
    15
  1
LINE
  2
8,8N,*-8,*-8N,AM_8,AM_8N,*-AM_8,*-AM_8N
  3
*
  4
*
  5
INSERT,STDPART2D
290
     1
  0
ACAMGFILTERDAT
  5
2C5
102
{ACAD_REACTORS
330
2BF
102
}
330
2BF
100
AcAmgFilterDat
 70
    15
  1
ARC
  2
AM_5
  3
*
  4
2
  5
INSERT
290
     0
  0
ACAMGFILTERDAT
  5
2C2
102
{ACAD_REACTORS
330
2BF
102
}
330
2BF
100
AcAmgFilterDat
 70
    15
  1
ACMFCFRAME,ACMDATUMTARGET,ACMDATUMID,ACMWELDSYM,ACMSURFSYM,ACMFEATID,ACMPARTREF,ACMBALLOON,AMDTEDGESYM,AMGSCREWCALCTABLE
  2
*
  3
*
  4
*
  5
*
290
     1
  0
LAYER_INDEX
  5
5D8
102
{ACAD_REACTORS
330
5D7
102
}
330
5D7
100
AcDbIndex
 40
2456448.469584953
100
AcDbLayerIndex
  8
0
360
5D9
 90
        3
  8
1
360
5DA
 90
        7
  8
4
360
5DB
 90
        1
  8
10
360
5DC
 90
        0
  8
11
360
5DD
 90
        0
  8
2
360
5DE
 90
        0
  8
3
360
5DF
 90
       86
  8
DEFPOINTS
360
5E0
 90
        0
  0
ACMDATAENTRYBLOCK
  5
2A4
102
{ACAD_REACTORS
330
2A3
102
}
330
2A3
100
AcmDataEntry
100
AcmDataEntryBlock
  0
IDBUFFER
  5
5D9
330
0
100
AcDbIdBuffer
330
429
330
44F
330
451
  0
IDBUFFER
  5
5DA
330
0
100
AcDbIdBuffer
330
3F6
330
3FA
330
422
330
42D
330
437
330
439
330
44D
  0
IDBUFFER
  5
5DB
330
0
100
AcDbIdBuffer
330
5D
  0
IDBUFFER
  5
5DC
330
0
100
AcDbIdBuffer
  0
IDBUFFER
  5
5DD
330
0
100
AcDbIdBuffer
  0
IDBUFFER
  5
5DE
330
0
100
AcDbIdBuffer
  0
IDBUFFER
  5
5DF
330
0
100
AcDbIdBuffer
330
42C
330
42E
330
42F
330
430
330
436
330
438
330
43A
330
43B
330
43C
330
43D
330
43E
330
43F
330
440
330
441
330
442
330
443
330
444
330
445
330
446
330
447
330
448
330
449
330
44A
330
44B
330
450
330
452
330
453
330
454
330
455
330
456
330
457
330
458
330
459
330
45A
330
45B
330
45D
330
45F
330
460
330
3F5
330
3F7
330
3F8
330
3F9
330
3FB
330
3FC
330
3FD
330
3FE
330
3FF
330
400
330
401
330
402
330
403
330
404
330
405
330
406
330
407
330
408
330
40A
330
40B
330
40C
330
40E
330
40F
330
410
330
411
330
412
330
413
330
414
330
415
330
416
330
417
330
418
330
419
330
41A
330
41B
330
41C
330
41D
330
41E
330
41F
330
420
330
421
330
424
330
425
330
426
330
427
330
428
330
42A
330
42B
  0
IDBUFFER
  5
5E0
330
0
100
AcDbIdBuffer
  0
ENDSEC
  0
EOF
