  0
SECTION
  2
HEADER
  9
$ACADVER
  1
AC1015
  9
$ACADMAINTVER
 70
    13
  9
$DWGCODEPAGE
  3
ANSI_932
  9
$INSBASE
 10
0.0
 20
0.0
 30
0.0
  9
$EXTMIN
 10
130.0
 20
350.0
 30
0.0
  9
$EXTMAX
 10
1190.880952380952
 20
984.0727627089549
 30
0.0
  9
$LIMMIN
 10
0.0
 20
0.0
  9
$LIMMAX
 10
1600.0
 20
1200.0
  9
$ORTHOMODE
 70
     1
  9
$REGENMODE
 70
     1
  9
$FILLMODE
 70
     1
  9
$QTEXTMODE
 70
     0
  9
$MIRRTEXT
 70
     1
  9
$LTSCALE
 40
100.0
  9
$ATTMODE
 70
     1
  9
$TEXTSIZE
 40
0.2
  9
$TRACEWID
 40
0.05
  9
$TEXTSTYLE
  7
STANDARD
  9
$CLAYER
  8
0
  9
$CELTYPE
  6
BYLAYER
  9
$CECOLOR
 62
   256
  9
$CELTSCALE
 40
1.0
  9
$DISPSILH
 70
     0
  9
$DIMSCALE
 40
10.0
  9
$DIMASZ
 40
3.0
  9
$DIMEXO
 40
2.0
  9
$DIMDLI
 40
0.38
  9
$DIMRND
 40
0.0
  9
$DIMDLE
 40
0.0
  9
$DIMEXE
 40
2.0
  9
$DIMTP
 40
0.0
  9
$DIMTM
 40
0.0
  9
$DIMTXT
 40
3.2
  9
$DIMCEN
 40
0.09
  9
$DIMTSZ
 40
0.0
  9
$DIMTOL
 70
     0
  9
$DIMLIM
 70
     0
  9
$DIMTIH
 70
     0
  9
$DIMTOH
 70
     0
  9
$DIMSE1
 70
     0
  9
$DIMSE2
 70
     0
  9
$DIMTAD
 70
     1
  9
$DIMZIN
 70
     0
  9
$DIMBLK
  1

  9
$DIMASO
 70
     0
  9
$DIMSHO
 70
     0
  9
$DIMPOST
  1

  9
$DIMAPOST
  1

  9
$DIMALT
 70
     0
  9
$DIMALTD
 70
     2
  9
$DIMALTF
 40
25.4
  9
$DIMLFAC
 40
1.0
  9
$DIMTOFL
 70
     0
  9
$DIMTVP
 40
1.6
  9
$DIMTIX
 70
     1
  9
$DIMSOXD
 70
     0
  9
$DIMSAH
 70
     0
  9
$DIMBLK1
  1

  9
$DIMBLK2
  1

  9
$DIMSTYLE
  2
STANDARD
  9
$DIMCLRD
 70
     0
  9
$DIMCLRE
 70
     0
  9
$DIMCLRT
 70
     0
  9
$DIMTFAC
 40
1.0
  9
$DIMGAP
 40
0.09
  9
$DIMJUST
 70
     0
  9
$DIMSD1
 70
     0
  9
$DIMSD2
 70
     0
  9
$DIMTOLJ
 70
     1
  9
$DIMTZIN
 70
     0
  9
$DIMALTZ
 70
     0
  9
$DIMALTTZ
 70
     0
  9
$DIMUPT
 70
     0
  9
$DIMDEC
 70
     4
  9
$DIMTDEC
 70
     4
  9
$DIMALTU
 70
     2
  9
$DIMALTTD
 70
     2
  9
$DIMTXSTY
  7
BIGFONT
  9
$DIMAUNIT
 70
     0
  9
$DIMADEC
 70
     0
  9
$DIMALTRND
 40
0.0
  9
$DIMAZIN
 70
     0
  9
$DIMDSEP
 70
    46
  9
$DIMATFIT
 70
     3
  9
$DIMFRAC
 70
     0
  9
$DIMLDRBLK
  1

  9
$DIMLUNIT
 70
     2
  9
$DIMLWD
 70
    -2
  9
$DIMLWE
 70
    -2
  9
$DIMTMOVE
 70
     0
  9
$LUNITS
 70
     2
  9
$LUPREC
 70
     4
  9
$SKETCHINC
 40
0.1
  9
$FILLETRAD
 40
0.0
  9
$AUNITS
 70
     0
  9
$AUPREC
 70
     0
  9
$MENU
  1
ACAD
  9
$ELEVATION
 40
0.0
  9
$PELEVATION
 40
0.0
  9
$THICKNESS
 40
0.0
  9
$LIMCHECK
 70
     0
  9
$CHAMFERA
 40
0.0
  9
$CHAMFERB
 40
0.0
  9
$CHAMFERC
 40
0.0
  9
$CHAMFERD
 40
0.0
  9
$SKPOLY
 70
     0
  9
$TDCREATE
 40
2450863.981332060
  9
$TDUCREATE
 40
2450863.606332060
  9
$TDUPDATE
 40
2456448.444181308
  9
$TDUUPDATE
 40
2456448.069181307
  9
$TDINDWG
 40
0.0036103819
  9
$TDUSRTIMER
 40
0.0036103819
  9
$USRTIMER
 70
     1
  9
$ANGBASE
 50
0.0
  9
$ANGDIR
 70
     0
  9
$PDMODE
 70
     0
  9
$PDSIZE
 40
0.0
  9
$PLINEWID
 40
0.0
  9
$SPLFRAME
 70
     0
  9
$SPLINETYPE
 70
     6
  9
$SPLINESEGS
 70
     8
  9
$HANDSEED
  5
719
  9
$SURFTAB1
 70
     6
  9
$SURFTAB2
 70
     6
  9
$SURFTYPE
 70
     6
  9
$SURFU
 70
     6
  9
$SURFV
 70
     6
  9
$UCSBASE
  2

  9
$UCSNAME
  2

  9
$UCSORG
 10
0.0
 20
0.0
 30
0.0
  9
$UCSXDIR
 10
1.0
 20
0.0
 30
0.0
  9
$UCSYDIR
 10
0.0
 20
1.0
 30
0.0
  9
$UCSORTHOREF
  2

  9
$UCSORTHOVIEW
 70
     0
  9
$UCSORGTOP
 10
0.0
 20
0.0
 30
0.0
  9
$UCSORGBOTTOM
 10
0.0
 20
0.0
 30
0.0
  9
$UCSORGLEFT
 10
0.0
 20
0.0
 30
0.0
  9
$UCSORGRIGHT
 10
0.0
 20
0.0
 30
0.0
  9
$UCSORGFRONT
 10
0.0
 20
0.0
 30
0.0
  9
$UCSORGBACK
 10
0.0
 20
0.0
 30
0.0
  9
$PUCSBASE
  2

  9
$PUCSNAME
  2

  9
$PUCSORG
 10
0.0
 20
0.0
 30
0.0
  9
$PUCSXDIR
 10
1.0
 20
0.0
 30
0.0
  9
$PUCSYDIR
 10
0.0
 20
1.0
 30
0.0
  9
$PUCSORTHOREF
  2

  9
$PUCSORTHOVIEW
 70
     0
  9
$PUCSORGTOP
 10
0.0
 20
0.0
 30
0.0
  9
$PUCSORGBOTTOM
 10
0.0
 20
0.0
 30
0.0
  9
$PUCSORGLEFT
 10
0.0
 20
0.0
 30
0.0
  9
$PUCSORGRIGHT
 10
0.0
 20
0.0
 30
0.0
  9
$PUCSORGFRONT
 10
0.0
 20
0.0
 30
0.0
  9
$PUCSORGBACK
 10
0.0
 20
0.0
 30
0.0
  9
$USERI1
 70
     0
  9
$USERI2
 70
     0
  9
$USERI3
 70
     0
  9
$USERI4
 70
     0
  9
$USERI5
 70
     0
  9
$USERR1
 40
0.0
  9
$USERR2
 40
0.0
  9
$USERR3
 40
0.0
  9
$USERR4
 40
0.0
  9
$USERR5
 40
0.0
  9
$WORLDVIEW
 70
     1
  9
$SHADEDGE
 70
     3
  9
$SHADEDIF
 70
    70
  9
$TILEMODE
 70
     1
  9
$MAXACTVP
 70
    16
  9
$PINSBASE
 10
0.0
 20
0.0
 30
0.0
  9
$PLIMCHECK
 70
     0
  9
$PEXTMIN
 10
1.000000000000000E+20
 20
1.000000000000000E+20
 30
1.000000000000000E+20
  9
$PEXTMAX
 10
-1.000000000000000E+20
 20
-1.000000000000000E+20
 30
-1.000000000000000E+20
  9
$PLIMMIN
 10
0.0
 20
0.0
  9
$PLIMMAX
 10
12.0
 20
9.0
  9
$UNITMODE
 70
     0
  9
$VISRETAIN
 70
     0
  9
$PLINEGEN
 70
     1
  9
$PSLTSCALE
 70
     0
  9
$TREEDEPTH
 70
  3020
  9
$CMLSTYLE
  2
STANDARD
  9
$CMLJUST
 70
     0
  9
$CMLSCALE
 40
1.0
  9
$PROXYGRAPHICS
 70
     1
  9
$MEASUREMENT
 70
     0
  9
$CELWEIGHT
370
    -1
  9
$ENDCAPS
280
     0
  9
$JOINSTYLE
280
     0
  9
$LWDISPLAY
290
     0
  9
$INSUNITS
 70
     0
  9
$HYPERLINKBASE
  1

  9
$STYLESHEET
  1

  9
$XEDIT
290
     1
  9
$CEPSNTYPE
380
     0
  9
$PSTYLEMODE
290
     1
  9
$FINGERPRINTGUID
  2
{2F53DB22-F70E-4C6F-92A8-358E2C34E786}
  9
$VERSIONGUID
  2
{0A584B45-0E1C-479D-BCA2-B5114AE30A4A}
  9
$EXTNAMES
290
     1
  9
$PSVPSCALE
 40
0.0
  9
$OLESTARTUP
290
     0
  0
ENDSEC
  0
SECTION
  2
CLASSES
  0
CLASS
  1
DICTIONARYVAR
  2
AcDbDictionaryVar
  3
AutoCAD 2000
 90
        0
280
     0
281
     0
  0
CLASS
  1
ACDBDICTIONARYWDFLT
  2
AcDbDictionaryWithDefault
  3
AutoCAD 2000
 90
        0
280
     0
281
     0
  0
CLASS
  1
ACDBPLACEHOLDER
  2
AcDbPlaceHolder
  3
AutoCAD 2000
 90
        0
280
     0
281
     0
  0
CLASS
  1
LAYOUT
  2
AcDbLayout
  3
AutoCAD 2000
 90
        0
280
     0
281
     0
  0
CLASS
  1
AMGSETTINGSOBJ
  2
AmgSettingsObj
  3
"AcadM|Product Description: AutoCAD Mechanical 2000|Company: Autodesk"
 90
        0
280
     0
281
     0
  0
CLASS
  1
ACME_DOCUMENT
  2
AcMeDbDoc
  3
AcMeServices
 90
        0
280
     0
281
     0
  0
CLASS
  1
ACMESCOPE
  2
AcMeScope
  3
AcMeServices
 90
        0
280
     0
281
     0
  0
CLASS
  1
ACMECOMMANDHISTORY
  2
AcMeCommandHistory
  3
AcMeServices
 90
        0
280
     0
281
     0
  0
CLASS
  1
ACIMSYSVARMAN
  2
AcImSysVarManager
  3
AcMeServices
 90
        0
280
     0
281
     0
  0
CLASS
  1
ACIMREALSYSVAR
  2
AcImRealSysVar
  3
AcMeServices
 90
        0
280
     0
281
     0
  0
CLASS
  1
ACIMINTSYSVAR
  2
AcImIntSysVar
  3
AcMeServices
 90
        0
280
     0
281
     0
  0
CLASS
  1
ACMEDRAWINGMAN
  2
AcMeDrawingMan
  3
AcMeServices
 90
        0
280
     0
281
     0
  0
CLASS
  1
ACMEVIEW
  2
AcMeView
  3
AcMeServices
 90
        0
280
     0
281
     0
  0
CLASS
  1
ACDBENTITYCACHE
  2
AcMeEntityCache
  3
AcMeServices
 90
        0
280
     0
281
     0
  0
CLASS
  1
GSMANAGER
  2
AcMeGSManager
  3
AcMeServices
 90
        0
280
     0
281
     0
  0
CLASS
  1
AMDTINTERNALREACTOR
  2
AmdtInternalReactor
  3
AcMeServices
 90
        0
280
     0
281
     0
  0
CLASS
  1
ACMESTATEMGR
  2
AcMeStateMgr
  3
AcMeServices
 90
        0
280
     0
281
     0
  0
CLASS
  1
ACGREFMASTER
  2
AcGrefMaster
  3
AcAttribServices
 90
        0
280
     0
281
     0
  0
CLASS
  1
AM_DRAWING_MGR
  2
AcDmDwgMgr
  3
AcMechDwgViewMgmt
 90
        0
280
     0
281
     0
  0
CLASS
  1
AM_DWG_DOCUMENT
  2
AcDmDwgDocument
  3
AcMechDwgViewMgmt
 90
        0
280
     0
281
     0
  0
CLASS
  1
AM_DWG_SHEET
  2
AcDmSheet
  3
AcMechDwgViewMgmt
 90
        0
280
     0
281
     0
  0
CLASS
  1
AM_VIEWDIMPARMAP
  2
AcDmViewDimParMap
  3
AcMechDwgViewMgmt
 90
        0
280
     0
281
     0
  0
CLASS
  1
AM_DWGMGR_NAME
  2
AcDmDwgMgrName
  3
AcMechDwgViewMgmt
 90
        0
280
     0
281
     0
  0
CLASS
  1
ACME_DATABASE
  2
AcMeDbDatabase
  3
AcMeServices
 90
        0
280
     0
281
     0
  0
CLASS
  1
ACRFINSADJUSTERMGR
  2
AcRfInsAdjusterMgr
  3
AcMeServices
 90
        0
280
     0
281
     0
  0
CLASS
  1
ACGREFACADMASTER
  2
AcGrefacadMaster
  3
AcGrefServices
 90
        0
280
     0
281
     0
  0
CLASS
  1
AMDTMENUSTATEMGR
  2
AmdtMenuStateMgr
  3
McadcomServices
 90
        0
280
     0
281
     0
  0
CLASS
  1
AMDTMCOMMENUSTATE
  2
AmdtMcomMenuState
  3
McadcomServices
 90
        0
280
     0
281
     0
  0
CLASS
  1
AMIMASTER
  2
AmiMaster
  3
AmiServices
 90
        0
280
     0
281
     0
  0
CLASS
  1
ASAPP
  2
AcAsAppObject
  3
AutoSurfServices
 90
        0
280
     0
281
     0
  0
CLASS
  1
IM_STATIC_MAN
  2
AcImStaticVarManager
  3
AcMeServices
 90
        0
280
     0
281
     0
  0
CLASS
  1
ACIMSTRSYSVAR
  2
AcImStrSysVar
  3
AcMeServices
 90
        0
280
     0
281
     0
  0
CLASS
  1
ACIMDBLSTATICVAR
  2
AcImDblStaticVar
  3
AcMeServices
 90
        0
280
     0
281
     0
  0
CLASS
  1
ACIMSTRSTATICVAR
  2
AcImStrStaticVar
  3
AcMeServices
 90
        0
280
     0
281
     0
  0
CLASS
  1
ACIMINTSTATICVAR
  2
AcImIntStaticVar
  3
AcMeServices
 90
        0
280
     0
281
     0
  0
CLASS
  1
ACASGREFMASTER
  2
AcAsGrefMaster
  3
AutoSurfResolverServices
 90
        0
280
     0
281
     0
  0
CLASS
  1
ACADGREFMODULE
  2
AcAdGrefModule
  3
AdGrefServices
 90
        0
280
     0
281
     0
  0
CLASS
  1
AMDTMAPISURFMOUDULE
  2
AmdtMApiSurfModule
  3
MApiSurfServices
 90
        0
280
     0
281
     0
  0
CLASS
  1
MAPIAMMOUDLE
  2
MApiAmModule
  3
MApiAmServices
 90
        0
280
     0
281
     0
  0
CLASS
  1
AMDTADMENUSTATE
  2
AmdtAdMenuState
  3
DesignerServices
 90
        0
280
     0
281
     0
  0
CLASS
  1
ADAPPL
  2
AcAdAppl
  3
DesignerServices
 90
        0
280
     0
281
     0
  0
CLASS
  1
DEPMGR
  2
AcAdDepMgr
  3
DesignerServices
 90
        0
280
     0
281
     0
  0
CLASS
  1
PARAMMGR
  2
AcAdParamMgr
  3
DesignerServices
 90
        0
280
     0
281
     0
  0
CLASS
  1
PARAMSCOPE
  2
AcAdParamScope
  3
DesignerServices
 90
        0
280
     0
281
     0
  0
CLASS
  1
NAMEDAPPL
  2
AcAdNamedAppl
  3
DesignerServices
 90
        0
280
     0
281
     0
  0
CLASS
  1
AMDTDMMENUSTATE
  2
AmdtDmMenuState
  3
AcMechDwgViewMgmt
 90
        0
280
     0
281
     0
  0
CLASS
  1
MAPIADMODULE
  2
MApiAdModule
  3
MApiAdServices
 90
        0
280
     0
281
     0
  0
CLASS
  1
AMDTAMMENUSTATE
  2
AmdtAmMenuState
  3
DesignerAssemblies
 90
        0
280
     0
281
     0
  0
CLASS
  1
ACAMPROJECT
  2
AcAmProject
  3
DesignerAssemblies
 90
        0
280
     0
281
     0
  0
CLASS
  1
ACAMGRCOMPDEF
  2
AcAmGrCompDef
  3
DesignerAssemblies
 90
        0
280
     0
281
     0
  0
CLASS
  1
ACCMCONTEXT
  2
AcCmContext
  3
DesignerAssemblies
 90
        0
280
     0
281
     0
  0
CLASS
  1
ACAMCOMPDEF
  2
AcAmCompDef
  3
DesignerAssemblies
 90
        0
280
     0
281
     0
  0
CLASS
  1
ACAMCOMPDEFMGR
  2
AcAmCompDefMgr
  3
DesignerAssemblies
 90
        0
280
     0
281
     0
  0
CLASS
  1
AMCONTEXTMGR
  2
AcAmContextMgr
  3
DesignerAssemblies
 90
        0
280
     0
281
     0
  0
CLASS
  1
ACAMCONTEXTMODELER
  2
AcAmContextModeler
  3
DesignerAssemblies
 90
        0
280
     0
281
     0
  0
CLASS
  1
ACMDATADICTIONARY
  2
AcmDataDictionary
  3
"AcmSymBB|Product Description: AutoCAD Mechanical 2000|Company: Autodesk"
 90
        0
280
     0
281
     0
  0
CLASS
  1
ACMDATAENTRYBLOCK
  2
AcmDataEntryBlock
  3
"AcmSymBB|Product Description: AutoCAD Mechanical 2000|Company: Autodesk"
 90
        0
280
     0
281
     0
  0
CLASS
  1
CATALOGSTATE
  2
AcAmCatalogState
  3
DesignerAssemblies
 90
        0
280
     0
281
     0
  0
CLASS
  1
ACAMGRCOMPDEFSET
  2
AcAmGrCompDefSet
  3
DesignerAssemblies
 90
        0
280
     0
281
     0
  0
CLASS
  1
AMDTBROWSERDBTAB
  2
AmdtBrowserDbTab
  3
McadcomServices
 90
        0
280
     0
281
     0
  0
CLASS
  1
CBROWSERAPPOBJECT
  2
CBrowserAppObject
  3
McadcomServices
 90
        0
280
     0
281
     0
  0
CLASS
  1
DM_PLACEHOLDER
  2
AcDmSelsetPlaceholder
  3
AcMechDwgViewMgmt
 90
        0
280
     0
281
     0
  0
CLASS
  1
AMGOBJPROPCFG
  2
AmgObjPropCfg
  3
"AmgLay|Product Description: AutoCAD Mechanical 2000|Company: Autodesk"
 90
        1
280
     0
281
     0
  0
CLASS
  1
ACAMGFILTERDAT
  2
AcAmgFilterDat
  3
"AcadM|Product Description: AutoCAD Mechanical 2000|Company: Autodesk"
 90
        0
280
     0
281
     0
  0
CLASS
  1
ACMSTANDARDANSI
  2
AcmStandardANSI
  3
"Amdt_StdImp|Product Description: AutoCAD Mechanical 2000|Company: Autodesk"
 90
        0
280
     0
281
     0
  0
CLASS
  1
ACMSURFSTANDARDANSI
  2
AcmSurfTextStdANSI
  3
"Amdt_StdImp|Product Description: AutoCAD Mechanical 2000|Company: Autodesk"
 90
        0
280
     0
281
     0
  0
CLASS
  1
ACMFCFSTANDARDANSI
  2
AcmFCFStdANSI
  3
"Amdt_StdImp|Product Description: AutoCAD Mechanical 2000|Company: Autodesk"
 90
        0
280
     0
281
     0
  0
CLASS
  1
ACMWELDSTANDARDANSI
  2
AcmWeldingStdANSI
  3
"Amdt_StdImp|Product Description: AutoCAD Mechanical 2000|Company: Autodesk"
 90
        0
280
     0
281
     0
  0
CLASS
  1
ACMIDSTANDARDANSI
  2
AcmIdStdANSI
  3
"Amdt_StdImp|Product Description: AutoCAD Mechanical 2000|Company: Autodesk"
 90
        0
280
     0
281
     0
  0
CLASS
  1
ACMDATUMSTANDARDANSI
  2
AcmDatumStdANSI
  3
"Amdt_StdImp|Product Description: AutoCAD Mechanical 2000|Company: Autodesk"
 90
        0
280
     0
281
     0
  0
CLASS
  1
ACMBOMSTANDARDANSI
  2
AcmBOMStdANSI
  3
"Amdt_StdImp|Product Description: AutoCAD Mechanical 2000|Company: Autodesk"
 90
        0
280
     0
281
     0
  0
CLASS
  1
ACMDETAILSTANDARDANSI
  2
AmdtDetailSymStdANSI
  3
"Amdt_StdImp|Product Description: AutoCAD Mechanical 2000|Company: Autodesk"
 90
        0
280
     0
281
     0
  0
CLASS
  1
ACMSECTIONSTANDARDANSI
  2
AmdtSectionSymStdANSI
  3
"Amdt_StdImp|Product Description: AutoCAD Mechanical 2000|Company: Autodesk"
 90
        0
280
     0
281
     0
  0
CLASS
  1
ACMCENTERLINESTANDARDANSI
  2
AmdtCenterLineStdANSI
  3
"Amdt_StdImp|Product Description: AutoCAD Mechanical 2000|Company: Autodesk"
 90
        0
280
     0
281
     0
  0
CLASS
  1
ACMTHREADLINESTANDARDANSI
  2
AmdtThreadLineStdANSI
  3
"Amdt_StdImp|Product Description: AutoCAD Mechanical 2000|Company: Autodesk"
 90
        0
280
     0
281
     0
  0
CLASS
  1
ACMNOTESTANDARDANSI
  2
AmdtNoteStdANSI
  3
"Amdt_StdImp|Product Description: AutoCAD Mechanical 2000|Company: Autodesk"
 90
        0
280
     0
281
     0
  0
CLASS
  1
ACAMGLAYSTD
  2
AcAmgLayStd
  3
"AcAmgLayStd|Product Description: AutoCAD Mechanical 2000|Company: Autodesk"
 90
        0
280
     0
281
     0
  0
CLASS
  1
ACAMGDIMSTD
  2
AcAmgDimStd
  3
"AcAmgDimStd|Product Description: AutoCAD Mechanical 2000|Company: Autodesk"
 90
        0
280
     0
281
     0
  0
CLASS
  1
ACAMGHOLECHARTSTDANSI
  2
AcAmgHoleChartStdANSI
  3
ACMSYMBB_MODULE_NAME
 90
        0
280
     0
281
     0
  0
CLASS
  1
ACAMGTITLESTD
  2
AcAmgTitleStd
  3
"TITLEAPP"
 90
        0
280
     0
281
     0
  0
CLASS
  1
AMDTFORMULAUPDATEDISPATCHER
  2
AmdtFormulaUpdateDispatcher
  3
AcMeServices
 90
        0
280
     0
281
     0
  0
CLASS
  1
LAYER_INDEX
  2
AcDbLayerIndex
  3
AutoCAD 2000
 90
        0
280
     0
281
     0
  0
CLASS
  1
IDBUFFER
  2
AcDbIdBuffer
  3
AutoCAD 2000
 90
        0
280
     0
281
     0
  0
ENDSEC
  0
SECTION
  2
TABLES
  0
TABLE
  2
VPORT
  5
263
330
0
100
AcDbSymbolTable
 70
     3
  0
VPORT
  5
718
330
263
100
AcDbSymbolTableRecord
100
AcDbViewportTableRecord
  2
*Active
 70
     0
 10
0.0
 20
0.0
 11
1.0
 21
1.0
 12
0.0
 22
0.0
 13
0.0
 23
0.0
 14
5.0
 24
5.0
 15
10.0
 25
10.0
 16
0.0
 26
0.0
 36
1.0
 17
689.4315049417722
 27
696.0103629999999
 37
0.0
 40
892.0588142670602
 41
1.489721886336154
 42
50.0
 43
0.0
 44
0.0
 50
0.0
 51
0.0
 71
     0
 72
   500
 73
     1
 74
     1
 75
     0
 76
     0
 77
     0
 78
     2
281
     0
 65
     0
110
0.0
120
0.0
130
0.0
111
1.0
121
0.0
131
0.0
112
0.0
122
1.0
132
0.0
 79
     0
146
0.0
  0
ENDTAB
  0
TABLE
  2
LTYPE
  5
260
330
0
100
AcDbSymbolTable
 70
    20
  0
LTYPE
  5
26C
330
260
100
AcDbSymbolTableRecord
100
AcDbLinetypeTableRecord
  2
BYBLOCK
 70
     0
  3

 72
    65
 73
     0
 40
0.0
  0
LTYPE
  5
26D
330
260
100
AcDbSymbolTableRecord
100
AcDbLinetypeTableRecord
  2
BYLAYER
 70
     0
  3

 72
    65
 73
     0
 40
0.0
  0
LTYPE
  5
26E
330
260
100
AcDbSymbolTableRecord
100
AcDbLinetypeTableRecord
  2
CONTINUOUS
 70
     0
  3
実線
 72
    65
 73
     0
 40
0.0
  0
LTYPE
  5
27C
330
260
100
AcDbSymbolTableRecord
100
AcDbLinetypeTableRecord
  2
CENTER
 70
     0
  3
____ _ ____ _ ____ _ ____ _ ____ _ ____ _ ____
 72
    65
 73
     4
 40
2.0
 49
1.25
 74
     0
 49
-0.25
 74
     0
 49
0.25
 74
     0
 49
-0.25
 74
     0
  0
LTYPE
  5
27D
330
260
100
AcDbSymbolTableRecord
100
AcDbLinetypeTableRecord
  2
TENSEN1
 70
     0
  3

 72
    65
 73
     2
 40
0.4
 49
0.3
 74
     0
 49
-0.1
 74
     0
  0
LTYPE
  5
2C2
330
260
100
AcDbSymbolTableRecord
100
AcDbLinetypeTableRecord
  2
HIDDEN
 70
     0
  3
Hidden __ __ __ __ __ __ __ __ __ __ __ __ __ _
 72
    65
 73
     2
 40
0.375
 49
0.25
 74
     0
 49
-0.125
 74
     0
  0
LTYPE
  5
2C3
330
260
100
AcDbSymbolTableRecord
100
AcDbLinetypeTableRecord
  2
PHANTOM2
 70
     0
  3
Phantom (.5x) ___ _ _ ___ _ _ ___ _ _ ___ _ _
 72
    65
 73
     6
 40
1.25
 49
0.625
 74
     0
 49
-0.125
 74
     0
 49
0.125
 74
     0
 49
-0.125
 74
     0
 49
0.125
 74
     0
 49
-0.125
 74
     0
  0
LTYPE
  5
325
330
260
100
AcDbSymbolTableRecord
100
AcDbLinetypeTableRecord
  2
ASULTYPE
 70
     0
  3
実線
 72
    65
 73
     2
 40
3.0
 49
2.5
 74
     0
 49
0.5
 74
     0
  0
LTYPE
  5
326
330
260
100
AcDbSymbolTableRecord
100
AcDbLinetypeTableRecord
  2
ASVLTYPE
 70
     0
  3
__ __ __ __ __ __ __ __ __ __ __ __ __ __ __ __ __ __ __ __ __
 72
    65
 73
     2
 40
0.75
 49
0.5
 74
     0
 49
-0.25
 74
     0
  0
LTYPE
  5
367
330
260
100
AcDbSymbolTableRecord
100
AcDbLinetypeTableRecord
  2
AM_ISO02W050
 70
     0
  3
__ __ __ __ __ __ __ __ __ __ __ __ __ __ __
 72
    65
 73
     2
 40
7.5
 49
6.0
 74
     0
 49
-1.5
 74
     0
  0
LTYPE
  5
368
330
260
100
AcDbSymbolTableRecord
100
AcDbLinetypeTableRecord
  2
AM_ISO08W050
 70
     0
  3
____ . ____ . ____ . ____ . ____ . ____ . ____
 72
    65
 73
     4
 40
18.0
 49
12.0
 74
     0
 49
-1.5
 74
     0
 49
3.0
 74
     0
 49
-1.5
 74
     0
  0
LTYPE
  5
369
330
260
100
AcDbSymbolTableRecord
100
AcDbLinetypeTableRecord
  2
AM_ISO09W050
 70
     0
  3
_____ . . _____ . . _____ . . ____ .. ____
 72
    65
 73
     6
 40
22.5
 49
12.0
 74
     0
 49
-1.5
 74
     0
 49
3.0
 74
     0
 49
-1.5
 74
     0
 49
3.0
 74
     0
 49
-1.5
 74
     0
  0
LTYPE
  5
36A
330
260
100
AcDbSymbolTableRecord
100
AcDbLinetypeTableRecord
  2
Amconstr
 70
     0
  3
_______________________
 72
    65
 73
     2
 40
9999.0
 49
9999.0
 74
     0
 49
0.0
 74
     0
  0
LTYPE
  5
36B
330
260
100
AcDbSymbolTableRecord
100
AcDbLinetypeTableRecord
  2
AM_ISO08W050x2
 70
     0
  3
__ . __ . __ . __ . __ . __
 72
    65
 73
     4
 40
9.0
 49
6.0
 74
     0
 49
-0.75
 74
     0
 49
1.5
 74
     0
 49
-0.75
 74
     0
  0
LTYPE
  5
36C
330
260
100
AcDbSymbolTableRecord
100
AcDbLinetypeTableRecord
  2
AM_ISO02W050x2
 70
     0
  3
 _ _ _ _ _ _ _ _ _ _ _ _
 72
    65
 73
     2
 40
3.75
 49
3.0
 74
     0
 49
-0.75
 74
     0
  0
LTYPE
  5
36F
330
260
100
AcDbSymbolTableRecord
100
AcDbLinetypeTableRecord
  2
Amzigzag
 70
     0
  3
/\/-/\/-/\/-/\/-/\/-/\/
 72
    65
 73
     2
 40
11.00009999999999
 49
0.0001
 74
     4
 75
   135
340
36E
 46
0.04
 50
0.0
 44
0.0
 45
0.0
 49
-11.0
 74
     0
  0
LTYPE
  5
370
330
260
100
AcDbSymbolTableRecord
100
AcDbLinetypeTableRecord
  2
CENTER2
 70
     0
  3
Center (.5x) ___ _ ___ _ ___ _ ___ _ ___ _ ___
 72
    65
 73
     4
 40
1.125
 49
0.75
 74
     0
 49
-0.125
 74
     0
 49
0.125
 74
     0
 49
-0.125
 74
     0
  0
LTYPE
  5
371
330
260
100
AcDbSymbolTableRecord
100
AcDbLinetypeTableRecord
  2
HIDDEN2
 70
     0
  3
Hidden (.5x) _ _ _ _ _ _ _ _ _ _ _ _ _ _ _ _ _
 72
    65
 73
     2
 40
0.1875
 49
0.125
 74
     0
 49
-0.0625
 74
     0
  0
LTYPE
  5
372
330
260
100
AcDbSymbolTableRecord
100
AcDbLinetypeTableRecord
  2
Amzigzag2
 70
     0
  3
/\/-/\/-/\/-/\/-/\/-/\/
 72
    65
 73
     2
 40
0.4401
 49
0.0001
 74
     4
 75
   135
340
36E
 46
0.0016
 50
0.0
 44
0.0
 45
0.0
 49
-0.4400000000000001
 74
     0
  0
LTYPE
  5
400
330
260
100
AcDbSymbolTableRecord
100
AcDbLinetypeTableRecord
  2
ITTEN1
 70
     0
  3

 72
    65
 73
     4
 40
8.199999999999999
 49
5.0
 74
     0
 49
-1.0
 74
     0
 49
1.199999999999999
 74
     0
 49
-1.0
 74
     0
  0
LTYPE
  5
401
330
260
100
AcDbSymbolTableRecord
100
AcDbLinetypeTableRecord
  2
ACANSTGB
 70
     0
  3
__ . . __ . .
 72
    65
 73
     6
 40
0.35433070866
 49
0.15748031496
 74
     0
 49
-0.03937007874
 74
     0
 49
0.03937007874
 74
     0
 49
-0.03937007874
 74
     0
 49
0.03937007874
 74
     0
 49
-0.03937007874
 74
     0
  0
LTYPE
  5
402
330
260
100
AcDbSymbolTableRecord
100
AcDbLinetypeTableRecord
  2
ACANSTGL
 70
     0
  3
_ _ _ _ _
 72
    65
 73
     2
 40
0.11811023622
 49
0.07874015748
 74
     0
 49
-0.03937007874
 74
     0
  0
ENDTAB
  0
TABLE
  2
LAYER
  5
25D
330
0
100
AcDbSymbolTable
 70
     7
  0
LAYER
  5
269
330
25D
100
AcDbSymbolTableRecord
100
AcDbLayerTableRecord
  2
0
 70
     0
 62
     7
  6
CONTINUOUS
370
    -3
390
298
  0
LAYER
  5
282
330
25D
100
AcDbSymbolTableRecord
100
AcDbLayerTableRecord
  2
1
 70
     0
 62
     1
  6
CENTER
370
    -3
390
298
  0
LAYER
  5
283
330
25D
100
AcDbSymbolTableRecord
100
AcDbLayerTableRecord
  2
10
 70
     0
 62
     7
  6
CONTINUOUS
370
    -3
390
298
  0
LAYER
  5
284
330
25D
100
AcDbSymbolTableRecord
100
AcDbLayerTableRecord
  2
11
 70
     0
 62
     3
  6
CONTINUOUS
370
    -3
390
298
  0
LAYER
  5
285
330
25D
100
AcDbSymbolTableRecord
100
AcDbLayerTableRecord
  2
2
 70
     0
 62
     2
  6
TENSEN1
370
    -3
390
298
  0
LAYER
  5
403
330
25D
100
AcDbSymbolTableRecord
100
AcDbLayerTableRecord
  2
3
 70
     0
 62
     5
  6
CONTINUOUS
370
    53
390
298
  0
LAYER
  5
404
330
25D
100
AcDbSymbolTableRecord
100
AcDbLayerTableRecord
  2
DEFPOINTS
 70
     0
 62
     7
  6
CONTINUOUS
290
     0
370
    -3
390
298
  0
ENDTAB
  0
TABLE
  2
STYLE
  5
25E
330
0
100
AcDbSymbolTable
 70
     7
  0
STYLE
  5
26A
330
25E
100
AcDbSymbolTableRecord
100
AcDbTextStyleTableRecord
  2
STANDARD
 70
     0
 40
6.0
 41
1.0
 50
0.0
 71
     0
 42
0.2
  3
TXT.shx
  4
extfont.shx
  0
STYLE
  5
279
330
25E
100
AcDbSymbolTableRecord
100
AcDbTextStyleTableRecord
  2
K80
 70
     0
 40
0.0
 41
0.8
 50
0.0
 71
     0
 42
0.2
  3
TXT
  4
BIGFONT
  0
STYLE
  5
27A
330
25E
100
AcDbSymbolTableRecord
100
AcDbTextStyleTableRecord
  2
07500
 70
     0
 40
0.0
 41
0.75
 50
0.0
 71
     0
 42
0.2
  3
TXT
  4
BIGFONT
  0
STYLE
  5
27B
330
25E
100
AcDbSymbolTableRecord
100
AcDbTextStyleTableRecord
  2
BIGFONT
 70
     0
 40
55.0
 41
1.0
 50
0.0
 71
     0
 42
55.0
  3

  4
bigfont
  0
STYLE
  5
36E
330
25E
100
AcDbSymbolTableRecord
100
AcDbTextStyleTableRecord
  2

 70
     1
 40
0.0
 41
1.0
 50
0.0
 71
     0
 42
55.0
  3
ltypeshp.shx
  4

  0
STYLE
  5
405
330
25E
100
AcDbSymbolTableRecord
100
AcDbTextStyleTableRecord
  2
ACANSTS
 70
     0
 40
1.0
 41
1.0
 50
0.0
 71
     0
 42
5.0
  3
romans.shx
  4
extfont.shx
  0
STYLE
  5
406
330
25E
100
AcDbSymbolTableRecord
100
AcDbTextStyleTableRecord
  2
ACANSGDT
 70
     0
 40
0.0
 41
1.0
 50
0.0
 71
     0
 42
5.0
  3
amgdtans.shx
  4

  0
ENDTAB
  0
TABLE
  2
VIEW
  5
261
330
0
100
AcDbSymbolTable
 70
     1
  0
VIEW
  5
27E
330
261
100
AcDbSymbolTableRecord
100
AcDbViewTableRecord
  2
ALL
 70
     0
 40
2700.0
 10
2209.915966
 20
1350.0
 41
0.0
 11
0.0
 21
0.0
 31
1.0
 12
0.0
 22
0.0
 32
0.0
 42
50.0
 43
0.0
 44
0.0
 50
0.0
 71
     0
281
     0
 72
     0
  0
ENDTAB
  0
TABLE
  2
UCS
  5
262
330
0
100
AcDbSymbolTable
 70
     0
  0
ENDTAB
  0
TABLE
  2
APPID
  5
264
330
0
100
AcDbSymbolTable
 70
    12
  0
APPID
  5
26B
330
264
100
AcDbSymbolTableRecord
100
AcDbRegAppTableRecord
  2
ACAD
 70
     0
  0
APPID
  5
2A1
330
264
100
AcDbSymbolTableRecord
100
AcDbRegAppTableRecord
  2
GENIUS_GENDIM_13
 70
     0
  0
APPID
  5
2A2
330
264
100
AcDbSymbolTableRecord
100
AcDbRegAppTableRecord
  2
GENIUS_GENDTOL_13
 70
     0
  0
APPID
  5
2A3
330
264
100
AcDbSymbolTableRecord
100
AcDbRegAppTableRecord
  2
GENIUS_GE3DTOL_13
 70
     0
  0
APPID
  5
2A5
330
264
100
AcDbSymbolTableRecord
100
AcDbRegAppTableRecord
  2
MCAD_NO_VIS
 70
     0
  0
APPID
  5
2A6
330
264
100
AcDbSymbolTableRecord
100
AcDbRegAppTableRecord
  2
ACAD_TEMP_GRAPHIC
 70
     0
  0
APPID
  5
2D8
330
264
100
AcDbSymbolTableRecord
100
AcDbRegAppTableRecord
  2
AD_DRAW
 70
     0
  0
APPID
  5
2DB
330
264
100
AcDbSymbolTableRecord
100
AcDbRegAppTableRecord
  2
ACATTRIBSERVICES
 70
     0
  0
APPID
  5
327
330
264
100
AcDbSymbolTableRecord
100
AcDbRegAppTableRecord
  2
ASURF_PCURVE_APPNAME
 70
     0
  0
APPID
  5
356
330
264
100
AcDbSymbolTableRecord
100
AcDbRegAppTableRecord
  2
DESIGNERASSEMBLIES
 70
     0
  0
APPID
  5
35E
330
264
100
AcDbSymbolTableRecord
100
AcDbRegAppTableRecord
  2
ACADM_DIM_EDIT
 70
     0
  0
APPID
  5
35F
330
264
100
AcDbSymbolTableRecord
100
AcDbRegAppTableRecord
  2
AMDT_DM_ADJ
 70
     0
  0
ENDTAB
  0
TABLE
  2
DIMSTYLE
  5
265
330
0
100
AcDbSymbolTable
 70
     7
100
AcDbDimStyleTable
 71
     1
340
281
  0
DIMSTYLE
105
281
330
265
100
AcDbSymbolTableRecord
100
AcDbDimStyleTableRecord
  2
STANDARD
 70
     0
340
27B
  0
DIMSTYLE
105
407
330
265
100
AcDbSymbolTableRecord
100
AcDbDimStyleTableRecord
  2
AM_ANSI
 70
     0
  4
mm
 41
0.1
 42
0.05
 43
0.5
 44
0.1
 47
0.1
 48
0.1
 78
     7
 79
     2
140
0.12
141
0.0
146
0.71
147
0.06
176
   256
177
   256
178
     2
274
     4
284
     7
340
26A
371
    -1
372
    -1
  0
DIMSTYLE
105
408
330
265
100
AcDbSymbolTableRecord
100
AcDbDimStyleTableRecord
  2
AM_ANSI$3
 70
     0
  4
mm
 41
0.1
 42
0.05
 43
0.5
 44
0.1
 47
0.1
 48
0.1
 78
     7
 79
     2
140
0.12
141
0.0
146
0.71
147
0.06
176
   256
177
   256
178
     2
274
     4
284
     7
288
     1
289
     0
340
26A
371
    -1
372
    -1
  0
DIMSTYLE
105
409
330
265
100
AcDbSymbolTableRecord
100
AcDbDimStyleTableRecord
  2
AM_ANSI$4
 70
     0
  4
mm
 41
0.1
 42
0.05
 43
0.5
 44
0.1
 47
0.1
 48
0.1
 78
     7
 79
     2
140
0.12
141
0.0
146
0.71
147
0.06
176
   256
177
   256
178
     2
274
     4
284
     7
288
     1
289
     0
340
26A
371
    -1
372
    -1
  0
DIMSTYLE
105
40A
330
265
100
AcDbSymbolTableRecord
100
AcDbDimStyleTableRecord
  2
AM_ANSI$7
 70
     0
  4
mm
 41
0.1
 42
0.05
 43
0.5
 44
0.1
 47
0.1
 48
0.1
 78
     7
 79
     2
140
0.24
141
0.0
146
0.71
147
0.06
176
   256
177
   256
178
     2
274
     4
284
     7
340
26A
371
    -1
372
    -1
  0
DIMSTYLE
105
40B
330
265
100
AcDbSymbolTableRecord
100
AcDbDimStyleTableRecord
  2
AM_ANSI$SF
 70
     0
  4
mm
 41
0.1
 42
0.05
 43
0.5
 44
0.1
 47
0.1
 48
0.1
 75
     1
 76
     1
 78
     7
 79
     2
140
0.12
141
0.0
146
0.71
147
0.06
176
   256
177
   256
178
     2
274
     4
284
     7
340
26A
371
    -1
372
    -1
  0
DIMSTYLE
105
40C
330
265
100
AcDbSymbolTableRecord
100
AcDbDimStyleTableRecord
  2
AM_ANSI$SH
 70
     0
  4
mm
 41
0.1
 42
0.05
 43
0.5
 44
0.1
 47
0.1
 48
0.1
 75
     1
 76
     1
 78
     7
 79
     2
140
0.12
141
0.0
146
0.71
147
0.06
173
     1
176
   256
177
   256
178
     2
274
     4
284
     7
340
26A
343
3BD
371
    -1
372
    -1
  0
ENDTAB
  0
TABLE
  2
BLOCK_RECORD
  5
25C
330
0
100
AcDbSymbolTable
 70
    23
  0
BLOCK_RECORD
  5
272
102
{ACAD_XDICTIONARY
360
70C
102
}
330
25C
100
AcDbSymbolTableRecord
100
AcDbBlockTableRecord
  2
*MODEL_SPACE
340
29B
  0
BLOCK_RECORD
  5
26F
330
25C
100
AcDbSymbolTableRecord
100
AcDbBlockTableRecord
  2
*PAPER_SPACE
340
29C
  0
BLOCK_RECORD
  5
277
330
25C
100
AcDbSymbolTableRecord
100
AcDbBlockTableRecord
  2
WAKU
340
0
  0
BLOCK_RECORD
  5
278
330
25C
100
AcDbSymbolTableRecord
100
AcDbBlockTableRecord
  2
QQ
340
0
  0
BLOCK_RECORD
  5
34D
330
25C
100
AcDbSymbolTableRecord
100
AcDbBlockTableRecord
  2
*U2
340
0
  0
BLOCK_RECORD
  5
38B
330
25C
100
AcDbSymbolTableRecord
100
AcDbBlockTableRecord
  2
*D3
340
0
  0
BLOCK_RECORD
  5
398
330
25C
100
AcDbSymbolTableRecord
100
AcDbBlockTableRecord
  2
*D4
340
0
  0
BLOCK_RECORD
  5
3A5
330
25C
100
AcDbSymbolTableRecord
100
AcDbBlockTableRecord
  2
*D5
340
0
  0
BLOCK_RECORD
  5
3B2
330
25C
100
AcDbSymbolTableRecord
100
AcDbBlockTableRecord
  2
*D6
340
0
  0
BLOCK_RECORD
  5
3BD
330
25C
100
AcDbSymbolTableRecord
100
AcDbBlockTableRecord
  2
GENAXEH
340
0
  0
BLOCK_RECORD
  5
3C1
330
25C
100
AcDbSymbolTableRecord
100
AcDbBlockTableRecord
  2
*D8
340
0
  0
BLOCK_RECORD
  5
3CE
330
25C
100
AcDbSymbolTableRecord
100
AcDbBlockTableRecord
  2
*D9
340
0
  0
BLOCK_RECORD
  5
3DB
330
25C
100
AcDbSymbolTableRecord
100
AcDbBlockTableRecord
  2
*D10
340
0
  0
BLOCK_RECORD
  5
3E4
330
25C
100
AcDbSymbolTableRecord
100
AcDbBlockTableRecord
  2
*D11
340
0
  0
BLOCK_RECORD
  5
3F3
330
25C
100
AcDbSymbolTableRecord
100
AcDbBlockTableRecord
  2
*D12
340
0
  0
BLOCK_RECORD
  5
5C1
330
25C
100
AcDbSymbolTableRecord
100
AcDbBlockTableRecord
  2
*D14
340
0
  0
BLOCK_RECORD
  5
5CE
330
25C
100
AcDbSymbolTableRecord
100
AcDbBlockTableRecord
  2
*D15
340
0
  0
BLOCK_RECORD
  5
5DB
330
25C
100
AcDbSymbolTableRecord
100
AcDbBlockTableRecord
  2
*D16
340
0
  0
BLOCK_RECORD
  5
5E7
330
25C
100
AcDbSymbolTableRecord
100
AcDbBlockTableRecord
  2
*D17
340
0
  0
BLOCK_RECORD
  5
5F0
330
25C
100
AcDbSymbolTableRecord
100
AcDbBlockTableRecord
  2
*D18
340
0
  0
BLOCK_RECORD
  5
5FC
330
25C
100
AcDbSymbolTableRecord
100
AcDbBlockTableRecord
  2
*D19
340
0
  0
BLOCK_RECORD
  5
607
330
25C
100
AcDbSymbolTableRecord
100
AcDbBlockTableRecord
  2
*D20
340
0
  0
BLOCK_RECORD
  5
613
330
25C
100
AcDbSymbolTableRecord
100
AcDbBlockTableRecord
  2
*D21
340
0
  0
BLOCK_RECORD
  5
61F
330
25C
100
AcDbSymbolTableRecord
100
AcDbBlockTableRecord
  2
*D22
340
0
  0
ENDTAB
  0
ENDSEC
  0
SECTION
  2
BLOCKS
  0
BLOCK
  5
288
330
272
100
AcDbEntity
  8
0
100
AcDbBlockBegin
  2
*MODEL_SPACE
 70
     0
 10
0.0
 20
0.0
 30
0.0
  3
*MODEL_SPACE
  1

  0
ENDBLK
  5
289
330
272
100
AcDbEntity
  8
0
100
AcDbBlockEnd
  0
BLOCK
  5
286
330
26F
100
AcDbEntity
 67
     1
  8
0
100
AcDbBlockBegin
  2
*PAPER_SPACE
 70
     0
 10
0.0
 20
0.0
 30
0.0
  3
*PAPER_SPACE
  1

  0
ENDBLK
  5
287
330
26F
100
AcDbEntity
 67
     1
  8
0
100
AcDbBlockEnd
  0
BLOCK
  5
2E
330
277
100
AcDbEntity
  8
0
100
AcDbBlockBegin
  2
WAKU
 70
     0
 10
549.0
 20
0.0
 30
0.0
  3
WAKU
  1

  0
LINE
  5
2F
330
277
100
AcDbEntity
  8
11
100
AcDbLine
 10
452.0
 20
12.0
 30
0.0
 11
549.0
 21
12.0
 31
0.0
  0
LINE
  5
30
330
277
100
AcDbEntity
  8
11
100
AcDbLine
 10
477.0
 20
0.0
 30
0.0
 11
477.0
 21
12.0
 31
0.0
  0
LINE
  5
31
330
277
100
AcDbEntity
  8
11
100
AcDbLine
 10
452.0
 20
12.0
 30
0.0
 11
452.0
 21
0.0
 31
0.0
  0
TEXT
  5
32
330
277
100
AcDbEntity
  8
11
100
AcDbText
 10
454.0
 20
8.5
 30
0.0
 40
2.5
  1
尺度
100
AcDbText
  0
TEXT
  5
33
330
277
100
AcDbEntity
  8
11
100
AcDbText
 10
479.0
 20
8.5
 30
0.0
 40
2.5
  1
図番
100
AcDbText
  0
ENDBLK
  5
34
330
277
100
AcDbEntity
  8
0
100
AcDbBlockEnd
  0
BLOCK
  5
35
330
278
100
AcDbEntity
  8
0
100
AcDbBlockBegin
  2
QQ
 70
     0
 10
270.0
 20
0.0
 30
0.0
  3
QQ
  1

  0
LINE
  5
36
330
278
100
AcDbEntity
  8
11
100
AcDbLine
 10
173.0
 20
36.0
 30
0.0
 11
270.0
 21
36.0
 31
0.0
  0
TEXT
  5
37
330
278
100
AcDbEntity
  8
11
100
AcDbText
 10
175.0
 20
32.5
 30
0.0
 40
2.5
  1
部品名称
100
AcDbText
  0
LINE
  5
38
330
278
100
AcDbEntity
  8
11
100
AcDbLine
 10
173.0
 20
36.0
 30
0.0
 11
173.0
 21
0.0
 31
0.0
  0
LINE
  5
39
330
278
100
AcDbEntity
  8
11
100
AcDbLine
 10
173.0
 20
24.0
 30
0.0
 11
270.0
 21
24.0
 31
0.0
  0
TEXT
  5
3A
330
278
100
AcDbEntity
  8
11
100
AcDbText
 10
175.0
 20
20.5
 30
0.0
 40
2.5
  1
品番
100
AcDbText
  0
LINE
  5
3B
330
278
100
AcDbEntity
  8
11
100
AcDbLine
 10
173.0
 20
12.0
 30
0.0
 11
270.0
 21
12.0
 31
0.0
  0
TEXT
  5
3C
330
278
100
AcDbEntity
  8
11
100
AcDbText
 10
175.0
 20
8.5
 30
0.0
 40
2.5
  1
尺度
100
AcDbText
  0
TEXT
  5
3D
330
278
100
AcDbEntity
  8
11
100
AcDbText
 10
200.0
 20
8.5
 30
0.0
 40
2.5
  1
図番
100
AcDbText
  0
LINE
  5
3E
330
278
100
AcDbEntity
  8
11
100
AcDbLine
 10
198.0
 20
0.0
 30
0.0
 11
198.0
 21
12.0
 31
0.0
  0
ENDBLK
  5
3F
330
278
100
AcDbEntity
  8
0
100
AcDbBlockEnd
  0
BLOCK
  5
34E
330
34D
100
AcDbEntity
  8
0
100
AcDbBlockBegin
  2
*U2
 70
     1
 10
0.0
 20
0.0
 30
0.0
  3
*U2
  1

  0
ENDBLK
  5
34F
330
34D
100
AcDbEntity
  8
0
100
AcDbBlockEnd
  0
BLOCK
  5
396
330
38B
100
AcDbEntity
  8
0
100
AcDbBlockBegin
  2
*D3
 70
     1
 10
0.0
 20
0.0
 30
0.0
  3
*D3
  1

  0
LINE
  5
38C
330
38B
100
AcDbEntity
  8
0
  6
ByBlock
 62
     0
100
AcDbLine
 10
499.0
 20
272.0
 30
0.0
 11
499.0
 21
226.8417834129717
 31
0.0
  0
LINE
  5
38D
330
38B
100
AcDbEntity
  8
0
  6
ByBlock
 62
     0
100
AcDbLine
 10
551.0
 20
280.0
 30
0.0
 11
551.0
 21
226.8417834129717
 31
0.0
  0
LINE
  5
38E
330
38B
100
AcDbEntity
  8
0
  6
ByBlock
 62
     0
100
AcDbLine
 10
501.0
 20
227.8417834129717
 30
0.0
 11
522.6770099516409
 21
227.8417834129717
 31
0.0
  0
LINE
  5
38F
330
38B
100
AcDbEntity
  8
0
  6
ByBlock
 62
     0
100
AcDbLine
 10
549.0
 20
227.8417834129717
 30
0.0
 11
531.1903432849742
 21
227.8417834129717
 31
0.0
  0
SOLID
  5
390
330
38B
100
AcDbEntity
  8
0
  6
ByBlock
 62
     0
100
AcDbTrace
 10
501.0
 20
228.175116746305
 30
0.0
 11
501.0
 21
227.5084500796384
 31
0.0
 12
499.0
 22
227.8417834129717
 32
0.0
 13
499.0
 23
227.8417834129717
 33
0.0
  0
SOLID
  5
391
330
38B
100
AcDbEntity
  8
0
  6
ByBlock
 62
     0
100
AcDbTrace
 10
549.0
 20
228.175116746305
 30
0.0
 11
549.0
 21
227.5084500796384
 31
0.0
 12
551.0
 22
227.8417834129717
 32
0.0
 13
551.0
 23
227.8417834129717
 33
0.0
  0
MTEXT
  5
392
330
38B
100
AcDbEntity
  8
0
  6
ByBlock
 62
     0
100
AcDbMText
 10
526.9336766183076
 20
227.8417834129717
 30
0.0
 40
5.0
 41
0.0
 71
     5
 72
     1
  1
\A1;52
 73
     1
 44
1.0
  0
POINT
  5
393
330
38B
100
AcDbEntity
  8
DEFPOINTS
  6
ByBlock
 62
     0
100
AcDbPoint
 10
499.0
 20
273.0
 30
0.0
  0
POINT
  5
394
330
38B
100
AcDbEntity
  8
DEFPOINTS
  6
ByBlock
 62
     0
100
AcDbPoint
 10
551.0
 20
281.0
 30
0.0
  0
POINT
  5
395
330
38B
100
AcDbEntity
  8
DEFPOINTS
  6
ByBlock
 62
     0
100
AcDbPoint
 10
551.0
 20
227.8417834129717
 30
0.0
  0
ENDBLK
  5
397
330
38B
100
AcDbEntity
  8
0
100
AcDbBlockEnd
  0
BLOCK
  5
3A3
330
398
100
AcDbEntity
  8
0
100
AcDbBlockBegin
  2
*D4
 70
     1
 10
0.0
 20
0.0
 30
0.0
  3
*D4
  1

  0
LINE
  5
399
330
398
100
AcDbEntity
  8
0
  6
ByBlock
 62
     0
100
AcDbLine
 10
547.0
 20
344.0
 30
0.0
 11
571.4139776003933
 21
344.0
 31
0.0
  0
LINE
  5
39A
330
398
100
AcDbEntity
  8
0
  6
ByBlock
 62
     0
100
AcDbLine
 10
547.0
 20
276.0
 30
0.0
 11
571.4139776003933
 21
276.0
 31
0.0
  0
LINE
  5
39B
330
398
100
AcDbEntity
  8
0
  6
ByBlock
 62
     0
100
AcDbLine
 10
570.4139776003933
 20
342.0
 30
0.0
 11
570.4139776003933
 21
314.7317469435982
 31
0.0
  0
LINE
  5
39C
330
398
100
AcDbEntity
  8
0
  6
ByBlock
 62
     0
100
AcDbLine
 10
570.4139776003933
 20
278.0
 30
0.0
 11
570.4139776003933
 21
306.2184136102649
 31
0.0
  0
SOLID
  5
39D
330
398
100
AcDbEntity
  8
0
  6
ByBlock
 62
     0
100
AcDbTrace
 10
570.0806442670599
 20
342.0
 30
0.0
 11
570.7473109337266
 21
342.0
 31
0.0
 12
570.4139776003933
 22
344.0
 32
0.0
 13
570.4139776003933
 23
344.0
 33
0.0
  0
SOLID
  5
39E
330
398
100
AcDbEntity
  8
0
  6
ByBlock
 62
     0
100
AcDbTrace
 10
570.0806442670599
 20
278.0
 30
0.0
 11
570.7473109337266
 21
278.0
 31
0.0
 12
570.4139776003933
 22
276.0
 32
0.0
 13
570.4139776003933
 23
276.0
 33
0.0
  0
MTEXT
  5
39F
330
398
100
AcDbEntity
  8
0
  6
ByBlock
 62
     0
100
AcDbMText
 10
570.4139776003933
 20
310.4750802769316
 30
0.0
 40
5.0
 41
0.0
 71
     5
 72
     1
  1
\A1;68
 11
0.0000000000000001
 21
1.0
 31
0.0
 73
     1
 44
1.0
  0
POINT
  5
3A0
330
398
100
AcDbEntity
  8
DEFPOINTS
  6
ByBlock
 62
     0
100
AcDbPoint
 10
546.0
 20
344.0
 30
0.0
  0
POINT
  5
3A1
330
398
100
AcDbEntity
  8
DEFPOINTS
  6
ByBlock
 62
     0
100
AcDbPoint
 10
546.0
 20
276.0
 30
0.0
  0
POINT
  5
3A2
330
398
100
AcDbEntity
  8
DEFPOINTS
  6
ByBlock
 62
     0
100
AcDbPoint
 10
570.4139776003933
 20
276.0
 30
0.0
  0
ENDBLK
  5
3A4
330
398
100
AcDbEntity
  8
0
100
AcDbBlockEnd
  0
BLOCK
  5
3B0
330
3A5
100
AcDbEntity
  8
0
100
AcDbBlockBegin
  2
*D5
 70
     1
 10
0.0
 20
0.0
 30
0.0
  3
*D5
  1

  0
LINE
  5
3A6
330
3A5
100
AcDbEntity
  8
0
  6
ByBlock
 62
     0
100
AcDbLine
 10
529.0
 20
350.0
 30
0.0
 11
529.0
 21
522.8002952512187
 31
0.0
  0
LINE
  5
3A7
330
3A5
100
AcDbEntity
  8
0
  6
ByBlock
 62
     0
100
AcDbLine
 10
551.0
 20
341.0
 30
0.0
 11
551.0
 21
522.8002952512187
 31
0.0
  0
LINE
  5
3A8
330
3A5
100
AcDbEntity
  8
0
  6
ByBlock
 62
     0
100
AcDbLine
 10
531.0
 20
521.8002952512186
 30
0.0
 11
535.6447487994596
 21
521.8002952512186
 31
0.0
  0
LINE
  5
3A9
330
3A5
100
AcDbEntity
  8
0
  6
ByBlock
 62
     0
100
AcDbLine
 10
549.0
 20
521.8002952512186
 30
0.0
 11
544.158082132793
 21
521.8002952512186
 31
0.0
  0
SOLID
  5
3AA
330
3A5
100
AcDbEntity
  8
0
  6
ByBlock
 62
     0
100
AcDbTrace
 10
531.0
 20
522.133628584552
 30
0.0
 11
531.0
 21
521.4669619178853
 31
0.0
 12
529.0
 22
521.8002952512186
 32
0.0
 13
529.0
 23
521.8002952512186
 33
0.0
  0
SOLID
  5
3AB
330
3A5
100
AcDbEntity
  8
0
  6
ByBlock
 62
     0
100
AcDbTrace
 10
549.0
 20
522.133628584552
 30
0.0
 11
549.0
 21
521.4669619178853
 31
0.0
 12
551.0
 22
521.8002952512186
 32
0.0
 13
551.0
 23
521.8002952512186
 33
0.0
  0
MTEXT
  5
3AC
330
3A5
100
AcDbEntity
  8
0
  6
ByBlock
 62
     0
100
AcDbMText
 10
539.9014154661263
 20
521.8002952512186
 30
0.0
 40
5.0
 41
0.0
 71
     5
 72
     1
  1
\A1;22
 73
     1
 44
1.0
  0
POINT
  5
3AD
330
3A5
100
AcDbEntity
  8
DEFPOINTS
  6
ByBlock
 62
     0
100
AcDbPoint
 10
529.0
 20
349.0
 30
0.0
  0
POINT
  5
3AE
330
3A5
100
AcDbEntity
  8
DEFPOINTS
  6
ByBlock
 62
     0
100
AcDbPoint
 10
551.0
 20
340.0
 30
0.0
  0
POINT
  5
3AF
330
3A5
100
AcDbEntity
  8
DEFPOINTS
  6
ByBlock
 62
     0
100
AcDbPoint
 10
551.0
 20
521.8002952512186
 30
0.0
  0
ENDBLK
  5
3B1
330
3A5
100
AcDbEntity
  8
0
100
AcDbBlockEnd
  0
BLOCK
  5
3BB
330
3B2
100
AcDbEntity
  8
0
100
AcDbBlockBegin
  2
*D6
 70
     1
 10
0.0
 20
0.0
 30
0.0
  3
*D6
  1

  0
LINE
  5
3B3
330
3B2
100
AcDbEntity
  8
0
  6
ByBlock
 62
     0
100
AcDbLine
 10
612.7433333333333
 20
359.5
 30
0.0
 11
608.5999999999992
 21
359.5
 31
0.0
  0
LINE
  5
3B4
330
3B2
100
AcDbEntity
  8
0
  6
ByBlock
 62
     0
100
AcDbLine
 10
608.5999999999992
 20
359.5
 30
0.0
 11
587.8411063979867
 21
342.2009219983223
 31
0.0
  0
MTEXT
  5
3B5
330
3B2
100
AcDbEntity
  8
0
  6
ByBlock
 62
     0
100
AcDbMText
 10
617.0
 20
359.5
 30
0.0
 40
5.0
 41
0.0
 71
     5
 72
     1
  1
\A1;R5
 73
     1
 44
1.0
  0
SOLID
  5
3B6
330
3B2
100
AcDbEntity
  8
0
  6
ByBlock
 62
     0
100
AcDbTrace
 10
589.1641541572933
 20
343.7373645575171
 30
0.0
 11
589.5909437570696
 21
343.2252170377855
 31
0.0
 12
587.8411063979867
 22
342.2009219983223
 32
0.0
 13
587.8411063979867
 23
342.2009219983223
 33
0.0
  0
LINE
  5
3B7
330
3B2
100
AcDbEntity
  8
0
  6
ByBlock
 62
     0
100
AcDbLine
 10
583.91
 20
339.0
 30
0.0
 11
584.09
 21
339.0
 31
0.0
  0
LINE
  5
3B8
330
3B2
100
AcDbEntity
  8
0
  6
ByBlock
 62
     0
100
AcDbLine
 10
584.0
 20
338.91
 30
0.0
 11
584.0
 21
339.0899999999999
 31
0.0
  0
POINT
  5
3B9
330
3B2
100
AcDbEntity
  8
DEFPOINTS
  6
ByBlock
 62
     0
100
AcDbPoint
 10
587.8411063979867
 20
342.2009219983223
 30
0.0
  0
POINT
  5
3BA
330
3B2
100
AcDbEntity
  8
DEFPOINTS
  6
ByBlock
 62
     0
100
AcDbPoint
 10
584.0
 20
339.0
 30
0.0
  0
ENDBLK
  5
3BC
330
3B2
100
AcDbEntity
  8
0
100
AcDbBlockEnd
  0
BLOCK
  5
3BF
330
3BD
100
AcDbEntity
  8
0
100
AcDbBlockBegin
  2
GENAXEH
 70
     0
 10
0.0
 20
0.0
 30
0.0
  3
GENAXEH
  1

  0
LINE
  5
3BE
330
3BD
100
AcDbEntity
  8
0
100
AcDbLine
 10
-1.0
 20
0.0
 30
0.0
 11
1.0
 21
0.0
 31
0.0
  0
ENDBLK
  5
3C0
330
3BD
100
AcDbEntity
  8
0
100
AcDbBlockEnd
  0
BLOCK
  5
3CC
330
3C1
100
AcDbEntity
  8
0
100
AcDbBlockBegin
  2
*D8
 70
     1
 10
0.0
 20
0.0
 30
0.0
  3
*D8
  1

  0
LINE
  5
3C2
330
3C1
100
AcDbEntity
  8
0
 62
     0
370
    -2
100
AcDbLine
 10
519.0
 20
510.0
 30
0.0
 11
465.556572279249
 21
510.0
 31
0.0
  0
LINE
  5
3C3
330
3C1
100
AcDbEntity
  8
0
 62
     0
370
    -2
100
AcDbLine
 10
519.0
 20
110.0
 30
0.0
 11
465.5565722792489
 21
110.0
 31
0.0
  0
LINE
  5
3C4
330
3C1
100
AcDbEntity
  8
0
 62
     0
370
    -2
100
AcDbLine
 10
466.556572279249
 20
508.0
 30
0.0
 11
466.5565722792489
 21
319.3954125660323
 31
0.0
  0
LINE
  5
3C5
330
3C1
100
AcDbEntity
  8
0
 62
     0
370
    -2
100
AcDbLine
 10
466.5565722792489
 20
112.0
 30
0.0
 11
466.5565722792489
 21
302.5487458993656
 31
0.0
  0
MTEXT
  5
3C6
330
3C1
100
AcDbEntity
  8
0
 62
     0
100
AcDbMText
 10
466.5565722792489
 20
310.972079232699
 30
0.0
 40
5.0
 41
0.0
 71
     5
 72
     1
  1
\A1;%%C400
 11
0.0000000000000001
 21
1.0
 31
0.0
 73
     1
 44
1.0
  0
SOLID
  5
3C7
330
3C1
100
AcDbEntity
  8
0
 62
     0
100
AcDbTrace
 10
466.2232389459157
 20
508.0
 30
0.0
 11
466.8899056125823
 21
508.0
 31
0.0
 12
466.556572279249
 22
510.0
 32
0.0
 13
466.556572279249
 23
510.0
 33
0.0
  0
SOLID
  5
3C8
330
3C1
100
AcDbEntity
  8
0
 62
     0
100
AcDbTrace
 10
466.2232389459155
 20
112.0
 30
0.0
 11
466.8899056125822
 21
112.0
 31
0.0
 12
466.5565722792489
 22
110.0
 32
0.0
 13
466.5565722792489
 23
110.0
 33
0.0
  0
POINT
  5
3C9
330
3C1
100
AcDbEntity
  8
DEFPOINTS
 62
     0
100
AcDbPoint
 10
520.0
 20
510.0
 30
0.0
  0
POINT
  5
3CA
330
3C1
100
AcDbEntity
  8
DEFPOINTS
 62
     0
100
AcDbPoint
 10
520.0
 20
110.0
 30
0.0
  0
POINT
  5
3CB
330
3C1
100
AcDbEntity
  8
DEFPOINTS
 62
     0
100
AcDbPoint
 10
466.5565722792489
 20
110.0
 30
0.0
  0
ENDBLK
  5
3CD
330
3C1
100
AcDbEntity
  8
0
100
AcDbBlockEnd
  0
BLOCK
  5
3D9
330
3CE
100
AcDbEntity
  8
0
100
AcDbBlockBegin
  2
*D9
 70
     1
 10
0.0
 20
0.0
 30
0.0
  3
*D9
  1

  0
LINE
  5
3CF
330
3CE
100
AcDbEntity
  8
0
 62
     0
370
    -2
100
AcDbLine
 10
250.0
 20
486.0
 30
0.0
 11
435.9248695232359
 21
485.9999999999999
 31
0.0
  0
LINE
  5
3D0
330
3CE
100
AcDbEntity
  8
0
 62
     0
370
    -2
100
AcDbLine
 10
431.0
 20
310.0
 30
0.0
 11
435.9248695232358
 21
310.0
 31
0.0
  0
LINE
  5
3D1
330
3CE
100
AcDbEntity
  8
0
 62
     0
370
    -2
100
AcDbLine
 10
434.9248695232359
 20
483.9999999999999
 30
0.0
 11
434.9248695232359
 21
407.2330761598363
 31
0.0
  0
LINE
  5
3D2
330
3CE
100
AcDbEntity
  8
0
 62
     0
370
    -2
100
AcDbLine
 10
434.9248695232359
 20
312.0
 30
0.0
 11
434.9248695232359
 21
395.3864094931697
 31
0.0
  0
MTEXT
  5
3D3
330
3CE
100
AcDbEntity
  8
0
 62
     0
100
AcDbMText
 10
434.9248695232359
 20
401.3097428265031
 30
0.0
 40
5.0
 41
0.0
 71
     5
 72
     1
  1
\A1;176
 11
0.0000000000000001
 21
1.0
 31
0.0
 73
     1
 44
1.0
  0
SOLID
  5
3D4
330
3CE
100
AcDbEntity
  8
0
 62
     0
100
AcDbTrace
 10
434.5915361899026
 20
483.9999999999999
 30
0.0
 11
435.2582028565692
 21
483.9999999999999
 31
0.0
 12
434.9248695232359
 22
485.9999999999999
 32
0.0
 13
434.9248695232359
 23
485.9999999999999
 33
0.0
  0
SOLID
  5
3D5
330
3CE
100
AcDbEntity
  8
0
 62
     0
100
AcDbTrace
 10
434.5915361899026
 20
312.0
 30
0.0
 11
435.2582028565691
 21
312.0
 31
0.0
 12
434.9248695232359
 22
310.0
 32
0.0
 13
434.9248695232359
 23
310.0
 33
0.0
  0
POINT
  5
3D6
330
3CE
100
AcDbEntity
  8
DEFPOINTS
 62
     0
100
AcDbPoint
 10
249.0
 20
486.0
 30
0.0
  0
POINT
  5
3D7
330
3CE
100
AcDbEntity
  8
DEFPOINTS
 62
     0
100
AcDbPoint
 10
430.0
 20
310.0
 30
0.0
  0
POINT
  5
3D8
330
3CE
100
AcDbEntity
  8
DEFPOINTS
 62
     0
100
AcDbPoint
 10
434.9248695232359
 20
310.0
 30
0.0
  0
ENDBLK
  5
3DA
330
3CE
100
AcDbEntity
  8
0
100
AcDbBlockEnd
  0
BLOCK
  5
3E2
330
3DB
100
AcDbEntity
  8
0
100
AcDbBlockBegin
  2
*D10
 70
     1
 10
0.0
 20
0.0
 30
0.0
  3
*D10
  1

  0
LINE
  5
3DC
330
3DB
100
AcDbEntity
  8
0
 62
     0
370
    -2
100
AcDbLine
 10
483.5455016390228
 20
159.6564926462194
 30
0.0
 11
481.5455016390227
 21
159.6564926462194
 31
0.0
  0
LINE
  5
3DD
330
3DB
100
AcDbEntity
  8
0
 62
     0
370
    -2
100
AcDbLine
 10
481.5455016390227
 20
159.6564926462194
 30
0.0
 11
530.5348780005629
 21
116.7795691254012
 31
0.0
  0
MTEXT
  5
3DE
330
3DB
100
AcDbEntity
  8
0
 62
     0
100
AcDbMText
 10
489.4688349723561
 20
159.6564926462193
 30
0.0
 40
5.0
 41
0.0
 71
     5
 72
     1
  1
\A1;R16
 73
     1
 44
1.0
  0
SOLID
  5
3DF
330
3DB
100
AcDbEntity
  8
0
 62
     0
100
AcDbTrace
 10
530.7544120690058
 20
117.030399553986
 30
0.0
 11
530.3153439321201
 21
116.5287386968164
 31
0.0
 12
532.0398605720718
 22
115.4623647147442
 32
0.0
 13
532.0398605720718
 23
115.4623647147442
 33
0.0
  0
POINT
  5
3E0
330
3DB
100
AcDbEntity
  8
DEFPOINTS
 62
     0
100
AcDbPoint
 10
532.0398605720718
 20
115.4623647147442
 30
0.0
  0
POINT
  5
3E1
330
3DB
100
AcDbEntity
  8
DEFPOINTS
 62
     0
100
AcDbPoint
 10
520.0
 20
126.0
 30
0.0
  0
ENDBLK
  5
3E3
330
3DB
100
AcDbEntity
  8
0
100
AcDbBlockEnd
  0
BLOCK
  5
3F1
330
3E4
100
AcDbEntity
  8
0
100
AcDbBlockBegin
  2
*D11
 70
     1
 10
0.0
 20
0.0
 30
0.0
  3
*D11
  1

  0
LINE
  5
3E5
330
3E4
100
AcDbEntity
  8
0
 62
     0
370
    -2
100
AcDbLine
 10
504.0
 20
495.0
 30
0.0
 11
504.0
 21
524.7432344141611
 31
0.0
  0
LINE
  5
3E6
330
3E4
100
AcDbEntity
  8
0
 62
     0
370
    -2
100
AcDbLine
 10
506.0
 20
498.05
 30
0.0
 11
506.0
 21
524.7432344141611
 31
0.0
  0
LINE
  5
3E7
330
3E4
100
AcDbEntity
  8
0
 62
     0
370
    -2
100
AcDbLine
 10
502.0
 20
523.7432344141612
 30
0.0
 11
500.0
 21
523.7432344141612
 31
0.0
  0
LINE
  5
3E8
330
3E4
100
AcDbEntity
  8
0
 62
     0
370
    -2
100
AcDbLine
 10
508.0
 20
523.7432344141612
 30
0.0
 11
510.0
 21
523.7432344141612
 31
0.0
  0
LINE
  5
3E9
330
3E4
100
AcDbEntity
  8
0
 62
     0
370
    -2
100
AcDbLine
 10
514.1018587006328
 20
523.7432344141612
 30
0.0
 11
506.0
 21
523.7432344141612
 31
0.0
  0
MTEXT
  5
3EA
330
3E4
100
AcDbEntity
  8
0
 62
     0
100
AcDbMText
 10
515.8585253672995
 20
523.7432344141612
 30
0.0
 40
5.0
 41
0.0
 71
     5
 72
     1
  1
\A1;2
 73
     1
 44
1.0
  0
LINE
  5
3EB
330
3E4
100
AcDbEntity
  8
0
 62
     0
370
    -2
100
AcDbLine
 10
504.0
 20
523.7432344141612
 30
0.0
 11
506.0
 21
523.7432344141612
 31
0.0
  0
SOLID
  5
3EC
330
3E4
100
AcDbEntity
  8
0
 62
     0
100
AcDbTrace
 10
502.0
 20
524.0765677474946
 30
0.0
 11
502.0
 21
523.4099010808278
 31
0.0
 12
504.0
 22
523.7432344141612
 32
0.0
 13
504.0
 23
523.7432344141612
 33
0.0
  0
SOLID
  5
3ED
330
3E4
100
AcDbEntity
  8
0
 62
     0
100
AcDbTrace
 10
508.0
 20
524.0765677474946
 30
0.0
 11
508.0
 21
523.4099010808278
 31
0.0
 12
506.0
 22
523.7432344141612
 32
0.0
 13
506.0
 23
523.7432344141612
 33
0.0
  0
POINT
  5
3EE
330
3E4
100
AcDbEntity
  8
DEFPOINTS
 62
     0
100
AcDbPoint
 10
504.0
 20
494.0
 30
0.0
  0
POINT
  5
3EF
330
3E4
100
AcDbEntity
  8
DEFPOINTS
 62
     0
100
AcDbPoint
 10
506.0
 20
497.05
 30
0.0
  0
POINT
  5
3F0
330
3E4
100
AcDbEntity
  8
DEFPOINTS
 62
     0
100
AcDbPoint
 10
506.0
 20
523.7432344141612
 30
0.0
  0
ENDBLK
  5
3F2
330
3E4
100
AcDbEntity
  8
0
100
AcDbBlockEnd
  0
BLOCK
  5
3FE
330
3F3
100
AcDbEntity
  8
0
100
AcDbBlockBegin
  2
*D12
 70
     1
 10
0.0
 20
0.0
 30
0.0
  3
*D12
  1

  0
LINE
  5
3F4
330
3F3
100
AcDbEntity
  8
0
 62
     0
370
    -2
100
AcDbLine
 10
503.2933931099043
 20
497.05
 30
0.0
 11
471.8426937453169
 21
497.05
 31
0.0
  0
LINE
  5
3F5
330
3F3
100
AcDbEntity
  8
0
 62
     0
370
    -2
100
AcDbLine
 10
503.0
 20
474.95
 30
0.0
 11
471.8426937453169
 21
474.95
 31
0.0
  0
LINE
  5
3F6
330
3F3
100
AcDbEntity
  8
0
 62
     0
370
    -2
100
AcDbLine
 10
472.8426937453169
 20
495.0499999999999
 30
0.0
 11
472.8426937453169
 21
493.1063054921286
 31
0.0
  0
LINE
  5
3F7
330
3F3
100
AcDbEntity
  8
0
 62
     0
370
    -2
100
AcDbLine
 10
472.8426937453169
 20
476.9499999999999
 30
0.0
 11
472.8426937453169
 21
479.5929721587953
 31
0.0
  0
MTEXT
  5
3F8
330
3F3
100
AcDbEntity
  8
0
 62
     0
100
AcDbMText
 10
472.8426937453169
 20
486.349638825462
 30
0.0
 40
5.0
 41
0.0
 71
     5
 72
     1
  1
\A1;22.1
 11
0.0000000000000001
 21
1.0
 31
0.0
 73
     1
 44
1.0
  0
SOLID
  5
3F9
330
3F3
100
AcDbEntity
  8
0
 62
     0
100
AcDbTrace
 10
472.5093604119836
 20
495.0499999999999
 30
0.0
 11
473.1760270786502
 21
495.0499999999999
 31
0.0
 12
472.8426937453169
 22
497.05
 32
0.0
 13
472.8426937453169
 23
497.05
 33
0.0
  0
SOLID
  5
3FA
330
3F3
100
AcDbEntity
  8
0
 62
     0
100
AcDbTrace
 10
472.5093604119836
 20
476.9499999999999
 30
0.0
 11
473.1760270786502
 21
476.9499999999999
 31
0.0
 12
472.8426937453169
 22
474.95
 32
0.0
 13
472.8426937453169
 23
474.95
 33
0.0
  0
POINT
  5
3FB
330
3F3
100
AcDbEntity
  8
DEFPOINTS
 62
     0
100
AcDbPoint
 10
504.2933931099043
 20
497.05
 30
0.0
  0
POINT
  5
3FC
330
3F3
100
AcDbEntity
  8
DEFPOINTS
 62
     0
100
AcDbPoint
 10
504.0
 20
474.95
 30
0.0
  0
POINT
  5
3FD
330
3F3
100
AcDbEntity
  8
DEFPOINTS
 62
     0
100
AcDbPoint
 10
472.8426937453169
 20
474.95
 30
0.0
  0
ENDBLK
  5
3FF
330
3F3
100
AcDbEntity
  8
0
100
AcDbBlockEnd
  0
BLOCK
  5
5CC
330
5C1
100
AcDbEntity
  8
0
100
AcDbBlockBegin
  2
*D14
 70
     1
 10
0.0
 20
0.0
 30
0.0
  3
*D14
  1

  0
LINE
  5
636
330
5C1
100
AcDbEntity
  8
0
 62
     0
370
    -2
100
AcDbLine
 10
430.4130557587344
 20
868.1532670207809
 30
0.0
 11
616.3379252819703
 21
868.1532670207809
 31
0.0
  0
LINE
  5
637
330
5C1
100
AcDbEntity
  8
0
 62
     0
370
    -2
100
AcDbLine
 10
611.4130557587343
 20
692.153267020781
 30
0.0
 11
616.3379252819702
 21
692.153267020781
 31
0.0
  0
LINE
  5
638
330
5C1
100
AcDbEntity
  8
0
 62
     0
370
    -2
100
AcDbLine
 10
615.3379252819703
 20
866.153267020781
 30
0.0
 11
615.3379252819703
 21
847.7196765139506
 31
0.0
  0
LINE
  5
639
330
5C1
100
AcDbEntity
  8
0
 62
     0
370
    -2
100
AcDbLine
 10
615.3379252819702
 20
694.1532670207809
 30
0.0
 11
615.3379252819702
 21
719.2063431806173
 31
0.0
  0
MTEXT
  5
63A
330
5C1
100
AcDbEntity
  8
0
 62
     0
100
AcDbMText
 10
615.3379252819703
 20
783.4630098472841
 30
0.0
 40
55.0
 41
0.0
 71
     5
 72
     1
  1
\A1;176
  7
BIGFONT
 11
0.0000000000000001
 21
1.0
 31
0.0
 73
     1
 44
1.0
  0
SOLID
  5
63B
330
5C1
100
AcDbEntity
  8
0
 62
     0
100
AcDbTrace
 10
615.004591948637
 20
866.153267020781
 30
0.0
 11
615.6712586153036
 21
866.153267020781
 31
0.0
 12
615.3379252819703
 22
868.1532670207809
 32
0.0
 13
615.3379252819703
 23
868.1532670207809
 33
0.0
  0
SOLID
  5
63C
330
5C1
100
AcDbEntity
  8
0
 62
     0
100
AcDbTrace
 10
615.0045919486368
 20
694.1532670207809
 30
0.0
 11
615.6712586153036
 21
694.1532670207809
 31
0.0
 12
615.3379252819702
 22
692.153267020781
 32
0.0
 13
615.3379252819702
 23
692.153267020781
 33
0.0
  0
POINT
  5
63D
330
5C1
100
AcDbEntity
  8
DEFPOINTS
 62
     0
100
AcDbPoint
 10
429.4130557587344
 20
868.1532670207809
 30
0.0
  0
POINT
  5
63E
330
5C1
100
AcDbEntity
  8
DEFPOINTS
 62
     0
100
AcDbPoint
 10
610.4130557587343
 20
692.153267020781
 30
0.0
  0
POINT
  5
63F
330
5C1
100
AcDbEntity
  8
DEFPOINTS
 62
     0
100
AcDbPoint
 10
615.3379252819702
 20
692.153267020781
 30
0.0
  0
ENDBLK
  5
5CD
330
5C1
100
AcDbEntity
  8
0
100
AcDbBlockEnd
  0
BLOCK
  5
5D9
330
5CE
100
AcDbEntity
  8
0
100
AcDbBlockBegin
  2
*D15
 70
     1
 10
0.0
 20
0.0
 30
0.0
  3
*D15
  1

  0
LINE
  5
64A
330
5CE
100
AcDbEntity
  8
0
 62
     0
370
    -2
100
AcDbLine
 10
699.4130557587343
 20
892.153267020781
 30
0.0
 11
645.9696280379834
 21
892.153267020781
 31
0.0
  0
LINE
  5
64B
330
5CE
100
AcDbEntity
  8
0
 62
     0
370
    -2
100
AcDbLine
 10
699.4130557587343
 20
492.1532670207809
 30
0.0
 11
645.9696280379833
 21
492.1532670207809
 31
0.0
  0
LINE
  5
64C
330
5CE
100
AcDbEntity
  8
0
 62
     0
370
    -2
100
AcDbLine
 10
646.9696280379833
 20
890.153267020781
 30
0.0
 11
646.9696280379833
 21
784.8820129201465
 31
0.0
  0
LINE
  5
64D
330
5CE
100
AcDbEntity
  8
0
 62
     0
370
    -2
100
AcDbLine
 10
646.9696280379833
 20
494.1532670207808
 30
0.0
 11
646.9696280379833
 21
601.3686795868132
 31
0.0
  0
MTEXT
  5
64E
330
5CE
100
AcDbEntity
  8
0
 62
     0
100
AcDbMText
 10
646.9696280379833
 20
693.1253462534799
 30
0.0
 40
55.0
 41
0.0
 71
     5
 72
     1
  1
\A1;%%C400
  7
BIGFONT
 11
0.0000000000000001
 21
1.0
 31
0.0
 73
     1
 44
1.0
  0
SOLID
  5
64F
330
5CE
100
AcDbEntity
  8
0
 62
     0
100
AcDbTrace
 10
646.63629470465
 20
890.153267020781
 30
0.0
 11
647.3029613713167
 21
890.153267020781
 31
0.0
 12
646.9696280379833
 22
892.153267020781
 32
0.0
 13
646.9696280379833
 23
892.153267020781
 33
0.0
  0
SOLID
  5
650
330
5CE
100
AcDbEntity
  8
0
 62
     0
100
AcDbTrace
 10
646.6362947046499
 20
494.1532670207808
 30
0.0
 11
647.3029613713166
 21
494.1532670207808
 31
0.0
 12
646.9696280379833
 22
492.1532670207809
 32
0.0
 13
646.9696280379833
 23
492.1532670207809
 33
0.0
  0
POINT
  5
651
330
5CE
100
AcDbEntity
  8
DEFPOINTS
 62
     0
100
AcDbPoint
 10
700.4130557587343
 20
892.153267020781
 30
0.0
  0
POINT
  5
652
330
5CE
100
AcDbEntity
  8
DEFPOINTS
 62
     0
100
AcDbPoint
 10
700.4130557587343
 20
492.1532670207809
 30
0.0
  0
POINT
  5
653
330
5CE
100
AcDbEntity
  8
DEFPOINTS
 62
     0
100
AcDbPoint
 10
646.9696280379833
 20
492.1532670207809
 30
0.0
  0
ENDBLK
  5
5DA
330
5CE
100
AcDbEntity
  8
0
100
AcDbBlockEnd
  0
BLOCK
  5
5E5
330
5DB
100
AcDbEntity
  8
0
100
AcDbBlockBegin
  2
*D16
 70
     1
 10
0.0
 20
0.0
 30
0.0
  3
*D16
  1

  0
LINE
  5
65D
330
5DB
100
AcDbEntity
  8
0
 62
     0
370
    -2
100
AcDbLine
 10
765.4130557587344
 20
726.153267020781
 30
0.0
 11
789.8270333591279
 21
726.1532670207808
 31
0.0
  0
LINE
  5
65E
330
5DB
100
AcDbEntity
  8
0
 62
     0
370
    -2
100
AcDbLine
 10
765.4130557587344
 20
658.1532670207809
 30
0.0
 11
789.8270333591279
 21
658.1532670207808
 31
0.0
  0
LINE
  5
65F
330
5DB
100
AcDbEntity
  8
0
 62
     0
370
    -2
100
AcDbLine
 10
788.8270333591279
 20
724.1532670207808
 30
0.0
 11
788.8270333591279
 21
660.1532670207808
 31
0.0
  0
SOLID
  5
660
330
5DB
100
AcDbEntity
  8
0
 62
     0
100
AcDbTrace
 10
788.4937000257945
 20
724.1532670207808
 30
0.0
 11
789.1603666924612
 21
724.1532670207808
 31
0.0
 12
788.8270333591279
 22
726.1532670207808
 32
0.0
 13
788.8270333591279
 23
726.1532670207808
 33
0.0
  0
SOLID
  5
661
330
5DB
100
AcDbEntity
  8
0
 62
     0
100
AcDbTrace
 10
788.4937000257945
 20
660.1532670207808
 30
0.0
 11
789.1603666924612
 21
660.1532670207808
 31
0.0
 12
788.8270333591279
 22
658.1532670207808
 32
0.0
 13
788.8270333591279
 23
658.1532670207808
 33
0.0
  0
MTEXT
  5
662
330
5DB
100
AcDbEntity
  8
0
 62
     0
100
AcDbMText
 10
788.8270333591277
 20
692.1532670207811
 30
0.0
 40
55.0
 41
0.0
 71
     5
 72
     1
  1
\A1;68
  7
BIGFONT
 11
0.0000000000000001
 21
1.0
 31
0.0
 73
     1
 44
1.0
  0
POINT
  5
663
330
5DB
100
AcDbEntity
  8
DEFPOINTS
 62
     0
100
AcDbPoint
 10
764.4130557587344
 20
726.153267020781
 30
0.0
  0
POINT
  5
664
330
5DB
100
AcDbEntity
  8
DEFPOINTS
 62
     0
100
AcDbPoint
 10
764.4130557587344
 20
658.1532670207809
 30
0.0
  0
POINT
  5
665
330
5DB
100
AcDbEntity
  8
DEFPOINTS
 62
     0
100
AcDbPoint
 10
788.8270333591279
 20
658.1532670207808
 30
0.0
  0
ENDBLK
  5
5E6
330
5DB
100
AcDbEntity
  8
0
100
AcDbBlockEnd
  0
BLOCK
  5
5EE
330
5E7
100
AcDbEntity
  8
0
100
AcDbBlockBegin
  2
*D17
 70
     1
 10
0.0
 20
0.0
 30
0.0
  3
*D17
  1

  0
LINE
  5
66C
330
5E7
100
AcDbEntity
  8
0
 62
     0
370
    -2
100
AcDbLine
 10
659.9585573977576
 20
541.8097596670003
 30
0.0
 11
661.9585573977578
 21
541.8097596670004
 31
0.0
  0
LINE
  5
66D
330
5E7
100
AcDbEntity
  8
0
 62
     0
370
    -2
100
AcDbLine
 10
661.9585573977578
 20
541.8097596670004
 30
0.0
 11
710.9479337592972
 21
498.932836146182
 31
0.0
  0
MTEXT
  5
66E
330
5E7
100
AcDbEntity
  8
0
 62
     0
100
AcDbMText
 10
595.7018907310909
 20
541.8097596670004
 30
0.0
 40
55.0
 41
0.0
 71
     5
 72
     1
  1
\A1;R16
  7
BIGFONT
 73
     1
 44
1.0
  0
SOLID
  5
66F
330
5E7
100
AcDbEntity
  8
0
 62
     0
100
AcDbTrace
 10
711.1674678277401
 20
499.1836665747669
 30
0.0
 11
710.7283996908543
 21
498.6820057175973
 31
0.0
 12
712.4529163308062
 22
497.615631735525
 32
0.0
 13
712.4529163308062
 23
497.615631735525
 33
0.0
  0
POINT
  5
670
330
5E7
100
AcDbEntity
  8
DEFPOINTS
 62
     0
100
AcDbPoint
 10
712.4529163308062
 20
497.615631735525
 30
0.0
  0
POINT
  5
671
330
5E7
100
AcDbEntity
  8
DEFPOINTS
 62
     0
100
AcDbPoint
 10
700.4130557587346
 20
508.1532670207809
 30
0.0
  0
ENDBLK
  5
5EF
330
5E7
100
AcDbEntity
  8
0
100
AcDbBlockEnd
  0
BLOCK
  5
5FA
330
5F0
100
AcDbEntity
  8
0
100
AcDbBlockBegin
  2
*D18
 70
     1
 10
0.0
 20
0.0
 30
0.0
  3
*D18
  1

  0
LINE
  5
67B
330
5F0
100
AcDbEntity
  8
0
 62
     0
370
    -2
100
AcDbLine
 10
717.4130557587345
 20
654.1532670207809
 30
0.0
 11
717.4130557587345
 21
608.9950504337525
 31
0.0
  0
LINE
  5
67C
330
5F0
100
AcDbEntity
  8
0
 62
     0
370
    -2
100
AcDbLine
 10
769.4130557587344
 20
662.1532670207809
 30
0.0
 11
769.4130557587344
 21
608.9950504337525
 31
0.0
  0
LINE
  5
67D
330
5F0
100
AcDbEntity
  8
0
 62
     0
370
    -2
100
AcDbLine
 10
719.4130557587344
 20
609.9950504337526
 30
0.0
 11
767.4130557587345
 21
609.9950504337526
 31
0.0
  0
SOLID
  5
67E
330
5F0
100
AcDbEntity
  8
0
 62
     0
100
AcDbTrace
 10
719.4130557587344
 20
610.3283837670859
 30
0.0
 11
719.4130557587344
 21
609.6617171004192
 31
0.0
 12
717.4130557587345
 22
609.9950504337526
 32
0.0
 13
717.4130557587345
 23
609.9950504337526
 33
0.0
  0
SOLID
  5
67F
330
5F0
100
AcDbEntity
  8
0
 62
     0
100
AcDbTrace
 10
767.4130557587345
 20
610.3283837670859
 30
0.0
 11
767.4130557587345
 21
609.6617171004192
 31
0.0
 12
769.4130557587344
 22
609.9950504337526
 32
0.0
 13
769.4130557587344
 23
609.9950504337526
 33
0.0
  0
MTEXT
  5
680
330
5F0
100
AcDbEntity
  8
0
 62
     0
100
AcDbMText
 10
743.4130557587344
 20
609.9950504337526
 30
0.0
 40
55.0
 41
0.0
 71
     5
 72
     1
  1
\A1;52
  7
BIGFONT
 73
     1
 44
1.0
  0
POINT
  5
681
330
5F0
100
AcDbEntity
  8
DEFPOINTS
 62
     0
100
AcDbPoint
 10
717.4130557587345
 20
655.153267020781
 30
0.0
  0
POINT
  5
682
330
5F0
100
AcDbEntity
  8
DEFPOINTS
 62
     0
100
AcDbPoint
 10
769.4130557587344
 20
663.153267020781
 30
0.0
  0
POINT
  5
683
330
5F0
100
AcDbEntity
  8
DEFPOINTS
 62
     0
100
AcDbPoint
 10
769.4130557587344
 20
609.9950504337526
 30
0.0
  0
ENDBLK
  5
5FB
330
5F0
100
AcDbEntity
  8
0
100
AcDbBlockEnd
  0
BLOCK
  5
605
330
5FC
100
AcDbEntity
  8
0
100
AcDbBlockBegin
  2
*D19
 70
     1
 10
0.0
 20
0.0
 30
0.0
  3
*D19
  1

  0
LINE
  5
68C
330
5FC
100
AcDbEntity
  8
0
 62
     0
370
    -2
100
AcDbLine
 10
791.0130557587352
 20
741.6532670207808
 30
0.0
 11
789.0130557587354
 21
741.6532670207808
 31
0.0
  0
LINE
  5
68D
330
5FC
100
AcDbEntity
  8
0
 62
     0
370
    -2
100
AcDbLine
 10
789.0130557587354
 20
741.6532670207808
 30
0.0
 11
769.7906047159161
 21
725.6345578184321
 31
0.0
  0
MTEXT
  5
68E
330
5FC
100
AcDbEntity
  8
0
 62
     0
100
AcDbMText
 10
836.9363890920686
 20
741.6532670207809
 30
0.0
 40
55.0
 41
0.0
 71
     5
 72
     1
  1
\A1;R5
  7
BIGFONT
 73
     1
 44
1.0
  0
SOLID
  5
68F
330
5FC
100
AcDbEntity
  8
0
 62
     0
100
AcDbTrace
 10
769.5772099160279
 20
725.8906315782978
 30
0.0
 11
770.0039995158042
 21
725.3784840585662
 31
0.0
 12
768.2541621567213
 22
724.3541890191031
 32
0.0
 13
768.2541621567213
 23
724.3541890191031
 33
0.0
  0
LINE
  5
690
330
5FC
100
AcDbEntity
  8
0
 62
     0
370
    -2
100
AcDbLine
 10
764.3230557587345
 20
721.1532670207811
 30
0.0
 11
764.5030557587347
 21
721.1532670207811
 31
0.0
  0
LINE
  5
691
330
5FC
100
AcDbEntity
  8
0
 62
     0
370
    -2
100
AcDbLine
 10
764.4130557587346
 20
721.0632670207809
 30
0.0
 11
764.4130557587345
 21
721.2432670207812
 31
0.0
  0
POINT
  5
692
330
5FC
100
AcDbEntity
  8
DEFPOINTS
 62
     0
100
AcDbPoint
 10
768.2541621567213
 20
724.3541890191031
 30
0.0
  0
POINT
  5
693
330
5FC
100
AcDbEntity
  8
DEFPOINTS
 62
     0
100
AcDbPoint
 10
764.4130557587345
 20
721.1532670207811
 30
0.0
  0
ENDBLK
  5
606
330
5FC
100
AcDbEntity
  8
0
100
AcDbBlockEnd
  0
BLOCK
  5
611
330
607
100
AcDbEntity
  8
0
100
AcDbBlockBegin
  2
*D20
 70
     1
 10
0.0
 20
0.0
 30
0.0
  3
*D20
  1

  0
LINE
  5
69D
330
607
100
AcDbEntity
  8
0
 62
     0
370
    -2
100
AcDbLine
 10
747.4130557587344
 20
732.1532670207809
 30
0.0
 11
747.4130557587344
 21
904.9535622719995
 31
0.0
  0
LINE
  5
69E
330
607
100
AcDbEntity
  8
0
 62
     0
370
    -2
100
AcDbLine
 10
769.4130557587344
 20
723.1532670207809
 30
0.0
 11
769.4130557587344
 21
904.9535622719995
 31
0.0
  0
LINE
  5
69F
330
607
100
AcDbEntity
  8
0
 62
     0
370
    -2
100
AcDbLine
 10
749.4130557587344
 20
903.9535622719995
 30
0.0
 11
767.4130557587345
 21
903.9535622719995
 31
0.0
  0
SOLID
  5
6A0
330
607
100
AcDbEntity
  8
0
 62
     0
100
AcDbTrace
 10
749.4130557587344
 20
904.2868956053329
 30
0.0
 11
749.4130557587344
 21
903.6202289386661
 31
0.0
 12
747.4130557587344
 22
903.9535622719995
 32
0.0
 13
747.4130557587344
 23
903.9535622719995
 33
0.0
  0
SOLID
  5
6A1
330
607
100
AcDbEntity
  8
0
 62
     0
100
AcDbTrace
 10
767.4130557587345
 20
904.2868956053329
 30
0.0
 11
767.4130557587345
 21
903.6202289386661
 31
0.0
 12
769.4130557587344
 22
903.9535622719995
 32
0.0
 13
769.4130557587344
 23
903.9535622719995
 33
0.0
  0
MTEXT
  5
6A2
330
607
100
AcDbEntity
  8
0
 62
     0
100
AcDbMText
 10
758.4130557587344
 20
903.9535622719995
 30
0.0
 40
55.0
 41
0.0
 71
     5
 72
     1
  1
\A1;22
  7
BIGFONT
 73
     1
 44
1.0
  0
POINT
  5
6A3
330
607
100
AcDbEntity
  8
DEFPOINTS
 62
     0
100
AcDbPoint
 10
747.4130557587344
 20
731.1532670207809
 30
0.0
  0
POINT
  5
6A4
330
607
100
AcDbEntity
  8
DEFPOINTS
 62
     0
100
AcDbPoint
 10
769.4130557587344
 20
722.1532670207809
 30
0.0
  0
POINT
  5
6A5
330
607
100
AcDbEntity
  8
DEFPOINTS
 62
     0
100
AcDbPoint
 10
769.4130557587344
 20
903.9535622719995
 30
0.0
  0
ENDBLK
  5
612
330
607
100
AcDbEntity
  8
0
100
AcDbBlockEnd
  0
BLOCK
  5
61D
330
613
100
AcDbEntity
  8
0
100
AcDbBlockBegin
  2
*D21
 70
     1
 10
0.0
 20
0.0
 30
0.0
  3
*D21
  1

  0
LINE
  5
6AF
330
613
100
AcDbEntity
  8
0
 62
     0
370
    -2
100
AcDbLine
 10
683.7064488686387
 20
879.2032670207809
 30
0.0
 11
652.2557495040513
 21
879.2032670207809
 31
0.0
  0
LINE
  5
6B0
330
613
100
AcDbEntity
  8
0
 62
     0
370
    -2
100
AcDbLine
 10
683.4130557587343
 20
857.1032670207809
 30
0.0
 11
652.2557495040513
 21
857.1032670207809
 31
0.0
  0
LINE
  5
6B1
330
613
100
AcDbEntity
  8
0
 62
     0
370
    -2
100
AcDbLine
 10
653.2557495040513
 20
877.2032670207808
 30
0.0
 11
653.2557495040513
 21
859.1032670207809
 31
0.0
  0
MTEXT
  5
6B2
330
613
100
AcDbEntity
  8
0
 62
     0
100
AcDbMText
 10
653.2557495040513
 20
868.5029058462429
 30
0.0
 40
55.0
 41
0.0
 71
     5
 72
     1
  1
\A1;22.1
  7
BIGFONT
 11
0.0000000000000001
 21
1.0
 31
0.0
 73
     1
 44
1.0
  0
SOLID
  5
6B3
330
613
100
AcDbEntity
  8
0
 62
     0
100
AcDbTrace
 10
652.9224161707179
 20
877.2032670207808
 30
0.0
 11
653.5890828373847
 21
877.2032670207808
 31
0.0
 12
653.2557495040513
 22
879.2032670207809
 32
0.0
 13
653.2557495040513
 23
879.2032670207809
 33
0.0
  0
SOLID
  5
6B4
330
613
100
AcDbEntity
  8
0
 62
     0
100
AcDbTrace
 10
652.9224161707179
 20
859.1032670207809
 30
0.0
 11
653.5890828373847
 21
859.1032670207809
 31
0.0
 12
653.2557495040513
 22
857.1032670207809
 32
0.0
 13
653.2557495040513
 23
857.1032670207809
 33
0.0
  0
POINT
  5
6B5
330
613
100
AcDbEntity
  8
DEFPOINTS
 62
     0
100
AcDbPoint
 10
684.7064488686387
 20
879.2032670207809
 30
0.0
  0
POINT
  5
6B6
330
613
100
AcDbEntity
  8
DEFPOINTS
 62
     0
100
AcDbPoint
 10
684.4130557587343
 20
857.1032670207809
 30
0.0
  0
POINT
  5
6B7
330
613
100
AcDbEntity
  8
DEFPOINTS
 62
     0
100
AcDbPoint
 10
653.2557495040513
 20
857.1032670207809
 30
0.0
  0
ENDBLK
  5
61E
330
613
100
AcDbEntity
  8
0
100
AcDbBlockEnd
  0
BLOCK
  5
62A
330
61F
100
AcDbEntity
  8
0
100
AcDbBlockBegin
  2
*D22
 70
     1
 10
0.0
 20
0.0
 30
0.0
  3
*D22
  1

  0
LINE
  5
6C2
330
61F
100
AcDbEntity
  8
0
 62
     0
370
    -2
100
AcDbLine
 10
684.4130557587343
 20
877.1532670207809
 30
0.0
 11
684.4130557587343
 21
906.8965014349421
 31
0.0
  0
LINE
  5
6C3
330
61F
100
AcDbEntity
  8
0
 62
     0
370
    -2
100
AcDbLine
 10
686.4130557587343
 20
880.2032670207809
 30
0.0
 11
686.4130557587343
 21
906.8965014349421
 31
0.0
  0
LINE
  5
6C4
330
61F
100
AcDbEntity
  8
0
 62
     0
370
    -2
100
AcDbLine
 10
682.4130557587343
 20
905.8965014349421
 30
0.0
 11
680.4130557587343
 21
905.8965014349421
 31
0.0
  0
LINE
  5
6C5
330
61F
100
AcDbEntity
  8
0
 62
     0
370
    -2
100
AcDbLine
 10
688.4130557587343
 20
905.8965014349421
 30
0.0
 11
690.4130557587343
 21
905.8965014349421
 31
0.0
  0
MTEXT
  5
6C6
330
61F
100
AcDbEntity
  8
0
 62
     0
100
AcDbMText
 10
696.2715811260339
 20
905.8965014349421
 30
0.0
 40
55.0
 41
0.0
 71
     5
 72
     1
  1
\A1;2
  7
BIGFONT
 73
     1
 44
1.0
  0
SOLID
  5
6C7
330
61F
100
AcDbEntity
  8
0
 62
     0
100
AcDbTrace
 10
682.4130557587343
 20
906.2298347682755
 30
0.0
 11
682.4130557587343
 21
905.5631681016087
 31
0.0
 12
684.4130557587343
 22
905.8965014349421
 32
0.0
 13
684.4130557587343
 23
905.8965014349421
 33
0.0
  0
SOLID
  5
6C8
330
61F
100
AcDbEntity
  8
0
 62
     0
100
AcDbTrace
 10
688.4130557587343
 20
906.2298347682755
 30
0.0
 11
688.4130557587343
 21
905.5631681016087
 31
0.0
 12
686.4130557587343
 22
905.8965014349421
 32
0.0
 13
686.4130557587343
 23
905.8965014349421
 33
0.0
  0
POINT
  5
6C9
330
61F
100
AcDbEntity
  8
DEFPOINTS
 62
     0
100
AcDbPoint
 10
684.4130557587343
 20
876.153267020781
 30
0.0
  0
POINT
  5
6CA
330
61F
100
AcDbEntity
  8
DEFPOINTS
 62
     0
100
AcDbPoint
 10
686.4130557587343
 20
879.2032670207809
 30
0.0
  0
POINT
  5
6CB
330
61F
100
AcDbEntity
  8
DEFPOINTS
 62
     0
100
AcDbPoint
 10
686.4130557587343
 20
905.8965014349421
 30
0.0
  0
ENDBLK
  5
62B
330
61F
100
AcDbEntity
  8
0
100
AcDbBlockEnd
  0
ENDSEC
  0
SECTION
  2
ENTITIES
  0
ARC
  5
4F9
330
272
100
AcDbEntity
  8
3
100
AcDbCircle
 10
395.4130557587344
 20
692.153267020781
 30
0.0
 40
184.0
100
AcDbArc
 50
98.28063437888371
 51
270.0
  0
LINE
  5
4FB
330
272
100
AcDbEntity
  8
1
100
AcDbLine
 10
190.4130557587343
 20
692.153267020781
 30
0.0
 11
395.4130557587337
 21
692.1532670207808
 31
0.0
  0
ARC
  5
4FD
330
272
100
AcDbEntity
  8
3
100
AcDbCircle
 10
246.063056422812
 20
660.4079446765171
 30
0.0
 40
20.3134328358212
100
AcDbArc
 50
148.4805643070277
 51
235.5194356929719
  0
ARC
  5
4FF
330
272
100
AcDbEntity
  8
3
100
AcDbCircle
 10
397.9759766265398
 20
695.680824966826
 30
0.0
 40
44.13626377010093
100
AcDbArc
 50
212.4334458578095
 51
255.5665541421916
  0
LINE
  5
501
330
272
100
AcDbEntity
  8
3
100
AcDbLine
 10
359.7297834545707
 20
671.9615836420505
 30
0.0
 11
284.9242722472943
 21
565.5980272313435
 31
0.0
  0
LINE
  5
503
330
272
100
AcDbEntity
  8
1
100
AcDbLine
 10
395.4130557587344
 20
692.153267020781
 30
0.0
 11
270.72795123499
 21
520.5389434022406
 31
0.0
  0
LINE
  5
505
330
272
100
AcDbEntity
  8
1
100
AcDbLine
 10
395.4130557587344
 20
902.1532670207809
 30
0.0
 11
395.4130557587344
 21
482.1532670207808
 31
0.0
  0
ARC
  5
506
330
272
100
AcDbEntity
  8
3
100
AcDbCircle
 10
395.4130557587344
 20
692.153267020781
 30
0.0
 40
168.0
100
AcDbArc
 50
239.1225160997807
 51
247.2239690734629
  0
LINE
  5
507
330
272
100
AcDbEntity
  8
3
100
AcDbLine
 10
387.2363612633189
 20
651.9768850641064
 30
0.0
 11
309.1947820785428
 21
547.9644696625692
 31
0.0
  0
ARC
  5
508
330
272
100
AcDbEntity
  8
3
100
AcDbCircle
 10
395.4130557587345
 20
692.153267020781
 30
0.0
 40
168.0
100
AcDbArc
 50
220.776030926538
 51
228.8774839002193
  0
ARC
  5
509
330
272
100
AcDbEntity
  8
3
100
AcDbCircle
 10
346.9679936699641
 20
625.4743594256936
 30
0.0
 40
87.85536538672335
100
AcDbArc
 50
225.2855427741294
 51
242.7144572258712
  0
ARC
  5
50A
330
272
100
AcDbEntity
  8
3
100
AcDbCircle
 10
286.3352341428217
 20
564.4372976453263
 30
0.0
 40
1.827048615248811
100
AcDbArc
 50
140.5575341086836
 51
229.7707725197793
  0
ARC
  5
50B
330
272
100
AcDbEntity
  8
3
100
AcDbCircle
 10
307.6548514379725
 20
548.9476889996007
 30
0.0
 40
1.827048615248811
100
AcDbArc
 50
238.2292274802213
 51
327.4424658913154
  0
ARC
  5
50C
330
272
100
AcDbEntity
  8
3
100
AcDbCircle
 10
271.8870281101422
 20
602.4063546185126
 30
0.0
 40
20.31343283582136
100
AcDbArc
 50
172.4805643070278
 51
259.5194356929715
  0
ARC
  5
50D
330
272
100
AcDbEntity
  8
3
100
AcDbCircle
 10
255.9269358828573
 20
630.050045249655
 30
0.0
 40
20.31343283582133
100
AcDbArc
 50
160.4805643070266
 51
247.5194356929719
  0
ARC
  5
50E
330
272
100
AcDbEntity
  8
3
100
AcDbCircle
 10
395.4130557587345
 20
692.153267020781
 30
0.0
 40
168.0
100
AcDbArc
 50
208.776030926537
 51
211.2239690734623
  0
ARC
  5
50F
330
272
100
AcDbEntity
  8
3
100
AcDbCircle
 10
395.4130557587345
 20
692.153267020781
 30
0.0
 40
168.0
100
AcDbArc
 50
196.776030926538
 51
199.2239690734627
  0
ARC
  5
512
330
272
100
AcDbEntity
  8
3
100
AcDbCircle
 10
379.4529635314495
 20
540.3031328473867
 30
0.0
 40
20.3134328358212
100
AcDbArc
 50
220.4805643070274
 51
307.5194356929713
  0
ARC
  5
513
330
272
100
AcDbEntity
  8
3
100
AcDbCircle
 10
348.2303116922313
 20
546.9397123685512
 30
0.0
 40
20.31343283582125
100
AcDbArc
 50
208.4805643070282
 51
295.5194356929717
  0
ARC
  5
514
330
272
100
AcDbEntity
  8
3
100
AcDbCircle
 10
395.4130557587344
 20
692.153267020781
 30
0.0
 40
168.0
100
AcDbArc
 50
256.776030926537
 51
259.2239690734623
  0
ARC
  5
516
330
272
100
AcDbEntity
  8
3
100
AcDbCircle
 10
395.4130557587344
 20
692.153267020781
 30
0.0
 40
168.0
100
AcDbArc
 50
268.7760309265379
 51
270.0
  0
ARC
  5
518
330
272
100
AcDbEntity
  8
3
100
AcDbCircle
 10
395.4130557587344
 20
692.153267020781
 30
0.0
 40
41.0
100
AcDbArc
 50
258.4962790511778
 51
270.0
  0
ARC
  5
519
330
272
100
AcDbEntity
  8
3
100
AcDbCircle
 10
386.7130616151736
 20
652.3503700026851
 30
0.0
 40
0.6429101967577746
100
AcDbArc
 50
324.4841160712808
 51
65.97808762395182
  0
LINE
  5
524
330
272
100
AcDbEntity
  8
3
100
AcDbLine
 10
365.1828861495284
 20
719.8505023593242
 30
0.0
 11
240.9089584928443
 21
758.1266247347278
 31
0.0
  0
LINE
  5
525
330
272
100
AcDbEntity
  8
3
100
AcDbLine
 10
354.6763083407802
 20
687.5145808052891
 30
0.0
 11
231.6384486615959
 21
729.5949292458731
 31
0.0
  0
ARC
  5
526
330
272
100
AcDbEntity
  8
3
100
AcDbCircle
 10
319.069772176645
 20
824.3837130015986
 30
0.0
 40
20.3134328358212
100
AcDbArc
 50
76.4805643070278
 51
163.5194356929715
  0
LINE
  5
527
330
272
100
AcDbEntity
  8
1
100
AcDbLine
 10
395.4130557587344
 20
692.153267020781
 30
0.0
 11
199.28877390158
 21
755.8779091057044
 31
0.0
  0
ARC
  5
528
330
272
100
AcDbEntity
  8
3
100
AcDbCircle
 10
317.0272987120048
 20
717.6223433893905
 30
0.0
 40
87.85536538672335
100
AcDbArc
 50
153.2855427741296
 51
170.7144572258708
  0
ARC
  5
529
330
272
100
AcDbEntity
  8
3
100
AcDbCircle
 10
395.4130557587345
 20
692.153267020781
 30
0.0
 40
168.0
100
AcDbArc
 50
167.1225160997802
 51
175.223969073464
  0
ARC
  5
52A
330
272
100
AcDbEntity
  8
3
100
AcDbCircle
 10
242.7264885945559
 20
692.153267020781
 30
0.0
 40
20.31343283582125
100
AcDbArc
 50
136.4805643070273
 51
223.5194356929726
  0
ARC
  5
52B
330
272
100
AcDbEntity
  8
3
100
AcDbCircle
 10
395.4130557587345
 20
692.153267020781
 30
0.0
 40
168.0
100
AcDbArc
 50
184.7760309265359
 51
187.2239690734611
  0
ARC
  5
52C
330
272
100
AcDbEntity
  8
3
100
AcDbCircle
 10
232.0976810809327
 20
731.3633218005707
 30
0.0
 40
1.827048615248811
100
AcDbArc
 50
166.2292274802209
 51
255.4424658913149
  0
ARC
  5
52D
330
272
100
AcDbEntity
  8
3
100
AcDbCircle
 10
271.8870281101422
 20
781.9001794230492
 30
0.0
 40
20.31343283582136
100
AcDbArc
 50
100.4805643070284
 51
187.5194356929721
  0
ARC
  5
52E
330
272
100
AcDbEntity
  8
3
100
AcDbCircle
 10
395.4130557587344
 20
692.153267020781
 30
0.0
 40
168.0
100
AcDbArc
 50
148.7760309265376
 51
156.8774839002187
  0
ARC
  5
52F
330
272
100
AcDbEntity
  8
3
100
AcDbCircle
 10
240.2410502605402
 20
756.4260350617892
 30
0.0
 40
1.827048615248811
100
AcDbArc
 50
68.5575341086853
 51
157.7707725197776
  0
ARC
  5
530
330
272
100
AcDbEntity
  8
3
100
AcDbCircle
 10
293.2458004893149
 20
805.6214993287467
 30
0.0
 40
20.31343283582133
100
AcDbArc
 50
88.4805643070287
 51
175.51943569297
  0
ARC
  5
531
330
272
100
AcDbEntity
  8
3
100
AcDbCircle
 10
395.4130557587344
 20
692.153267020781
 30
0.0
 40
168.0
100
AcDbArc
 50
136.7760309265375
 51
139.2239690734619
  0
ARC
  5
532
330
272
100
AcDbEntity
  8
3
100
AcDbCircle
 10
395.4130557587344
 20
692.153267020781
 30
0.0
 40
168.0
100
AcDbArc
 50
124.776030926538
 51
127.2239690734629
  0
ARC
  5
535
330
272
100
AcDbEntity
  8
3
100
AcDbCircle
 10
395.4130557587344
 20
692.153267020781
 30
0.0
 40
168.0
100
AcDbArc
 50
112.776030926537
 51
115.2239690734635
  0
LINE
  5
536
330
272
100
AcDbEntity
  8
3
100
AcDbLine
 10
378.4130557587344
 20
729.4627832331362
 30
0.0
 11
380.4130557587344
 21
859.4822842293929
 31
0.0
  0
ARC
  5
53A
330
272
100
AcDbEntity
  8
3
100
AcDbCircle
 10
395.4130557587344
 20
687.7929656048993
 30
0.0
 40
44.13626377010093
100
AcDbArc
 50
90.0
 51
111.5665541421901
  0
ARC
  5
53B
330
272
100
AcDbEntity
  8
3
100
AcDbCircle
 10
399.5599488333197
 20
690.8058597826761
 30
0.0
 40
44.13626377010093
100
AcDbArc
 50
140.4334458578095
 51
183.5665541421907
  0
ARC
  5
53C
330
272
100
AcDbEntity
  8
3
100
AcDbCircle
 10
395.4130557587344
 20
692.153267020781
 30
0.0
 40
41.0
100
AcDbArc
 50
186.4962790511785
 51
209.5037209488214
  0
ARC
  5
53D
330
272
100
AcDbEntity
  8
3
100
AcDbCircle
 10
360.2466972235727
 20
671.5793092948699
 30
0.0
 40
0.6429101967577746
100
AcDbArc
 50
42.02191237604789
 51
143.5158839287191
  0
ARC
  5
53E
330
272
100
AcDbEntity
  8
3
100
AcDbCircle
 10
354.8698051409268
 20
688.1276815387965
 30
0.0
 40
0.6429101967577746
100
AcDbArc
 50
252.4841160712806
 51
353.9780876239525
  0
ARC
  5
53F
330
272
100
AcDbEntity
  8
3
100
AcDbCircle
 10
395.4130557587344
 20
692.153267020781
 30
0.0
 40
41.0
100
AcDbArc
 50
114.4962790511772
 51
137.503720948822
  0
ARC
  5
540
330
272
100
AcDbEntity
  8
3
100
AcDbCircle
 10
364.9790567798784
 20
719.2407588811599
 30
0.0
 40
0.6429101967577746
100
AcDbArc
 50
330.0219123760471
 51
71.51588392872027
  0
ARC
  5
541
330
272
100
AcDbEntity
  8
3
100
AcDbCircle
 10
379.055943006085
 20
729.4682153863922
 30
0.0
 40
0.6429101967577746
100
AcDbArc
 50
180.4841160712789
 51
281.9780876239531
  0
ARC
  5
552
330
272
100
AcDbEntity
  8
3
100
AcDbCircle
 10
395.4130557587344
 20
868.1532670207809
 30
0.0
 40
16.0
100
AcDbArc
 50
189.5313876436234
 51
270.0
  0
ARC
  5
554
330
272
100
AcDbEntity
  8
3
100
AcDbCircle
 10
348.2303116922314
 20
837.3668216730106
 30
0.0
 40
20.31343283582125
100
AcDbArc
 50
64.48056430702823
 51
151.5194356929717
  0
ARC
  5
555
330
272
100
AcDbEntity
  8
3
100
AcDbCircle
 10
369.0203661913084
 20
863.4191394985199
 30
0.0
 40
10.81637228077204
100
AcDbArc
 50
9.225721362597292
 51
90.5684471274248
  0
ARC
  5
556
330
272
100
AcDbEntity
  8
3
100
AcDbCircle
 10
395.4130557587344
 20
692.153267020781
 30
0.0
 40
168.0
100
AcDbArc
 50
95.12251609978138
 51
103.2239690734613
  0
ARC
  5
557
330
272
100
AcDbEntity
  8
3
100
AcDbCircle
 10
382.2368076431911
 20
859.5919915966165
 30
0.0
 40
1.827048615248811
100
AcDbArc
 50
128.7641608500332
 51
183.4424658913159
  0
ARC
  5
55A
330
272
100
AcDbEntity
  8
3
100
AcDbCircle
 10
395.4130557587344
 20
868.1532670207809
 30
0.0
 40
7.0
100
AcDbArc
 50
90.0
 51
270.0
  0
ARC
  5
55B
330
272
100
AcDbEntity
  8
3
100
AcDbCircle
 10
395.4130557587344
 20
868.1532670207809
 30
0.0
 40
11.05
100
AcDbArc
 50
90.0
 51
270.0
  0
ARC
  5
55C
330
272
100
AcDbEntity
  8
0
100
AcDbCircle
 10
395.4130557587344
 20
868.1532670207809
 30
0.0
 40
8.0
100
AcDbArc
 50
90.0
 51
270.0
  0
LINE
  5
562
330
272
100
AcDbEntity
  8
3
100
AcDbLine
 10
716.4130557587344
 20
634.9369526503704
 30
0.0
 11
716.4130557587344
 21
692.153267020781
 31
0.0
  0
LINE
  5
563
330
272
100
AcDbEntity
  8
3
100
AcDbLine
 10
769.4130557587344
 20
692.153267020781
 30
0.0
 11
769.4130557587344
 21
663.153267020781
 31
0.0
  0
LINE
  5
564
330
272
100
AcDbEntity
  8
3
100
AcDbLine
 10
717.4130557587345
 20
655.153267020781
 30
0.0
 11
717.4130557587345
 21
692.153267020781
 31
0.0
  0
LINE
  5
565
330
272
100
AcDbEntity
  8
3
100
AcDbLine
 10
684.4130557587343
 20
692.153267020781
 30
0.0
 11
684.4130557587343
 21
508.1532670207809
 31
0.0
  0
LINE
  5
566
330
272
100
AcDbEntity
  8
1
100
AcDbLine
 10
700.4130557587343
 20
692.153267020781
 30
0.0
 11
700.4130557587343
 21
486.1532670207808
 31
0.0
  0
LINE
  5
568
330
272
100
AcDbEntity
  8
3
100
AcDbLine
 10
708.8566371589917
 20
565.2699747697108
 30
0.0
 11
739.2229292111793
 21
651.9330587481909
 31
0.0
  0
LINE
  5
569
330
272
100
AcDbEntity
  8
3
100
AcDbLine
 10
694.9130557587343
 20
567.653267020781
 30
0.0
 11
722.1685658155316
 21
652.9486702922071
 31
0.0
  0
LINE
  5
56A
330
272
100
AcDbEntity
  8
3
100
AcDbLine
 10
716.4130557587344
 20
508.1532670207809
 30
0.0
 11
716.4130557587344
 21
586.8354177470953
 31
0.0
  0
ARC
  5
56B
330
272
100
AcDbEntity
  8
3
100
AcDbCircle
 10
700.4130557587343
 20
508.1532670207809
 30
0.0
 40
16.0
100
AcDbArc
 50
180.0
 51
0.0
  0
ARC
  5
56C
330
272
100
AcDbEntity
  8
3
100
AcDbCircle
 10
700.4130557587343
 20
510.6532670207808
 30
0.0
 40
13.5
100
AcDbArc
 50
4.161763508533096
 51
175.8382364914668
  0
ARC
  5
56D
330
272
100
AcDbEntity
  8
3
100
AcDbCircle
 10
682.7159557469119
 20
512.0535843314785
 30
0.0
 40
4.25354247354558
100
AcDbArc
 50
293.5147466554192
 51
354.3253657151272
  0
ARC
  5
56E
330
272
100
AcDbEntity
  8
3
100
AcDbCircle
 10
718.1101557705568
 20
512.0535843314785
 30
0.0
 40
4.25354247354558
100
AcDbArc
 50
185.6746342848726
 51
246.4852533445822
  0
ARC
  5
56F
330
272
100
AcDbEntity
  8
3
100
AcDbCircle
 10
742.661019215729
 20
557.5055029693622
 30
0.0
 40
34.684625824366
100
AcDbArc
 50
167.0641972429903
 51
181.9480030643001
  0
ELLIPSE
  5
570
330
272
100
AcDbEntity
  8
3
100
AcDbEllipse
 10
700.4130557587343
 20
556.7812484469584
 30
0.0
 11
0.0
 21
-8.816778784389981
 31
0.0
210
0.0
220
0.0
230
1.0
 40
0.8506508083517616
 41
4.627202015184103
 42
7.801545889647901
  0
ARC
  5
571
330
272
100
AcDbEntity
  8
3
100
AcDbCircle
 10
719.6630557587345
 20
557.5032670207808
 30
0.0
 40
26.75042055744171
100
AcDbArc
 50
157.7014164294856
 51
179.6787186224741
  0
ARC
  5
573
330
272
100
AcDbEntity
  8
3
100
AcDbCircle
 10
732.4130557587344
 20
681.2782670207809
 30
0.0
 40
30.125
100
AcDbArc
 50
240.137165643725
 51
299.8628343562749
  0
ARC
  5
575
330
272
100
AcDbEntity
  8
3
100
AcDbCircle
 10
764.4130557587344
 20
663.153267020781
 30
0.0
 40
5.0
100
AcDbArc
 50
270.0
 51
0.0
  0
LINE
  5
576
330
272
100
AcDbEntity
  8
3
100
AcDbLine
 10
764.4130557587344
 20
658.1532670207809
 30
0.0
 11
747.4130557587344
 21
658.1532670207809
 31
0.0
  0
LINE
  5
577
330
272
100
AcDbEntity
  8
3
100
AcDbLine
 10
747.4130557587344
 20
658.1532670207809
 30
0.0
 11
747.4130557587344
 21
655.153267020781
 31
0.0
  0
LINE
  5
57A
330
272
100
AcDbEntity
  8
3
100
AcDbLine
 10
723.2787869731169
 20
738.2226110983154
 30
0.0
 11
693.8818197075175
 21
852.1532670207809
 31
0.0
  0
LINE
  5
57B
330
272
100
AcDbEntity
  8
3
100
AcDbLine
 10
740.1931408644762
 20
738.7934454340397
 30
0.0
 11
708.6329706529926
 21
853.2185963819934
 31
0.0
  0
LINE
  5
57C
330
272
100
AcDbEntity
  8
3
100
AcDbLine
 10
716.4130557587344
 20
876.153267020781
 30
0.0
 11
716.4130557587344
 21
825.0109724481873
 31
0.0
  0
LINE
  5
57D
330
272
100
AcDbEntity
  8
3
100
AcDbLine
 10
684.4130557587343
 20
692.153267020781
 30
0.0
 11
684.4130557587343
 21
876.153267020781
 31
0.0
  0
LINE
  5
57E
330
272
100
AcDbEntity
  8
1
100
AcDbLine
 10
700.4130557587343
 20
692.153267020781
 30
0.0
 11
700.4130557587343
 21
898.153267020781
 31
0.0
  0
LINE
  5
582
330
272
100
AcDbEntity
  8
1
100
AcDbLine
 10
678.2174354087089
 20
692.153267020781
 30
0.0
 11
775.301432316368
 21
692.153267020781
 31
0.0
  0
LINE
  5
58A
330
272
100
AcDbEntity
  8
3
100
AcDbLine
 10
716.4130557587344
 20
764.8313851794881
 30
0.0
 11
716.4130557587342
 21
740.4253488328533
 31
0.0
  0
ELLIPSE
  5
58B
330
272
100
AcDbEntity
  8
3
100
AcDbEllipse
 10
700.4130557587343
 20
743.8607769903003
 30
0.0
 11
0.0
 21
14.26584774442744
 31
0.0
210
0.0
220
0.0
230
1.0
 40
0.5201342147522333
 41
5.546993124310102
 42
8.032545038808239
  0
LINE
  5
58C
330
272
100
AcDbEntity
  8
3
100
AcDbLine
 10
697.0785071925247
 20
729.2848848752099
 30
0.0
 11
717.4130557587345
 21
703.3483012394139
 31
0.0
  0
LINE
  5
58D
330
272
100
AcDbEntity
  8
3
100
AcDbLine
 10
717.4130557587345
 20
729.1532670207809
 30
0.0
 11
717.4130557587345
 21
692.153267020781
 31
0.0
  0
LINE
  5
58E
330
272
100
AcDbEntity
  8
3
100
AcDbLine
 10
716.4130557587342
 20
704.6237946958505
 30
0.0
 11
716.4130557587344
 21
692.153267020781
 31
0.0
  0
ARC
  5
58F
330
272
100
AcDbEntity
  8
3
100
AcDbCircle
 10
797.2341746980831
 20
816.581166332681
 30
0.0
 40
110.8758323633106
100
AcDbArc
 50
213.5296178003429
 51
221.6725640378507
  0
ARC
  5
590
330
272
100
AcDbEntity
  8
3
100
AcDbCircle
 10
712.80405246417
 20
741.1520254948753
 30
0.0
 40
19.70080710472224
100
AcDbArc
 50
179.8401261214492
 51
217.0396997270909
  0
LINE
  5
591
330
272
100
AcDbEntity
  8
3
100
AcDbLine
 10
714.4147354086088
 20
742.862846506236
 30
0.0
 11
723.4845459108024
 21
731.7997344302715
 31
0.0
  0
ARC
  5
592
330
272
100
AcDbEntity
  8
3
100
AcDbCircle
 10
703.9130557587344
 20
733.2257666408321
 30
0.0
 40
20.0
100
AcDbArc
 50
0.0
 51
14.46817594822357
  0
ARC
  5
593
330
272
100
AcDbEntity
  8
3
100
AcDbCircle
 10
732.4130557587344
 20
703.0282670207809
 30
0.0
 40
30.125
100
AcDbArc
 50
106.3890238751995
 51
119.862834356275
  0
LINE
  5
594
330
272
100
AcDbEntity
  8
3
100
AcDbLine
 10
723.9130557587344
 20
731.9292293750002
 30
0.0
 11
723.9130557587344
 21
733.2257666408321
 31
0.0
  0
LINE
  5
595
330
272
100
AcDbEntity
  8
3
100
AcDbLine
 10
769.4130557587344
 20
692.153267020781
 30
0.0
 11
769.4130557587344
 21
721.1532670207809
 31
0.0
  0
ARC
  5
598
330
272
100
AcDbEntity
  8
3
100
AcDbCircle
 10
764.4130557587344
 20
721.1532670207809
 30
0.0
 40
5.0
100
AcDbArc
 50
0.0
 51
90.0
  0
ARC
  5
599
330
272
100
AcDbEntity
  8
3
100
AcDbCircle
 10
720.9130557587344
 20
733.4757092319186
 30
0.0
 40
20.0
100
AcDbArc
 50
0.0
 51
15.41965385048361
  0
LINE
  5
59A
330
272
100
AcDbEntity
  8
3
100
AcDbLine
 10
764.4130557587344
 20
726.153267020781
 30
0.0
 11
747.4130557587344
 21
726.153267020781
 31
0.0
  0
ARC
  5
59B
330
272
100
AcDbEntity
  8
3
100
AcDbCircle
 10
732.4130557587344
 20
703.0282670207809
 30
0.0
 40
30.125
100
AcDbArc
 50
60.13716564372499
 51
73.61097612480048
  0
LINE
  5
59C
330
272
100
AcDbEntity
  8
3
100
AcDbLine
 10
740.9130557587344
 20
731.9292293750002
 30
0.0
 11
740.9130557587344
 21
733.4757092319186
 31
0.0
  0
LINE
  5
59D
330
272
100
AcDbEntity
  8
3
100
AcDbLine
 10
747.4130557587344
 20
726.153267020781
 30
0.0
 11
747.4130557587344
 21
729.1532670207809
 31
0.0
  0
LINE
  5
5A8
330
272
100
AcDbEntity
  8
1
100
AcDbLine
 10
678.4244571796124
 20
868.1532670207809
 30
0.0
 11
726.0675736234519
 21
868.1532670207809
 31
0.0
  0
ARC
  5
5AD
330
272
100
AcDbEntity
  8
3
100
AcDbCircle
 10
700.4130557587343
 20
876.153267020781
 30
0.0
 40
16.0
100
AcDbArc
 50
0.0
 51
180.0
  0
LINE
  5
5AE
330
272
100
AcDbEntity
  8
0
100
AcDbLine
 10
716.4130557587339
 20
876.153267020781
 30
0.0
 11
686.4130557587343
 21
876.1532670207808
 31
0.0
  0
LINE
  5
5AF
330
272
100
AcDbEntity
  8
0
100
AcDbLine
 10
686.4130557587343
 20
860.1532670207808
 30
0.0
 11
713.8774580251484
 21
860.1532670207809
 31
0.0
  0
LINE
  5
5B0
330
272
100
AcDbEntity
  8
3
100
AcDbLine
 10
714.9987600915206
 20
875.153267020781
 30
0.0
 11
686.4130557587343
 21
875.1532670207808
 31
0.0
  0
LINE
  5
5B1
330
272
100
AcDbEntity
  8
3
100
AcDbLine
 10
686.4130557587343
 20
861.1532670207809
 30
0.0
 11
713.8774580251484
 21
861.1532670207809
 31
0.0
  0
LINE
  5
5B2
330
272
100
AcDbEntity
  8
3
100
AcDbLine
 10
713.8774580251484
 20
855.1532670207809
 30
0.0
 11
708.4243991689922
 21
854.0427522379877
 31
0.0
  0
LINE
  5
5B3
330
272
100
AcDbEntity
  8
3
100
AcDbLine
 10
686.4130557587343
 20
857.1032670207809
 30
0.0
 11
686.4130557587343
 21
879.2032670207809
 31
0.0
  0
LINE
  5
5B4
330
272
100
AcDbEntity
  8
3
100
AcDbLine
 10
684.4130557587343
 20
852.1532670207809
 30
0.0
 11
693.8818197075175
 21
852.1532670207809
 31
0.0
  0
LINE
  5
5B5
330
272
100
AcDbEntity
  8
3
100
AcDbLine
 10
684.4130557587343
 20
857.1032670207809
 30
0.0
 11
686.4130557587343
 21
857.1032670207809
 31
0.0
  0
ARC
  5
5B6
330
272
100
AcDbEntity
  8
3
100
AcDbCircle
 10
727.9130557587344
 20
858.5363325841145
 30
0.0
 40
20.0
100
AcDbArc
 50
192.9840039502525
 51
195.4196538504836
  0
LINE
  5
5B7
330
272
100
AcDbEntity
  8
3
100
AcDbLine
 10
686.4130557587343
 20
879.2032670207809
 30
0.0
 11
684.7064488686387
 21
879.2032670207809
 31
0.0
  0
LINE
  5
5B8
330
272
100
AcDbEntity
  8
3
100
AcDbLine
 10
713.8774580251484
 20
872.6735366455342
 30
0.0
 11
713.8774580251484
 21
855.1532670207809
 31
0.0
  0
ARC
  5
5B9
330
272
100
AcDbEntity
  8
3
100
AcDbCircle
 10
718.1101557705568
 20
872.2529497100834
 30
0.0
 40
4.25354247354558
100
AcDbArc
 50
113.5147466554192
 51
174.3253657151273
  0
ARC
  5
6CF
330
272
100
AcDbEntity
  8
3
100
AcDbCircle
 10
395.4130557587344
 20
692.153267020781
 30
0.0
 40
34.0
100
AcDbArc
 50
90.0
 51
270.0
  0
ARC
  5
6D0
330
272
100
AcDbEntity
  8
3
100
AcDbCircle
 10
395.4130557587344
 20
692.153267020781
 30
0.0
 40
200.0
100
AcDbArc
 50
90.0
 51
270.0
  0
LINE
  5
6D1
330
272
100
AcDbEntity
  8
1
100
AcDbLine
 10
395.4130557587344
 20
868.1532670207809
 30
0.0
 11
357.4130557587344
 21
868.1532670207809
 31
0.0
  0
ARC
  5
6D2
330
272
100
AcDbEntity
  8
3
100
AcDbCircle
 10
395.4130557587344
 20
692.153267020781
 30
0.0
 40
184.0
100
AcDbArc
 50
270.0
 51
81.7193656211163
  0
ARC
  5
6D3
330
272
100
AcDbEntity
  8
3
100
AcDbCircle
 10
518.9390834073265
 20
602.4063546185126
 30
0.0
 40
20.31343283582136
100
AcDbArc
 50
280.4805643070284
 51
7.51943569297213
  0
LINE
  5
6D4
330
272
100
AcDbEntity
  8
3
100
AcDbLine
 10
403.5897502541498
 20
651.9768850641064
 30
0.0
 11
481.6313294389259
 21
547.9644696625692
 31
0.0
  0
LINE
  5
6D5
330
272
100
AcDbEntity
  8
1
100
AcDbLine
 10
395.4130557587344
 20
692.153267020781
 30
0.0
 11
520.0981602824787
 21
520.5389434022406
 31
0.0
  0
LINE
  5
6D6
330
272
100
AcDbEntity
  8
3
100
AcDbLine
 10
431.096328062898
 20
671.9615836420505
 30
0.0
 11
505.9018392701744
 21
565.5980272313435
 31
0.0
  0
ARC
  5
6D7
330
272
100
AcDbEntity
  8
3
100
AcDbCircle
 10
443.8581178475046
 20
625.4743594256936
 30
0.0
 40
87.85536538672335
100
AcDbArc
 50
297.2855427741287
 51
314.7144572258705
  0
ARC
  5
6D8
330
272
100
AcDbEntity
  8
3
100
AcDbCircle
 10
395.4130557587343
 20
692.153267020781
 30
0.0
 40
168.0
100
AcDbArc
 50
311.1225160997806
 51
319.2239690734619
  0
ARC
  5
6D9
330
272
100
AcDbEntity
  8
3
100
AcDbCircle
 10
504.490877374647
 20
564.4372976453263
 30
0.0
 40
1.827048615248811
100
AcDbArc
 50
310.2292274802206
 51
39.44246589131632
  0
ARC
  5
6DA
330
272
100
AcDbEntity
  8
3
100
AcDbCircle
 10
395.4130557587343
 20
692.153267020781
 30
0.0
 40
168.0
100
AcDbArc
 50
280.7760309265376
 51
283.2239690734629
  0
ARC
  5
6DB
330
272
100
AcDbEntity
  8
3
100
AcDbCircle
 10
442.5957998252374
 20
546.9397123685512
 30
0.0
 40
20.31343283582125
100
AcDbArc
 50
244.4805643070282
 51
331.5194356929718
  0
ARC
  5
6DC
330
272
100
AcDbEntity
  8
3
100
AcDbCircle
 10
395.4130557587343
 20
692.153267020781
 30
0.0
 40
168.0
100
AcDbArc
 50
292.776030926537
 51
300.8774839002193
  0
ARC
  5
6DD
330
272
100
AcDbEntity
  8
3
100
AcDbCircle
 10
483.1712600794962
 20
548.9476889996007
 30
0.0
 40
1.827048615248811
100
AcDbArc
 50
212.5575341086845
 51
301.7707725197786
  0
ARC
  5
6DE
330
272
100
AcDbEntity
  8
3
100
AcDbCircle
 10
395.4130557587343
 20
692.153267020781
 30
0.0
 40
168.0
100
AcDbArc
 50
270.0
 51
271.2239690734621
  0
ARC
  5
6DF
330
272
100
AcDbEntity
  8
3
100
AcDbCircle
 10
411.3731479860192
 20
540.3031328473867
 30
0.0
 40
20.3134328358212
100
AcDbArc
 50
232.4805643070286
 51
319.5194356929726
  0
LINE
  5
6E0
330
272
100
AcDbEntity
  8
1
100
AcDbLine
 10
600.4130557587343
 20
692.153267020781
 30
0.0
 11
395.4130557587351
 21
692.1532670207808
 31
0.0
  0
LINE
  5
6E1
330
272
100
AcDbEntity
  8
1
100
AcDbLine
 10
395.4130557587343
 20
692.153267020781
 30
0.0
 11
591.5373376158887
 21
755.8779091057044
 31
0.0
  0
ARC
  5
6E2
330
272
100
AcDbEntity
  8
3
100
AcDbCircle
 10
471.7563393408237
 20
824.3837130015986
 30
0.0
 40
20.3134328358212
100
AcDbArc
 50
16.48056430702847
 51
103.5194356929721
  0
LINE
  5
6E3
330
272
100
AcDbEntity
  8
3
100
AcDbLine
 10
436.1498031766885
 20
687.5145808052891
 30
0.0
 11
559.1876628558728
 21
729.5949292458731
 31
0.0
  0
LINE
  5
6E4
330
272
100
AcDbEntity
  8
3
100
AcDbLine
 10
425.6432253679403
 20
719.8505023593242
 30
0.0
 11
549.9171530246244
 21
758.1266247347278
 31
0.0
  0
ARC
  5
6E5
330
272
100
AcDbEntity
  8
3
100
AcDbCircle
 10
518.9390834073265
 20
781.9001794230492
 30
0.0
 40
20.31343283582136
100
AcDbArc
 50
352.4805643070279
 51
79.51943569297158
  0
ARC
  5
6E6
330
272
100
AcDbEntity
  8
3
100
AcDbCircle
 10
548.0996229229129
 20
692.153267020781
 30
0.0
 40
20.31343283582125
100
AcDbArc
 50
316.4805643070273
 51
43.51943569297266
  0
ARC
  5
6E7
330
272
100
AcDbEntity
  8
3
100
AcDbCircle
 10
534.8991756346115
 20
630.050045249655
 30
0.0
 40
20.31343283582133
100
AcDbArc
 50
292.480564307028
 51
19.51943569297334
  0
ARC
  5
6E8
330
272
100
AcDbEntity
  8
3
100
AcDbCircle
 10
544.7630550946566
 20
660.4079446765171
 30
0.0
 40
20.3134328358212
100
AcDbArc
 50
304.480564307028
 51
31.51943569297229
  0
ARC
  5
6E9
330
272
100
AcDbEntity
  8
3
100
AcDbCircle
 10
395.4130557587343
 20
692.153267020781
 30
0.0
 40
168.0
100
AcDbArc
 50
340.7760309265372
 51
343.223969073462
  0
ARC
  5
6EA
330
272
100
AcDbEntity
  8
3
100
AcDbCircle
 10
395.4130557587343
 20
692.153267020781
 30
0.0
 40
168.0
100
AcDbArc
 50
352.7760309265389
 51
355.2239690734641
  0
ARC
  5
6EB
330
272
100
AcDbEntity
  8
3
100
AcDbCircle
 10
395.4130557587343
 20
692.153267020781
 30
0.0
 40
168.0
100
AcDbArc
 50
328.7760309265376
 51
331.2239690734629
  0
ARC
  5
6EC
330
272
100
AcDbEntity
  8
3
100
AcDbCircle
 10
473.7988128054639
 20
717.6223433893905
 30
0.0
 40
87.85536538672335
100
AcDbArc
 50
9.285542774129167
 51
26.71445722587041
  0
ARC
  5
6ED
330
272
100
AcDbEntity
  8
3
100
AcDbCircle
 10
395.4130557587343
 20
692.153267020781
 30
0.0
 40
168.0
100
AcDbArc
 50
4.77603092653595
 51
12.87748390021971
  0
ARC
  5
6EE
330
272
100
AcDbEntity
  8
3
100
AcDbCircle
 10
558.728430436536
 20
731.3633218005707
 30
0.0
 40
1.827048615248811
100
AcDbArc
 50
284.5575341086851
 51
13.77077251977905
  0
ARC
  5
6EF
330
272
100
AcDbEntity
  8
3
100
AcDbCircle
 10
395.4130557587344
 20
692.153267020781
 30
0.0
 40
168.0
100
AcDbArc
 50
23.12251609978124
 51
31.22396907346239
  0
ARC
  5
6F0
330
272
100
AcDbEntity
  8
3
100
AcDbCircle
 10
550.5850612569286
 20
756.4260350617892
 30
0.0
 40
1.827048615248811
100
AcDbArc
 50
22.22922748022235
 51
111.4424658913147
  0
ARC
  5
6F1
330
272
100
AcDbEntity
  8
3
100
AcDbCircle
 10
395.4130557587344
 20
692.153267020781
 30
0.0
 40
168.0
100
AcDbArc
 50
40.77603092653808
 51
43.22396907346242
  0
ARC
  5
6F2
330
272
100
AcDbEntity
  8
3
100
AcDbCircle
 10
497.5803110281538
 20
805.6214993287467
 30
0.0
 40
20.31343283582133
100
AcDbArc
 50
4.480564307029959
 51
91.51943569297129
  0
ARC
  5
6F3
330
272
100
AcDbEntity
  8
3
100
AcDbCircle
 10
395.4130557587344
 20
692.153267020781
 30
0.0
 40
168.0
100
AcDbArc
 50
52.77603092653709
 51
55.22396907346196
  0
LINE
  5
6F4
330
272
100
AcDbEntity
  8
3
100
AcDbLine
 10
412.4130557587344
 20
729.4627832331362
 30
0.0
 11
410.4130557587343
 21
859.4822842293929
 31
0.0
  0
ARC
  5
6F5
330
272
100
AcDbEntity
  8
3
100
AcDbCircle
 10
395.4130557587344
 20
692.153267020781
 30
0.0
 40
34.0
100
AcDbArc
 50
270.0
 51
90.0
  0
ARC
  5
6F6
330
272
100
AcDbEntity
  8
3
100
AcDbCircle
 10
391.2661626841491
 20
690.8058597826761
 30
0.0
 40
44.13626377010093
100
AcDbArc
 50
356.4334458578092
 51
39.56655414219044
  0
ARC
  5
6F7
330
272
100
AcDbEntity
  8
3
100
AcDbCircle
 10
392.850134890929
 20
695.680824966826
 30
0.0
 40
44.13626377010093
100
AcDbArc
 50
284.4334458578084
 51
327.5665541421904
  0
ARC
  5
6F8
330
272
100
AcDbEntity
  8
3
100
AcDbCircle
 10
435.956306376542
 20
688.1276815387965
 30
0.0
 40
0.6429101967577746
100
AcDbArc
 50
186.0219123760474
 51
287.5158839287193
  0
ARC
  5
6F9
330
272
100
AcDbEntity
  8
3
100
AcDbCircle
 10
430.579414293896
 20
671.5793092948699
 30
0.0
 40
0.6429101967577746
100
AcDbArc
 50
36.4841160712809
 51
137.978087623952
  0
ARC
  5
6FA
330
272
100
AcDbEntity
  8
3
100
AcDbCircle
 10
395.4130557587344
 20
692.153267020781
 30
0.0
 40
41.0
100
AcDbArc
 50
330.4962790511784
 51
353.5037209488214
  0
ARC
  5
6FB
330
272
100
AcDbEntity
  8
3
100
AcDbCircle
 10
395.4130557587344
 20
692.153267020781
 30
0.0
 40
41.0
100
AcDbArc
 50
270.0
 51
281.5037209488221
  0
ARC
  5
6FC
330
272
100
AcDbEntity
  8
3
100
AcDbCircle
 10
404.1130499022951
 20
652.3503700026851
 30
0.0
 40
0.6429101967577746
100
AcDbArc
 50
114.0219123760481
 51
215.5158839287192
  0
ARC
  5
6FD
330
272
100
AcDbEntity
  8
3
100
AcDbCircle
 10
395.4130557587344
 20
687.7929656048993
 30
0.0
 40
44.13626377010093
100
AcDbArc
 50
68.43344585780989
 51
90.0
  0
ARC
  5
6FE
330
272
100
AcDbEntity
  8
3
100
AcDbCircle
 10
395.4130557587344
 20
692.153267020781
 30
0.0
 40
41.0
100
AcDbArc
 50
42.49627905117797
 51
65.50372094882272
  0
ARC
  5
6FF
330
272
100
AcDbEntity
  8
3
100
AcDbCircle
 10
425.8470547375903
 20
719.2407588811599
 30
0.0
 40
0.6429101967577746
100
AcDbArc
 50
108.4841160712797
 51
209.9780876239528
  0
ARC
  5
700
330
272
100
AcDbEntity
  8
3
100
AcDbCircle
 10
411.7701685113837
 20
729.4682153863922
 30
0.0
 40
0.6429101967577746
100
AcDbArc
 50
258.0219123760469
 51
359.515883928721
  0
LINE
  5
701
330
272
100
AcDbEntity
  8
1
100
AcDbLine
 10
395.4130557587344
 20
868.1532670207809
 30
0.0
 11
433.4130557587344
 21
868.1532670207809
 31
0.0
  0
ARC
  5
702
330
272
100
AcDbEntity
  8
3
100
AcDbCircle
 10
395.4130557587344
 20
692.153267020781
 30
0.0
 40
168.0
100
AcDbArc
 50
76.7760309265386
 51
84.87748390021863
  0
ARC
  5
703
330
272
100
AcDbEntity
  8
3
100
AcDbCircle
 10
442.5957998252373
 20
837.3668216730106
 30
0.0
 40
20.31343283582125
100
AcDbArc
 50
28.48056430702824
 51
115.5194356929717
  0
ARC
  5
704
330
272
100
AcDbEntity
  8
3
100
AcDbCircle
 10
395.4130557587344
 20
692.153267020781
 30
0.0
 40
168.0
100
AcDbArc
 50
64.77603092653644
 51
67.22396907346298
  0
ARC
  5
705
330
272
100
AcDbEntity
  8
0
100
AcDbCircle
 10
395.4130557587344
 20
868.1532670207809
 30
0.0
 40
8.0
100
AcDbArc
 50
270.0
 51
90.0
  0
ARC
  5
706
330
272
100
AcDbEntity
  8
3
100
AcDbCircle
 10
395.4130557587344
 20
868.1532670207809
 30
0.0
 40
7.0
100
AcDbArc
 50
270.0
 51
90.0
  0
ARC
  5
707
330
272
100
AcDbEntity
  8
3
100
AcDbCircle
 10
395.4130557587344
 20
868.1532670207809
 30
0.0
 40
11.05
100
AcDbArc
 50
270.0
 51
90.0
  0
ARC
  5
708
330
272
100
AcDbEntity
  8
3
100
AcDbCircle
 10
395.4130557587344
 20
868.1532670207809
 30
0.0
 40
16.0
100
AcDbArc
 50
270.0
 51
350.4686123563766
  0
ARC
  5
709
330
272
100
AcDbEntity
  8
3
100
AcDbCircle
 10
421.8057453261604
 20
863.4191394985199
 30
0.0
 40
10.81637228077204
100
AcDbArc
 50
89.43155287257521
 51
170.7742786374027
  0
ARC
  5
70A
330
272
100
AcDbEntity
  8
3
100
AcDbCircle
 10
408.5893038742776
 20
859.5919915966165
 30
0.0
 40
1.827048615248811
100
AcDbArc
 50
356.5575341086841
 51
51.23583914996678
  0
ARC
  5
70B
330
272
100
AcDbEntity
  8
3
100
AcDbCircle
 10
395.4130557587344
 20
692.153267020781
 30
0.0
 40
200.0
100
AcDbArc
 50
270.0
 51
90.0
  0
ENDSEC
  0
SECTION
  2
OBJECTS
  0
DICTIONARY
  5
267
330
0
100
AcDbDictionary
281
     1
  3
ACAD_GROUP
350
268
  3
ACAD_LAYOUT
350
299
  3
ACAD_MLINESTYLE
350
275
  3
ACAD_PLOTSETTINGS
350
29A
  3
ACAD_PLOTSTYLENAME
350
297
  3
ACDBVARIABLEDICTIONARY
350
28A
  3
AcmDictionary
350
357
  3
AMG
350
29E
  3
AMGSNAPSETTINGS
350
374
  3
DWGPROPS
350
38A
  3
MAPISURF_MODULE
350
32A
  0
DICTIONARY
  5
70C
330
272
100
AcDbDictionary
280
     1
281
     1
  3
ACAD_INDEX
360
70D
  0
DICTIONARY
  5
268
102
{ACAD_REACTORS
330
267
102
}
330
267
100
AcDbDictionary
281
     1
  0
DICTIONARY
  5
299
102
{ACAD_REACTORS
330
267
102
}
330
267
100
AcDbDictionary
281
     1
  3
Model
350
29B
  3
ﾚｲｱｳﾄ1
350
29C
  0
DICTIONARY
  5
275
102
{ACAD_REACTORS
330
267
102
}
330
267
100
AcDbDictionary
281
     1
  3
STANDARD
350
276
  0
DICTIONARY
  5
29A
102
{ACAD_REACTORS
330
267
102
}
330
267
100
AcDbDictionary
281
     1
  0
ACDBDICTIONARYWDFLT
  5
297
102
{ACAD_REACTORS
330
267
102
}
330
267
100
AcDbDictionary
281
     1
  3
Normal
350
298
100
AcDbDictionaryWithDefault
340
298
  0
DICTIONARY
  5
28A
102
{ACAD_REACTORS
330
267
102
}
330
267
100
AcDbDictionary
281
     1
  3
DIMADEC
350
28B
  3
DIMASSOC
350
717
  3
INDEXCTL
350
716
  0
DICTIONARY
  5
357
102
{ACAD_REACTORS
330
267
102
}
330
267
100
AcDbDictionary
281
     1
  3
AcmBOMDATA
350
358
  3
AcmStdDictionary
350
4DE
  0
DICTIONARY
  5
29E
102
{ACAD_REACTORS
330
267
102
}
330
267
100
AcDbDictionary
281
     1
  3
AcMgSettings
350
29F
  3
AMGLAYCFG
350
364
  0
DICTIONARY
  5
374
102
{ACAD_REACTORS
330
267
102
}
330
267
100
AcDbDictionary
281
     1
  3
DIMENSION
350
379
  3
FEA
350
378
  3
HATCH (1)
350
375
  3
HATCH (2)
350
376
  3
SIMPLE WELD
350
37A
  3
SYMBOLS
350
377
  0
XRECORD
  5
38A
102
{ACAD_REACTORS
330
267
102
}
330
267
100
AcDbXrecord
280
     1
  1
DWGPROPS COOKIE
  2

  3

  4

  6

  7

  8

  9

300
AmdtFileType=84
301
=
302
=
303
=
304
=
305
=
306
=
307
=
308
=
309
=
 40
0.0017493055555556
 41
2450863.98133206
 42
2453551.65306441
  1

 90
        1
  0
DICTIONARY
  5
70D
102
{ACAD_REACTORS
330
70C
102
}
330
70C
100
AcDbDictionary
281
     1
  3
*A1
350
70E
  0
LAYOUT
  5
29B
102
{ACAD_REACTORS
330
299
102
}
330
299
100
AcDbPlotSettings
  1

  2
\\KONISHIDENXP\SHARP MX-2700FG
  4

  6

 40
0.0
 41
0.0
 42
0.0
 43
0.0
 44
0.0
 45
0.0
 46
0.0
 47
0.0
 48
0.0
 49
0.0
140
0.0
141
0.0
142
1.0
143
1.0
 70
  1712
 72
     0
 73
     0
 74
     0
  7

 75
     0
147
1.0
148
0.0
149
0.0
100
AcDbLayout
  1
Model
 70
     1
 71
     0
 10
0.0
 20
0.0
 11
12.0
 21
9.0
 12
0.0
 22
0.0
 32
0.0
 14
0.0
 24
0.0
 34
0.0
 15
0.0
 25
0.0
 35
0.0
146
0.0
 13
0.0
 23
0.0
 33
0.0
 16
1.0
 26
0.0
 36
0.0
 17
0.0
 27
1.0
 37
0.0
 76
     0
330
272
  0
LAYOUT
  5
29C
102
{ACAD_REACTORS
330
299
102
}
330
299
100
AcDbPlotSettings
  1

  2
\\KONISHIDENXP\SHARP MX-2700FG
  4

  6

 40
0.0
 41
0.0
 42
0.0
 43
0.0
 44
0.0
 45
0.0
 46
0.0
 47
0.0
 48
0.0
 49
0.0
140
0.0
141
0.0
142
1.0
143
1.0
 70
   688
 72
     0
 73
     0
 74
     5
  7

 75
    16
147
1.0
148
0.0
149
0.0
100
AcDbLayout
  1
ﾚｲｱｳﾄ1
 70
     0
 71
     1
 10
0.0
 20
0.0
 11
12.0
 21
9.0
 12
0.0
 22
0.0
 32
0.0
 14
1.000000000000000E+20
 24
1.000000000000000E+20
 34
1.000000000000000E+20
 15
-1.000000000000000E+20
 25
-1.000000000000000E+20
 35
-1.000000000000000E+20
146
0.0
 13
0.0
 23
0.0
 33
0.0
 16
1.0
 26
0.0
 36
0.0
 17
0.0
 27
1.0
 37
0.0
 76
     0
330
26F
  0
MLINESTYLE
  5
276
102
{ACAD_REACTORS
330
275
102
}
330
275
100
AcDbMlineStyle
  2
STANDARD
 70
     0
  3

 62
   256
 51
90.0
 52
90.0
 71
     2
 49
0.5
 62
   256
  6
BYLAYER
 49
-0.5
 62
   256
  6
BYLAYER
  0
ACDBPLACEHOLDER
  5
298
102
{ACAD_REACTORS
330
297
102
}
330
297
  0
DICTIONARYVAR
  5
28B
102
{ACAD_REACTORS
330
28A
102
}
330
28A
100
DictionaryVariables
280
     0
  1
0
  0
DICTIONARYVAR
  5
717
102
{ACAD_REACTORS
330
28A
102
}
330
28A
100
DictionaryVariables
280
     0
  1
0
  0
DICTIONARYVAR
  5
716
102
{ACAD_REACTORS
330
28A
102
}
330
28A
100
DictionaryVariables
280
     0
  1
1
  0
ACMDATADICTIONARY
  5
358
102
{ACAD_REACTORS
330
357
102
}
330
357
100
AcDbDictionary
281
     1
  3
*A1
350
359
100
AcmDataDictionary
  0
DICTIONARY
  5
4DE
102
{ACAD_REACTORS
330
357
102
}
330
357
100
AcDbDictionary
281
     1
  3
ANSI
350
4DF
  0
DICTIONARY
  5
29F
102
{ACAD_REACTORS
330
29E
102
}
330
29E
100
AcDbDictionary
281
     1
  3
DWGSETTINGS
350
2A0
  0
ACAMGFILTERDAT
  5
379
102
{ACAD_REACTORS
330
374
102
}
330
374
100
AcAmgFilterDat
 70
    15
  1
DIMENSION,AMDT_*_DIM
  2
*
  3
*
  4
*
  5
*
290
     1
  0
ACAMGFILTERDAT
  5
378
102
{ACAD_REACTORS
330
374
102
}
330
374
100
AcAmgFilterDat
 70
    15
  1
*
  2
AM_FEA-AM_*
  3
*
  4
*
  5
*
290
     1
  0
ACAMGFILTERDAT
  5
375
102
{ACAD_REACTORS
330
374
102
}
330
374
100
AcAmgFilterDat
 70
    15
  1
HATCH
  2
*
  3
*
  4
*
  5
*
290
     1
  0
ACAMGFILTERDAT
  5
376
102
{ACAD_REACTORS
330
374
102
}
330
374
100
AcAmgFilterDat
 70
    15
  1
LINE
  2
8,8N,*-8,*-8N,AM_8,AM_8N,*-AM_8,*-AM_8N
  3
*
  4
*
  5
INSERT,STDPART2D
290
     1
  0
ACAMGFILTERDAT
  5
37A
102
{ACAD_REACTORS
330
374
102
}
330
374
100
AcAmgFilterDat
 70
    15
  1
ARC
  2
AM_5
  3
*
  4
2
  5
INSERT
290
     0
  0
ACAMGFILTERDAT
  5
377
102
{ACAD_REACTORS
330
374
102
}
330
374
100
AcAmgFilterDat
 70
    15
  1
ACMFCFRAME,ACMDATUMTARGET,ACMDATUMID,ACMWELDSYM,ACMSURFSYM,ACMFEATID,ACMPARTREF,ACMBALLOON,AMDTEDGESYM,AMGSCREWCALCTABLE
  2
*
  3
*
  4
*
  5
*
290
     1
  0
LAYER_INDEX
  5
70E
102
{ACAD_REACTORS
330
70D
102
}
330
70D
100
AcDbIndex
 40
2456448.444181308
100
AcDbLayerIndex
  8
0
360
70F
 90
        4
  8
1
360
710
 90
       13
  8
10
360
711
 90
        0
  8
11
360
712
 90
        0
  8
2
360
713
 90
        0
  8
3
360
714
 90
      157
  8
DEFPOINTS
360
715
 90
        0
  0
ACMDATAENTRYBLOCK
  5
359
102
{ACAD_REACTORS
330
358
102
}
330
358
100
AcmDataEntry
100
AcmDataEntryBlock
  0
IDBUFFER
  5
70F
330
0
100
AcDbIdBuffer
330
55C
330
5AE
330
5AF
330
705
  0
IDBUFFER
  5
710
330
0
100
AcDbIdBuffer
330
4FB
330
503
330
505
330
527
330
566
330
57E
330
582
330
5A8
330
6D1
330
6D5
330
6E0
330
6E1
330
701
  0
IDBUFFER
  5
711
330
0
100
AcDbIdBuffer
  0
IDBUFFER
  5
712
330
0
100
AcDbIdBuffer
  0
IDBUFFER
  5
713
330
0
100
AcDbIdBuffer
  0
IDBUFFER
  5
714
330
0
100
AcDbIdBuffer
330
6DB
330
6DC
330
6DD
330
6DE
330
6DF
330
6E2
330
6E3
330
6E4
330
6E5
330
6E6
330
6E7
330
6E8
330
6E9
330
6EA
330
6EB
330
6EC
330
6ED
330
6EE
330
6EF
330
6F0
330
6F1
330
6F2
330
6F3
330
6F4
330
6F5
330
6F6
330
6F7
330
6F8
330
6F9
330
6FA
330
6FB
330
6FC
330
6FD
330
6FE
330
6FF
330
700
330
702
330
703
330
704
330
706
330
707
330
708
330
709
330
70A
330
70B
330
4F9
330
4FD
330
4FF
330
501
330
506
330
507
330
508
330
509
330
50A
330
50B
330
50C
330
50D
330
50E
330
50F
330
512
330
513
330
514
330
516
330
518
330
519
330
524
330
525
330
526
330
528
330
529
330
52A
330
52B
330
52C
330
52D
330
52E
330
52F
330
530
330
531
330
532
330
535
330
536
330
53A
330
53B
330
53C
330
53D
330
53E
330
53F
330
540
330
541
330
552
330
554
330
555
330
556
330
557
330
55A
330
55B
330
562
330
563
330
564
330
565
330
568
330
569
330
56A
330
56B
330
56C
330
56D
330
56E
330
56F
330
570
330
571
330
573
330
575
330
576
330
577
330
57A
330
57B
330
57C
330
57D
330
58A
330
58B
330
58C
330
58D
330
58E
330
58F
330
590
330
591
330
592
330
593
330
594
330
595
330
598
330
599
330
59A
330
59B
330
59C
330
59D
330
5AD
330
5B0
330
5B1
330
5B2
330
5B3
330
5B4
330
5B5
330
5B6
330
5B7
330
5B8
330
5B9
330
6CF
330
6D0
330
6D2
330
6D3
330
6D4
330
6D6
330
6D7
330
6D8
330
6D9
330
6DA
  0
IDBUFFER
  5
715
330
0
100
AcDbIdBuffer
  0
ENDSEC
  0
EOF
