  0
SECTION
  2
HEADER
  9
$ACADVER
  1
AC1015
  9
$ACADMAINTVER
 70
    13
  9
$DWGCODEPAGE
  3
ANSI_932
  9
$INSBASE
 10
0.0
 20
0.0
 30
0.0
  9
$EXTMIN
 10
77.5
 20
87.49999999999998
 30
0.0
  9
$EXTMAX
 10
885.8855153178886
 20
952.5438165227265
 30
0.0
  9
$LIMMIN
 10
0.0
 20
0.0
  9
$LIMMAX
 10
880.0
 20
610.0
  9
$ORTHOMODE
 70
     1
  9
$REGENMODE
 70
     1
  9
$FILLMODE
 70
     1
  9
$QTEXTMODE
 70
     0
  9
$MIRRTEXT
 70
     1
  9
$LTSCALE
 40
50.0
  9
$ATTMODE
 70
     1
  9
$TEXTSIZE
 40
0.2
  9
$TRACEWID
 40
0.05
  9
$TEXTSTYLE
  7
STANDARD
  9
$CLAYER
  8
0
  9
$CELTYPE
  6
BYLAYER
  9
$CECOLOR
 62
   256
  9
$CELTSCALE
 40
1.0
  9
$DISPSILH
 70
     0
  9
$DIMSCALE
 40
5.0
  9
$DIMASZ
 40
3.0
  9
$DIMEXO
 40
2.0
  9
$DIMDLI
 40
0.38
  9
$DIMRND
 40
0.0
  9
$DIMDLE
 40
0.0
  9
$DIMEXE
 40
2.0
  9
$DIMTP
 40
0.0
  9
$DIMTM
 40
0.0
  9
$DIMTXT
 40
3.2
  9
$DIMCEN
 40
0.09
  9
$DIMTSZ
 40
0.0
  9
$DIMTOL
 70
     0
  9
$DIMLIM
 70
     0
  9
$DIMTIH
 70
     0
  9
$DIMTOH
 70
     0
  9
$DIMSE1
 70
     0
  9
$DIMSE2
 70
     0
  9
$DIMTAD
 70
     1
  9
$DIMZIN
 70
     0
  9
$DIMBLK
  1

  9
$DIMASO
 70
     0
  9
$DIMSHO
 70
     0
  9
$DIMPOST
  1

  9
$DIMAPOST
  1

  9
$DIMALT
 70
     0
  9
$DIMALTD
 70
     2
  9
$DIMALTF
 40
25.4
  9
$DIMLFAC
 40
1.0
  9
$DIMTOFL
 70
     0
  9
$DIMTVP
 40
1.6
  9
$DIMTIX
 70
     1
  9
$DIMSOXD
 70
     0
  9
$DIMSAH
 70
     0
  9
$DIMBLK1
  1

  9
$DIMBLK2
  1

  9
$DIMSTYLE
  2
STANDARD
  9
$DIMCLRD
 70
     0
  9
$DIMCLRE
 70
     0
  9
$DIMCLRT
 70
     0
  9
$DIMTFAC
 40
1.0
  9
$DIMGAP
 40
0.09
  9
$DIMJUST
 70
     0
  9
$DIMSD1
 70
     0
  9
$DIMSD2
 70
     0
  9
$DIMTOLJ
 70
     1
  9
$DIMTZIN
 70
     0
  9
$DIMALTZ
 70
     0
  9
$DIMALTTZ
 70
     0
  9
$DIMUPT
 70
     0
  9
$DIMDEC
 70
     4
  9
$DIMTDEC
 70
     4
  9
$DIMALTU
 70
     2
  9
$DIMALTTD
 70
     2
  9
$DIMTXSTY
  7
BIGFONT
  9
$DIMAUNIT
 70
     0
  9
$DIMADEC
 70
     0
  9
$DIMALTRND
 40
0.0
  9
$DIMAZIN
 70
     0
  9
$DIMDSEP
 70
    46
  9
$DIMATFIT
 70
     3
  9
$DIMFRAC
 70
     0
  9
$DIMLDRBLK
  1

  9
$DIMLUNIT
 70
     2
  9
$DIMLWD
 70
    -2
  9
$DIMLWE
 70
    -2
  9
$DIMTMOVE
 70
     0
  9
$LUNITS
 70
     2
  9
$LUPREC
 70
     4
  9
$SKETCHINC
 40
0.1
  9
$FILLETRAD
 40
0.0
  9
$AUNITS
 70
     0
  9
$AUPREC
 70
     0
  9
$MENU
  1
ACAD
  9
$ELEVATION
 40
0.0
  9
$PELEVATION
 40
0.0
  9
$THICKNESS
 40
0.0
  9
$LIMCHECK
 70
     0
  9
$CHAMFERA
 40
0.0
  9
$CHAMFERB
 40
0.0
  9
$CHAMFERC
 40
0.0
  9
$CHAMFERD
 40
0.0
  9
$SKPOLY
 70
     0
  9
$TDCREATE
 40
2450863.977785301
  9
$TDUCREATE
 40
2450863.602785300
  9
$TDUPDATE
 40
2456448.440502928
  9
$TDUUPDATE
 40
2456448.065502928
  9
$TDINDWG
 40
0.0055396296
  9
$TDUSRTIMER
 40
0.0055396296
  9
$USRTIMER
 70
     1
  9
$ANGBASE
 50
0.0
  9
$ANGDIR
 70
     0
  9
$PDMODE
 70
     0
  9
$PDSIZE
 40
0.0
  9
$PLINEWID
 40
0.0
  9
$SPLFRAME
 70
     0
  9
$SPLINETYPE
 70
     6
  9
$SPLINESEGS
 70
     8
  9
$HANDSEED
  5
7D5
  9
$SURFTAB1
 70
     6
  9
$SURFTAB2
 70
     6
  9
$SURFTYPE
 70
     6
  9
$SURFU
 70
     6
  9
$SURFV
 70
     6
  9
$UCSBASE
  2

  9
$UCSNAME
  2

  9
$UCSORG
 10
0.0
 20
0.0
 30
0.0
  9
$UCSXDIR
 10
1.0
 20
0.0
 30
0.0
  9
$UCSYDIR
 10
0.0
 20
1.0
 30
0.0
  9
$UCSORTHOREF
  2

  9
$UCSORTHOVIEW
 70
     0
  9
$UCSORGTOP
 10
0.0
 20
0.0
 30
0.0
  9
$UCSORGBOTTOM
 10
0.0
 20
0.0
 30
0.0
  9
$UCSORGLEFT
 10
0.0
 20
0.0
 30
0.0
  9
$UCSORGRIGHT
 10
0.0
 20
0.0
 30
0.0
  9
$UCSORGFRONT
 10
0.0
 20
0.0
 30
0.0
  9
$UCSORGBACK
 10
0.0
 20
0.0
 30
0.0
  9
$PUCSBASE
  2

  9
$PUCSNAME
  2

  9
$PUCSORG
 10
0.0
 20
0.0
 30
0.0
  9
$PUCSXDIR
 10
1.0
 20
0.0
 30
0.0
  9
$PUCSYDIR
 10
0.0
 20
1.0
 30
0.0
  9
$PUCSORTHOREF
  2

  9
$PUCSORTHOVIEW
 70
     0
  9
$PUCSORGTOP
 10
0.0
 20
0.0
 30
0.0
  9
$PUCSORGBOTTOM
 10
0.0
 20
0.0
 30
0.0
  9
$PUCSORGLEFT
 10
0.0
 20
0.0
 30
0.0
  9
$PUCSORGRIGHT
 10
0.0
 20
0.0
 30
0.0
  9
$PUCSORGFRONT
 10
0.0
 20
0.0
 30
0.0
  9
$PUCSORGBACK
 10
0.0
 20
0.0
 30
0.0
  9
$USERI1
 70
     0
  9
$USERI2
 70
     0
  9
$USERI3
 70
     0
  9
$USERI4
 70
     0
  9
$USERI5
 70
     0
  9
$USERR1
 40
0.0
  9
$USERR2
 40
0.0
  9
$USERR3
 40
0.0
  9
$USERR4
 40
0.0
  9
$USERR5
 40
0.0
  9
$WORLDVIEW
 70
     1
  9
$SHADEDGE
 70
     3
  9
$SHADEDIF
 70
    70
  9
$TILEMODE
 70
     1
  9
$MAXACTVP
 70
    16
  9
$PINSBASE
 10
0.0
 20
0.0
 30
0.0
  9
$PLIMCHECK
 70
     0
  9
$PEXTMIN
 10
1.000000000000000E+20
 20
1.000000000000000E+20
 30
1.000000000000000E+20
  9
$PEXTMAX
 10
-1.000000000000000E+20
 20
-1.000000000000000E+20
 30
-1.000000000000000E+20
  9
$PLIMMIN
 10
0.0
 20
0.0
  9
$PLIMMAX
 10
12.0
 20
9.0
  9
$UNITMODE
 70
     0
  9
$VISRETAIN
 70
     0
  9
$PLINEGEN
 70
     1
  9
$PSLTSCALE
 70
     0
  9
$TREEDEPTH
 70
  3020
  9
$CMLSTYLE
  2
STANDARD
  9
$CMLJUST
 70
     0
  9
$CMLSCALE
 40
1.0
  9
$PROXYGRAPHICS
 70
     1
  9
$MEASUREMENT
 70
     0
  9
$CELWEIGHT
370
    -1
  9
$ENDCAPS
280
     0
  9
$JOINSTYLE
280
     0
  9
$LWDISPLAY
290
     0
  9
$INSUNITS
 70
     0
  9
$HYPERLINKBASE
  1

  9
$STYLESHEET
  1

  9
$XEDIT
290
     1
  9
$CEPSNTYPE
380
     0
  9
$PSTYLEMODE
290
     1
  9
$FINGERPRINTGUID
  2
{CF559E50-DE4A-4469-B643-89492BEC3D01}
  9
$VERSIONGUID
  2
{BCF88E8C-09A9-4D16-AF46-3ECFE4AA9275}
  9
$EXTNAMES
290
     1
  9
$PSVPSCALE
 40
0.0
  9
$OLESTARTUP
290
     0
  0
ENDSEC
  0
SECTION
  2
CLASSES
  0
CLASS
  1
DICTIONARYVAR
  2
AcDbDictionaryVar
  3
AutoCAD 2000
 90
        0
280
     0
281
     0
  0
CLASS
  1
ACDBDICTIONARYWDFLT
  2
AcDbDictionaryWithDefault
  3
AutoCAD 2000
 90
        0
280
     0
281
     0
  0
CLASS
  1
ACDBPLACEHOLDER
  2
AcDbPlaceHolder
  3
AutoCAD 2000
 90
        0
280
     0
281
     0
  0
CLASS
  1
LAYOUT
  2
AcDbLayout
  3
AutoCAD 2000
 90
        0
280
     0
281
     0
  0
CLASS
  1
AMGSETTINGSOBJ
  2
AmgSettingsObj
  3
"AcadM|Product Description: AutoCAD Mechanical 2000|Company: Autodesk"
 90
        0
280
     0
281
     0
  0
CLASS
  1
ACME_DOCUMENT
  2
AcMeDbDoc
  3
AcMeServices
 90
        0
280
     0
281
     0
  0
CLASS
  1
ACMESCOPE
  2
AcMeScope
  3
AcMeServices
 90
        0
280
     0
281
     0
  0
CLASS
  1
ACMECOMMANDHISTORY
  2
AcMeCommandHistory
  3
AcMeServices
 90
        0
280
     0
281
     0
  0
CLASS
  1
ACIMSYSVARMAN
  2
AcImSysVarManager
  3
AcMeServices
 90
        0
280
     0
281
     0
  0
CLASS
  1
ACIMREALSYSVAR
  2
AcImRealSysVar
  3
AcMeServices
 90
        0
280
     0
281
     0
  0
CLASS
  1
ACIMINTSYSVAR
  2
AcImIntSysVar
  3
AcMeServices
 90
        0
280
     0
281
     0
  0
CLASS
  1
ACMEDRAWINGMAN
  2
AcMeDrawingMan
  3
AcMeServices
 90
        0
280
     0
281
     0
  0
CLASS
  1
ACMEVIEW
  2
AcMeView
  3
AcMeServices
 90
        0
280
     0
281
     0
  0
CLASS
  1
ACDBENTITYCACHE
  2
AcMeEntityCache
  3
AcMeServices
 90
        0
280
     0
281
     0
  0
CLASS
  1
GSMANAGER
  2
AcMeGSManager
  3
AcMeServices
 90
        0
280
     0
281
     0
  0
CLASS
  1
AMDTINTERNALREACTOR
  2
AmdtInternalReactor
  3
AcMeServices
 90
        0
280
     0
281
     0
  0
CLASS
  1
ACMESTATEMGR
  2
AcMeStateMgr
  3
AcMeServices
 90
        0
280
     0
281
     0
  0
CLASS
  1
ACGREFMASTER
  2
AcGrefMaster
  3
AcAttribServices
 90
        0
280
     0
281
     0
  0
CLASS
  1
AM_DRAWING_MGR
  2
AcDmDwgMgr
  3
AcMechDwgViewMgmt
 90
        0
280
     0
281
     0
  0
CLASS
  1
AM_DWG_DOCUMENT
  2
AcDmDwgDocument
  3
AcMechDwgViewMgmt
 90
        0
280
     0
281
     0
  0
CLASS
  1
AM_DWG_SHEET
  2
AcDmSheet
  3
AcMechDwgViewMgmt
 90
        0
280
     0
281
     0
  0
CLASS
  1
AM_VIEWDIMPARMAP
  2
AcDmViewDimParMap
  3
AcMechDwgViewMgmt
 90
        0
280
     0
281
     0
  0
CLASS
  1
AM_DWGMGR_NAME
  2
AcDmDwgMgrName
  3
AcMechDwgViewMgmt
 90
        0
280
     0
281
     0
  0
CLASS
  1
ACME_DATABASE
  2
AcMeDbDatabase
  3
AcMeServices
 90
        0
280
     0
281
     0
  0
CLASS
  1
ACRFINSADJUSTERMGR
  2
AcRfInsAdjusterMgr
  3
AcMeServices
 90
        0
280
     0
281
     0
  0
CLASS
  1
ACGREFACADMASTER
  2
AcGrefacadMaster
  3
AcGrefServices
 90
        0
280
     0
281
     0
  0
CLASS
  1
AMDTMENUSTATEMGR
  2
AmdtMenuStateMgr
  3
McadcomServices
 90
        0
280
     0
281
     0
  0
CLASS
  1
AMDTMCOMMENUSTATE
  2
AmdtMcomMenuState
  3
McadcomServices
 90
        0
280
     0
281
     0
  0
CLASS
  1
AMIMASTER
  2
AmiMaster
  3
AmiServices
 90
        0
280
     0
281
     0
  0
CLASS
  1
ASAPP
  2
AcAsAppObject
  3
AutoSurfServices
 90
        0
280
     0
281
     0
  0
CLASS
  1
IM_STATIC_MAN
  2
AcImStaticVarManager
  3
AcMeServices
 90
        0
280
     0
281
     0
  0
CLASS
  1
ACIMSTRSYSVAR
  2
AcImStrSysVar
  3
AcMeServices
 90
        0
280
     0
281
     0
  0
CLASS
  1
ACIMDBLSTATICVAR
  2
AcImDblStaticVar
  3
AcMeServices
 90
        0
280
     0
281
     0
  0
CLASS
  1
ACIMSTRSTATICVAR
  2
AcImStrStaticVar
  3
AcMeServices
 90
        0
280
     0
281
     0
  0
CLASS
  1
ACIMINTSTATICVAR
  2
AcImIntStaticVar
  3
AcMeServices
 90
        0
280
     0
281
     0
  0
CLASS
  1
ACASGREFMASTER
  2
AcAsGrefMaster
  3
AutoSurfResolverServices
 90
        0
280
     0
281
     0
  0
CLASS
  1
ACADGREFMODULE
  2
AcAdGrefModule
  3
AdGrefServices
 90
        0
280
     0
281
     0
  0
CLASS
  1
AMDTMAPISURFMOUDULE
  2
AmdtMApiSurfModule
  3
MApiSurfServices
 90
    32768
280
     0
281
     0
  0
CLASS
  1
MAPIAMMOUDLE
  2
MApiAmModule
  3
MApiAmServices
 90
        0
280
     0
281
     0
  0
CLASS
  1
AMDTADMENUSTATE
  2
AmdtAdMenuState
  3
DesignerServices
 90
        0
280
     0
281
     0
  0
CLASS
  1
ADAPPL
  2
AcAdAppl
  3
DesignerServices
 90
        0
280
     0
281
     0
  0
CLASS
  1
DEPMGR
  2
AcAdDepMgr
  3
DesignerServices
 90
        0
280
     0
281
     0
  0
CLASS
  1
PARAMMGR
  2
AcAdParamMgr
  3
DesignerServices
 90
        0
280
     0
281
     0
  0
CLASS
  1
PARAMSCOPE
  2
AcAdParamScope
  3
DesignerServices
 90
        0
280
     0
281
     0
  0
CLASS
  1
NAMEDAPPL
  2
AcAdNamedAppl
  3
DesignerServices
 90
        0
280
     0
281
     0
  0
CLASS
  1
AMDTDMMENUSTATE
  2
AmdtDmMenuState
  3
AcMechDwgViewMgmt
 90
        0
280
     0
281
     0
  0
CLASS
  1
MAPIADMODULE
  2
MApiAdModule
  3
MApiAdServices
 90
        0
280
     0
281
     0
  0
CLASS
  1
AMDTAMMENUSTATE
  2
AmdtAmMenuState
  3
DesignerAssemblies
 90
        0
280
     0
281
     0
  0
CLASS
  1
ACAMPROJECT
  2
AcAmProject
  3
DesignerAssemblies
 90
        0
280
     0
281
     0
  0
CLASS
  1
ACAMGRCOMPDEF
  2
AcAmGrCompDef
  3
DesignerAssemblies
 90
        0
280
     0
281
     0
  0
CLASS
  1
ACCMCONTEXT
  2
AcCmContext
  3
DesignerAssemblies
 90
        0
280
     0
281
     0
  0
CLASS
  1
ACAMCOMPDEF
  2
AcAmCompDef
  3
DesignerAssemblies
 90
        0
280
     0
281
     0
  0
CLASS
  1
ACAMCOMPDEFMGR
  2
AcAmCompDefMgr
  3
DesignerAssemblies
 90
        0
280
     0
281
     0
  0
CLASS
  1
AMCONTEXTMGR
  2
AcAmContextMgr
  3
DesignerAssemblies
 90
        0
280
     0
281
     0
  0
CLASS
  1
ACAMCONTEXTMODELER
  2
AcAmContextModeler
  3
DesignerAssemblies
 90
        0
280
     0
281
     0
  0
CLASS
  1
ACMDATADICTIONARY
  2
AcmDataDictionary
  3
"AcmSymBB|Product Description: AutoCAD Mechanical 2000|Company: Autodesk"
 90
        0
280
     0
281
     0
  0
CLASS
  1
ACMDATAENTRYBLOCK
  2
AcmDataEntryBlock
  3
"AcmSymBB|Product Description: AutoCAD Mechanical 2000|Company: Autodesk"
 90
        0
280
     0
281
     0
  0
CLASS
  1
CATALOGSTATE
  2
AcAmCatalogState
  3
DesignerAssemblies
 90
        0
280
     0
281
     0
  0
CLASS
  1
ACAMGRCOMPDEFSET
  2
AcAmGrCompDefSet
  3
DesignerAssemblies
 90
        0
280
     0
281
     0
  0
CLASS
  1
AMDTBROWSERDBTAB
  2
AmdtBrowserDbTab
  3
McadcomServices
 90
        0
280
     0
281
     0
  0
CLASS
  1
CBROWSERAPPOBJECT
  2
CBrowserAppObject
  3
McadcomServices
 90
        0
280
     0
281
     0
  0
CLASS
  1
DM_PLACEHOLDER
  2
AcDmSelsetPlaceholder
  3
AcMechDwgViewMgmt
 90
        0
280
     0
281
     0
  0
CLASS
  1
AMGOBJPROPCFG
  2
AmgObjPropCfg
  3
"AmgLay|Product Description: AutoCAD Mechanical 2000|Company: Autodesk"
 90
        1
280
     0
281
     0
  0
CLASS
  1
ACAMGFILTERDAT
  2
AcAmgFilterDat
  3
"AcadM|Product Description: AutoCAD Mechanical 2000|Company: Autodesk"
 90
        0
280
     0
281
     0
  0
CLASS
  1
LAYER_INDEX
  2
AcDbLayerIndex
  3
AutoCAD 2000
 90
        0
280
     0
281
     0
  0
CLASS
  1
IDBUFFER
  2
AcDbIdBuffer
  3
AutoCAD 2000
 90
        0
280
     0
281
     0
  0
CLASS
  1
AMDTFORMULAUPDATEDISPATCHER
  2
AmdtFormulaUpdateDispatcher
  3
AcMeServices
 90
        0
280
     0
281
     0
  0
CLASS
  1
ACMSTANDARDANSI
  2
AcmStandardANSI
  3
"Amdt_StdImp|Product Description: AutoCAD Mechanical 2000|Company: Autodesk"
 90
        0
280
     0
281
     0
  0
CLASS
  1
ACMSURFSTANDARDANSI
  2
AcmSurfTextStdANSI
  3
"Amdt_StdImp|Product Description: AutoCAD Mechanical 2000|Company: Autodesk"
 90
        0
280
     0
281
     0
  0
CLASS
  1
ACMFCFSTANDARDANSI
  2
AcmFCFStdANSI
  3
"Amdt_StdImp|Product Description: AutoCAD Mechanical 2000|Company: Autodesk"
 90
        0
280
     0
281
     0
  0
CLASS
  1
ACMWELDSTANDARDANSI
  2
AcmWeldingStdANSI
  3
"Amdt_StdImp|Product Description: AutoCAD Mechanical 2000|Company: Autodesk"
 90
        0
280
     0
281
     0
  0
CLASS
  1
ACMIDSTANDARDANSI
  2
AcmIdStdANSI
  3
"Amdt_StdImp|Product Description: AutoCAD Mechanical 2000|Company: Autodesk"
 90
        0
280
     0
281
     0
  0
CLASS
  1
ACMDATUMSTANDARDANSI
  2
AcmDatumStdANSI
  3
"Amdt_StdImp|Product Description: AutoCAD Mechanical 2000|Company: Autodesk"
 90
        0
280
     0
281
     0
  0
CLASS
  1
ACMBOMSTANDARDANSI
  2
AcmBOMStdANSI
  3
"Amdt_StdImp|Product Description: AutoCAD Mechanical 2000|Company: Autodesk"
 90
        0
280
     0
281
     0
  0
CLASS
  1
ACMDETAILSTANDARDANSI
  2
AmdtDetailSymStdANSI
  3
"Amdt_StdImp|Product Description: AutoCAD Mechanical 2000|Company: Autodesk"
 90
        0
280
     0
281
     0
  0
CLASS
  1
ACMSECTIONSTANDARDANSI
  2
AmdtSectionSymStdANSI
  3
"Amdt_StdImp|Product Description: AutoCAD Mechanical 2000|Company: Autodesk"
 90
        0
280
     0
281
     0
  0
CLASS
  1
ACMCENTERLINESTANDARDANSI
  2
AmdtCenterLineStdANSI
  3
"Amdt_StdImp|Product Description: AutoCAD Mechanical 2000|Company: Autodesk"
 90
        0
280
     0
281
     0
  0
CLASS
  1
ACMTHREADLINESTANDARDANSI
  2
AmdtThreadLineStdANSI
  3
"Amdt_StdImp|Product Description: AutoCAD Mechanical 2000|Company: Autodesk"
 90
        0
280
     0
281
     0
  0
CLASS
  1
ACMNOTESTANDARDANSI
  2
AmdtNoteStdANSI
  3
"Amdt_StdImp|Product Description: AutoCAD Mechanical 2000|Company: Autodesk"
 90
        0
280
     0
281
     0
  0
CLASS
  1
ACAMGLAYSTD
  2
AcAmgLayStd
  3
"AcAmgLayStd|Product Description: AutoCAD Mechanical 2000|Company: Autodesk"
 90
        0
280
     0
281
     0
  0
CLASS
  1
ACAMGDIMSTD
  2
AcAmgDimStd
  3
"AcAmgDimStd|Product Description: AutoCAD Mechanical 2000|Company: Autodesk"
 90
        0
280
     0
281
     0
  0
CLASS
  1
ACAMGHOLECHARTSTDANSI
  2
AcAmgHoleChartStdANSI
  3
ACMSYMBB_MODULE_NAME
 90
        0
280
     0
281
     0
  0
CLASS
  1
ACAMGTITLESTD
  2
AcAmgTitleStd
  3
"TITLEAPP"
 90
        0
280
     0
281
     0
  0
ENDSEC
  0
SECTION
  2
TABLES
  0
TABLE
  2
VPORT
  5
20D
330
0
100
AcDbSymbolTable
 70
     3
  0
VPORT
  5
7D4
330
20D
100
AcDbSymbolTableRecord
100
AcDbViewportTableRecord
  2
*Active
 70
     0
 10
0.0
 20
0.0
 11
1.0
 21
1.0
 12
0.0
 22
0.0
 13
0.0
 23
0.0
 14
5.0
 24
5.0
 15
10.0
 25
10.0
 16
0.0
 26
0.0
 36
1.0
 17
561.6052521664407
 27
376.986583
 37
0.0
 40
754.005359639018
 41
1.489721886336154
 42
50.0
 43
0.0
 44
0.0
 50
0.0
 51
0.0
 71
     0
 72
   500
 73
     1
 74
     1
 75
     0
 76
     0
 77
     0
 78
     2
281
     0
 65
     0
110
0.0
120
0.0
130
0.0
111
1.0
121
0.0
131
0.0
112
0.0
122
1.0
132
0.0
 79
     0
146
0.0
  0
ENDTAB
  0
TABLE
  2
LTYPE
  5
20A
330
0
100
AcDbSymbolTable
 70
    21
  0
LTYPE
  5
216
330
20A
100
AcDbSymbolTableRecord
100
AcDbLinetypeTableRecord
  2
BYBLOCK
 70
     0
  3

 72
    65
 73
     0
 40
0.0
  0
LTYPE
  5
217
330
20A
100
AcDbSymbolTableRecord
100
AcDbLinetypeTableRecord
  2
BYLAYER
 70
     0
  3

 72
    65
 73
     0
 40
0.0
  0
LTYPE
  5
218
330
20A
100
AcDbSymbolTableRecord
100
AcDbLinetypeTableRecord
  2
CONTINUOUS
 70
     0
  3
実線
 72
    65
 73
     0
 40
0.0
  0
LTYPE
  5
226
330
20A
100
AcDbSymbolTableRecord
100
AcDbLinetypeTableRecord
  2
CENTER
 70
     0
  3
____ _ ____ _ ____ _ ____ _ ____ _ ____ _ ____
 72
    65
 73
     4
 40
2.0
 49
1.25
 74
     0
 49
-0.25
 74
     0
 49
0.25
 74
     0
 49
-0.25
 74
     0
  0
LTYPE
  5
227
330
20A
100
AcDbSymbolTableRecord
100
AcDbLinetypeTableRecord
  2
TENSEN1
 70
     0
  3

 72
    65
 73
     2
 40
0.4
 49
0.3
 74
     0
 49
-0.1
 74
     0
  0
LTYPE
  5
26C
330
20A
100
AcDbSymbolTableRecord
100
AcDbLinetypeTableRecord
  2
HIDDEN
 70
     0
  3
Hidden __ __ __ __ __ __ __ __ __ __ __ __ __ _
 72
    65
 73
     2
 40
0.375
 49
0.25
 74
     0
 49
-0.125
 74
     0
  0
LTYPE
  5
26D
330
20A
100
AcDbSymbolTableRecord
100
AcDbLinetypeTableRecord
  2
PHANTOM2
 70
     0
  3
Phantom (.5x) ___ _ _ ___ _ _ ___ _ _ ___ _ _
 72
    65
 73
     6
 40
1.25
 49
0.625
 74
     0
 49
-0.125
 74
     0
 49
0.125
 74
     0
 49
-0.125
 74
     0
 49
0.125
 74
     0
 49
-0.125
 74
     0
  0
LTYPE
  5
2CF
330
20A
100
AcDbSymbolTableRecord
100
AcDbLinetypeTableRecord
  2
ASULTYPE
 70
     0
  3
実線
 72
    65
 73
     2
 40
3.0
 49
2.5
 74
     0
 49
0.5
 74
     0
  0
LTYPE
  5
2D0
330
20A
100
AcDbSymbolTableRecord
100
AcDbLinetypeTableRecord
  2
ASVLTYPE
 70
     0
  3
__ __ __ __ __ __ __ __ __ __ __ __ __ __ __ __ __ __ __ __ __
 72
    65
 73
     2
 40
0.75
 49
0.5
 74
     0
 49
-0.25
 74
     0
  0
LTYPE
  5
311
330
20A
100
AcDbSymbolTableRecord
100
AcDbLinetypeTableRecord
  2
AM_ISO02W050
 70
     0
  3
__ __ __ __ __ __ __ __ __ __ __ __ __ __ __
 72
    65
 73
     2
 40
7.5
 49
6.0
 74
     0
 49
-1.5
 74
     0
  0
LTYPE
  5
312
330
20A
100
AcDbSymbolTableRecord
100
AcDbLinetypeTableRecord
  2
AM_ISO08W050
 70
     0
  3
____ . ____ . ____ . ____ . ____ . ____ . ____
 72
    65
 73
     4
 40
18.0
 49
12.0
 74
     0
 49
-1.5
 74
     0
 49
3.0
 74
     0
 49
-1.5
 74
     0
  0
LTYPE
  5
313
330
20A
100
AcDbSymbolTableRecord
100
AcDbLinetypeTableRecord
  2
AM_ISO09W050
 70
     0
  3
_____ . . _____ . . _____ . . ____ .. ____
 72
    65
 73
     6
 40
22.5
 49
12.0
 74
     0
 49
-1.5
 74
     0
 49
3.0
 74
     0
 49
-1.5
 74
     0
 49
3.0
 74
     0
 49
-1.5
 74
     0
  0
LTYPE
  5
314
330
20A
100
AcDbSymbolTableRecord
100
AcDbLinetypeTableRecord
  2
Amconstr
 70
     0
  3
_______________________
 72
    65
 73
     2
 40
9999.0
 49
9999.0
 74
     0
 49
0.0
 74
     0
  0
LTYPE
  5
315
330
20A
100
AcDbSymbolTableRecord
100
AcDbLinetypeTableRecord
  2
AM_ISO08W050x2
 70
     0
  3
__ . __ . __ . __ . __ . __
 72
    65
 73
     4
 40
9.0
 49
6.0
 74
     0
 49
-0.75
 74
     0
 49
1.5
 74
     0
 49
-0.75
 74
     0
  0
LTYPE
  5
316
330
20A
100
AcDbSymbolTableRecord
100
AcDbLinetypeTableRecord
  2
AM_ISO02W050x2
 70
     0
  3
 _ _ _ _ _ _ _ _ _ _ _ _
 72
    65
 73
     2
 40
3.75
 49
3.0
 74
     0
 49
-0.75
 74
     0
  0
LTYPE
  5
319
330
20A
100
AcDbSymbolTableRecord
100
AcDbLinetypeTableRecord
  2
Amzigzag
 70
     0
  3
/\/-/\/-/\/-/\/-/\/-/\/
 72
    65
 73
     2
 40
11.00009999999999
 49
0.0001
 74
     4
 75
   135
340
318
 46
0.04
 50
0.0
 44
0.0
 45
0.0
 49
-11.0
 74
     0
  0
LTYPE
  5
31A
330
20A
100
AcDbSymbolTableRecord
100
AcDbLinetypeTableRecord
  2
CENTER2
 70
     0
  3
Center (.5x) ___ _ ___ _ ___ _ ___ _ ___ _ ___
 72
    65
 73
     4
 40
1.125
 49
0.75
 74
     0
 49
-0.125
 74
     0
 49
0.125
 74
     0
 49
-0.125
 74
     0
  0
LTYPE
  5
31B
330
20A
100
AcDbSymbolTableRecord
100
AcDbLinetypeTableRecord
  2
HIDDEN2
 70
     0
  3
Hidden (.5x) _ _ _ _ _ _ _ _ _ _ _ _ _ _ _ _ _
 72
    65
 73
     2
 40
0.1875
 49
0.125
 74
     0
 49
-0.0625
 74
     0
  0
LTYPE
  5
31C
330
20A
100
AcDbSymbolTableRecord
100
AcDbLinetypeTableRecord
  2
Amzigzag2
 70
     0
  3
/\/-/\/-/\/-/\/-/\/-/\/
 72
    65
 73
     2
 40
0.4401
 49
0.0001
 74
     4
 75
   135
340
318
 46
0.0016
 50
0.0
 44
0.0
 45
0.0
 49
-0.4400000000000002
 74
     0
  0
LTYPE
  5
478
330
20A
100
AcDbSymbolTableRecord
100
AcDbLinetypeTableRecord
  2
TENSEN
 70
     0
  3

 72
    65
 73
     2
 40
4.0
 49
3.0
 74
     0
 49
-1.0
 74
     0
  0
LTYPE
  5
479
330
20A
100
AcDbSymbolTableRecord
100
AcDbLinetypeTableRecord
  2
ITTEN1
 70
     0
  3

 72
    65
 73
     4
 40
8.199999999999999
 49
5.0
 74
     0
 49
-1.0
 74
     0
 49
1.199999999999999
 74
     0
 49
-1.0
 74
     0
  0
LTYPE
  5
47A
330
20A
100
AcDbSymbolTableRecord
100
AcDbLinetypeTableRecord
  2
ACANSTGB
 70
     0
  3
__ . . __ . .
 72
    65
 73
     6
 40
0.35433070866
 49
0.15748031496
 74
     0
 49
-0.03937007874
 74
     0
 49
0.03937007874
 74
     0
 49
-0.03937007874
 74
     0
 49
0.03937007874
 74
     0
 49
-0.03937007874
 74
     0
  0
LTYPE
  5
47B
330
20A
100
AcDbSymbolTableRecord
100
AcDbLinetypeTableRecord
  2
ACANSTGL
 70
     0
  3
_ _ _ _ _
 72
    65
 73
     2
 40
0.11811023622
 49
0.07874015748
 74
     0
 49
-0.03937007874
 74
     0
  0
ENDTAB
  0
TABLE
  2
LAYER
  5
207
330
0
100
AcDbSymbolTable
 70
     7
  0
LAYER
  5
213
330
207
100
AcDbSymbolTableRecord
100
AcDbLayerTableRecord
  2
0
 70
     0
 62
     7
  6
CONTINUOUS
370
    -3
390
242
  0
LAYER
  5
22C
330
207
100
AcDbSymbolTableRecord
100
AcDbLayerTableRecord
  2
1
 70
     0
 62
     1
  6
CENTER
370
    -3
390
242
  0
LAYER
  5
22D
330
207
100
AcDbSymbolTableRecord
100
AcDbLayerTableRecord
  2
10
 70
     0
 62
     7
  6
CONTINUOUS
370
    -3
390
242
  0
LAYER
  5
22E
330
207
100
AcDbSymbolTableRecord
100
AcDbLayerTableRecord
  2
11
 70
     0
 62
     3
  6
CONTINUOUS
370
    -3
390
242
  0
LAYER
  5
22F
330
207
100
AcDbSymbolTableRecord
100
AcDbLayerTableRecord
  2
2
 70
     0
 62
     2
  6
TENSEN1
370
    -3
390
242
  0
LAYER
  5
47C
330
207
100
AcDbSymbolTableRecord
100
AcDbLayerTableRecord
  2
3
 70
     0
 62
     5
  6
CONTINUOUS
370
    50
390
242
  0
LAYER
  5
47D
330
207
100
AcDbSymbolTableRecord
100
AcDbLayerTableRecord
  2
DEFPOINTS
 70
     0
 62
     7
  6
CONTINUOUS
290
     0
370
    -3
390
242
  0
ENDTAB
  0
TABLE
  2
STYLE
  5
208
330
0
100
AcDbSymbolTable
 70
     7
  0
STYLE
  5
214
330
208
100
AcDbSymbolTableRecord
100
AcDbTextStyleTableRecord
  2
STANDARD
 70
     0
 40
6.0
 41
1.0
 50
0.0
 71
     0
 42
0.2
  3
TXT.shx
  4
extfont.shx
  0
STYLE
  5
223
330
208
100
AcDbSymbolTableRecord
100
AcDbTextStyleTableRecord
  2
K80
 70
     0
 40
0.0
 41
0.8
 50
0.0
 71
     0
 42
0.2
  3
TXT
  4
BIGFONT
  0
STYLE
  5
224
330
208
100
AcDbSymbolTableRecord
100
AcDbTextStyleTableRecord
  2
07500
 70
     0
 40
0.0
 41
0.75
 50
0.0
 71
     0
 42
0.2
  3
TXT
  4
BIGFONT
  0
STYLE
  5
225
330
208
100
AcDbSymbolTableRecord
100
AcDbTextStyleTableRecord
  2
BIGFONT
 70
     0
 40
33.0
 41
0.8
 50
0.0
 71
     0
 42
33.0
  3

  4
bigfont
  0
STYLE
  5
318
330
208
100
AcDbSymbolTableRecord
100
AcDbTextStyleTableRecord
  2

 70
     1
 40
0.0
 41
1.0
 50
0.0
 71
     0
 42
33.0
  3
ltypeshp.shx
  4

  0
STYLE
  5
47E
330
208
100
AcDbSymbolTableRecord
100
AcDbTextStyleTableRecord
  2
ACANSTS
 70
     0
 40
1.0
 41
1.0
 50
0.0
 71
     0
 42
5.0
  3
romans.shx
  4
extfont.shx
  0
STYLE
  5
47F
330
208
100
AcDbSymbolTableRecord
100
AcDbTextStyleTableRecord
  2
ACANSGDT
 70
     0
 40
0.0
 41
1.0
 50
0.0
 71
     0
 42
5.0
  3
amgdtans.shx
  4

  0
ENDTAB
  0
TABLE
  2
VIEW
  5
20B
330
0
100
AcDbSymbolTable
 70
     1
  0
VIEW
  5
228
330
20B
100
AcDbSymbolTableRecord
100
AcDbViewTableRecord
  2
ALL
 70
     0
 40
1350.0
 10
1104.957983
 20
675.0
 41
0.0
 11
0.0
 21
0.0
 31
1.0
 12
0.0
 22
0.0
 32
0.0
 42
50.0
 43
0.0
 44
0.0
 50
0.0
 71
     0
281
     0
 72
     0
  0
ENDTAB
  0
TABLE
  2
UCS
  5
20C
330
0
100
AcDbSymbolTable
 70
     0
  0
ENDTAB
  0
TABLE
  2
APPID
  5
20E
330
0
100
AcDbSymbolTable
 70
    12
  0
APPID
  5
215
330
20E
100
AcDbSymbolTableRecord
100
AcDbRegAppTableRecord
  2
ACAD
 70
     0
  0
APPID
  5
24B
330
20E
100
AcDbSymbolTableRecord
100
AcDbRegAppTableRecord
  2
GENIUS_GENDIM_13
 70
     0
  0
APPID
  5
24C
330
20E
100
AcDbSymbolTableRecord
100
AcDbRegAppTableRecord
  2
GENIUS_GENDTOL_13
 70
     0
  0
APPID
  5
24D
330
20E
100
AcDbSymbolTableRecord
100
AcDbRegAppTableRecord
  2
GENIUS_GE3DTOL_13
 70
     0
  0
APPID
  5
24F
330
20E
100
AcDbSymbolTableRecord
100
AcDbRegAppTableRecord
  2
MCAD_NO_VIS
 70
     0
  0
APPID
  5
250
330
20E
100
AcDbSymbolTableRecord
100
AcDbRegAppTableRecord
  2
ACAD_TEMP_GRAPHIC
 70
     0
  0
APPID
  5
282
330
20E
100
AcDbSymbolTableRecord
100
AcDbRegAppTableRecord
  2
AD_DRAW
 70
     0
  0
APPID
  5
285
330
20E
100
AcDbSymbolTableRecord
100
AcDbRegAppTableRecord
  2
ACATTRIBSERVICES
 70
     0
  0
APPID
  5
2D1
330
20E
100
AcDbSymbolTableRecord
100
AcDbRegAppTableRecord
  2
ASURF_PCURVE_APPNAME
 70
     0
  0
APPID
  5
300
330
20E
100
AcDbSymbolTableRecord
100
AcDbRegAppTableRecord
  2
DESIGNERASSEMBLIES
 70
     0
  0
APPID
  5
308
330
20E
100
AcDbSymbolTableRecord
100
AcDbRegAppTableRecord
  2
ACADM_DIM_EDIT
 70
     0
  0
APPID
  5
309
330
20E
100
AcDbSymbolTableRecord
100
AcDbRegAppTableRecord
  2
AMDT_DM_ADJ
 70
     0
  0
ENDTAB
  0
TABLE
  2
DIMSTYLE
  5
20F
330
0
100
AcDbSymbolTable
 70
     7
100
AcDbDimStyleTable
 71
     1
340
22B
  0
DIMSTYLE
105
22B
330
20F
100
AcDbSymbolTableRecord
100
AcDbDimStyleTableRecord
  2
STANDARD
 70
     0
340
225
  0
DIMSTYLE
105
480
330
20F
100
AcDbSymbolTableRecord
100
AcDbDimStyleTableRecord
  2
AM_ANSI
 70
     0
  4
mm
 41
0.1
 42
0.05
 43
0.5
 44
0.1
 47
0.1
 48
0.1
 78
     7
 79
     2
140
0.12
141
0.0
146
0.71
147
0.06
176
   256
177
   256
178
     2
274
     4
284
     7
340
214
371
    -1
372
    -1
  0
DIMSTYLE
105
481
330
20F
100
AcDbSymbolTableRecord
100
AcDbDimStyleTableRecord
  2
AM_ANSI$3
 70
     0
  4
mm
 41
0.1
 42
0.05
 43
0.5
 44
0.1
 47
0.1
 48
0.1
 78
     7
 79
     2
140
0.12
141
0.0
146
0.71
147
0.06
176
   256
177
   256
178
     2
274
     4
284
     7
288
     1
289
     0
340
214
371
    -1
372
    -1
  0
DIMSTYLE
105
482
330
20F
100
AcDbSymbolTableRecord
100
AcDbDimStyleTableRecord
  2
AM_ANSI$4
 70
     0
  4
mm
 41
0.1
 42
0.05
 43
0.5
 44
0.1
 47
0.1
 48
0.1
 78
     7
 79
     2
140
0.12
141
0.0
146
0.71
147
0.06
176
   256
177
   256
178
     2
274
     4
284
     7
288
     1
289
     0
340
214
371
    -1
372
    -1
  0
DIMSTYLE
105
483
330
20F
100
AcDbSymbolTableRecord
100
AcDbDimStyleTableRecord
  2
AM_ANSI$7
 70
     0
  4
mm
 41
0.1
 42
0.05
 43
0.5
 44
0.1
 47
0.1
 48
0.1
 78
     7
 79
     2
140
0.24
141
0.0
146
0.71
147
0.06
176
   256
177
   256
178
     2
274
     4
284
     7
340
214
371
    -1
372
    -1
  0
DIMSTYLE
105
484
330
20F
100
AcDbSymbolTableRecord
100
AcDbDimStyleTableRecord
  2
AM_ANSI$SF
 70
     0
  4
mm
 41
0.1
 42
0.05
 43
0.5
 44
0.1
 47
0.1
 48
0.1
 75
     1
 76
     1
 78
     7
 79
     2
140
0.12
141
0.0
146
0.71
147
0.06
176
   256
177
   256
178
     2
274
     4
284
     7
340
214
371
    -1
372
    -1
  0
DIMSTYLE
105
485
330
20F
100
AcDbSymbolTableRecord
100
AcDbDimStyleTableRecord
  2
AM_ANSI$SH
 70
     0
  4
mm
 41
0.1
 42
0.05
 43
0.5
 44
0.1
 47
0.1
 48
0.1
 75
     1
 76
     1
 78
     7
 79
     2
140
0.12
141
0.0
146
0.71
147
0.06
173
     1
176
   256
177
   256
178
     2
274
     4
284
     7
340
214
343
444
371
    -1
372
    -1
  0
ENDTAB
  0
TABLE
  2
BLOCK_RECORD
  5
206
330
0
100
AcDbSymbolTable
 70
    24
  0
BLOCK_RECORD
  5
21C
102
{ACAD_XDICTIONARY
360
32B
102
}
330
206
100
AcDbSymbolTableRecord
100
AcDbBlockTableRecord
  2
*MODEL_SPACE
340
245
  0
BLOCK_RECORD
  5
219
330
206
100
AcDbSymbolTableRecord
100
AcDbBlockTableRecord
  2
*PAPER_SPACE
340
246
  0
BLOCK_RECORD
  5
221
330
206
100
AcDbSymbolTableRecord
100
AcDbBlockTableRecord
  2
WAKU
340
0
  0
BLOCK_RECORD
  5
222
330
206
100
AcDbSymbolTableRecord
100
AcDbBlockTableRecord
  2
QQ
340
0
  0
BLOCK_RECORD
  5
2F7
330
206
100
AcDbSymbolTableRecord
100
AcDbBlockTableRecord
  2
*U2
340
0
  0
BLOCK_RECORD
  5
3E0
330
206
100
AcDbSymbolTableRecord
100
AcDbBlockTableRecord
  2
*U3
340
0
  0
BLOCK_RECORD
  5
407
330
206
100
AcDbSymbolTableRecord
100
AcDbBlockTableRecord
  2
*D4
340
0
  0
BLOCK_RECORD
  5
414
330
206
100
AcDbSymbolTableRecord
100
AcDbBlockTableRecord
  2
*D5
340
0
  0
BLOCK_RECORD
  5
421
330
206
100
AcDbSymbolTableRecord
100
AcDbBlockTableRecord
  2
*D6
340
0
  0
BLOCK_RECORD
  5
42E
330
206
100
AcDbSymbolTableRecord
100
AcDbBlockTableRecord
  2
*D7
340
0
  0
BLOCK_RECORD
  5
439
330
206
100
AcDbSymbolTableRecord
100
AcDbBlockTableRecord
  2
*D8
340
0
  0
BLOCK_RECORD
  5
444
330
206
100
AcDbSymbolTableRecord
100
AcDbBlockTableRecord
  2
GENAXEH
340
0
  0
BLOCK_RECORD
  5
448
330
206
100
AcDbSymbolTableRecord
100
AcDbBlockTableRecord
  2
*D10
340
0
  0
BLOCK_RECORD
  5
455
330
206
100
AcDbSymbolTableRecord
100
AcDbBlockTableRecord
  2
*D11
340
0
  0
BLOCK_RECORD
  5
462
330
206
100
AcDbSymbolTableRecord
100
AcDbBlockTableRecord
  2
*D12
340
0
  0
BLOCK_RECORD
  5
46B
330
206
100
AcDbSymbolTableRecord
100
AcDbBlockTableRecord
  2
*D13
340
0
  0
BLOCK_RECORD
  5
686
330
206
100
AcDbSymbolTableRecord
100
AcDbBlockTableRecord
  2
*D15
340
0
  0
BLOCK_RECORD
  5
693
330
206
100
AcDbSymbolTableRecord
100
AcDbBlockTableRecord
  2
*D16
340
0
  0
BLOCK_RECORD
  5
69E
330
206
100
AcDbSymbolTableRecord
100
AcDbBlockTableRecord
  2
*D17
340
0
  0
BLOCK_RECORD
  5
6AB
330
206
100
AcDbSymbolTableRecord
100
AcDbBlockTableRecord
  2
*D18
340
0
  0
BLOCK_RECORD
  5
6B8
330
206
100
AcDbSymbolTableRecord
100
AcDbBlockTableRecord
  2
*D19
340
0
  0
BLOCK_RECORD
  5
6C1
330
206
100
AcDbSymbolTableRecord
100
AcDbBlockTableRecord
  2
*D20
340
0
  0
BLOCK_RECORD
  5
6CC
330
206
100
AcDbSymbolTableRecord
100
AcDbBlockTableRecord
  2
*D21
340
0
  0
BLOCK_RECORD
  5
6D8
330
206
100
AcDbSymbolTableRecord
100
AcDbBlockTableRecord
  2
*D22
340
0
  0
BLOCK_RECORD
  5
6E4
330
206
100
AcDbSymbolTableRecord
100
AcDbBlockTableRecord
  2
*D23
340
0
  0
ENDTAB
  0
ENDSEC
  0
SECTION
  2
BLOCKS
  0
BLOCK
  5
232
330
21C
100
AcDbEntity
  8
0
100
AcDbBlockBegin
  2
*MODEL_SPACE
 70
     0
 10
0.0
 20
0.0
 30
0.0
  3
*MODEL_SPACE
  1

  0
ENDBLK
  5
233
330
21C
100
AcDbEntity
  8
0
100
AcDbBlockEnd
  0
BLOCK
  5
230
330
219
100
AcDbEntity
 67
     1
  8
0
100
AcDbBlockBegin
  2
*PAPER_SPACE
 70
     0
 10
0.0
 20
0.0
 30
0.0
  3
*PAPER_SPACE
  1

  0
ENDBLK
  5
231
330
219
100
AcDbEntity
 67
     1
  8
0
100
AcDbBlockEnd
  0
BLOCK
  5
2E
330
221
100
AcDbEntity
  8
0
100
AcDbBlockBegin
  2
WAKU
 70
     0
 10
549.0
 20
0.0
 30
0.0
  3
WAKU
  1

  0
LINE
  5
2F
330
221
100
AcDbEntity
  8
11
100
AcDbLine
 10
452.0
 20
12.0
 30
0.0
 11
549.0
 21
12.0
 31
0.0
  0
LINE
  5
30
330
221
100
AcDbEntity
  8
11
100
AcDbLine
 10
477.0
 20
0.0
 30
0.0
 11
477.0
 21
12.0
 31
0.0
  0
LINE
  5
31
330
221
100
AcDbEntity
  8
11
100
AcDbLine
 10
452.0
 20
12.0
 30
0.0
 11
452.0
 21
0.0
 31
0.0
  0
TEXT
  5
32
330
221
100
AcDbEntity
  8
11
100
AcDbText
 10
454.0
 20
8.5
 30
0.0
 40
2.5
  1
尺度
100
AcDbText
  0
TEXT
  5
33
330
221
100
AcDbEntity
  8
11
100
AcDbText
 10
479.0
 20
8.5
 30
0.0
 40
2.5
  1
図番
100
AcDbText
  0
ENDBLK
  5
34
330
221
100
AcDbEntity
  8
0
100
AcDbBlockEnd
  0
BLOCK
  5
35
330
222
100
AcDbEntity
  8
0
100
AcDbBlockBegin
  2
QQ
 70
     0
 10
270.0
 20
0.0
 30
0.0
  3
QQ
  1

  0
LINE
  5
36
330
222
100
AcDbEntity
  8
11
100
AcDbLine
 10
173.0
 20
36.0
 30
0.0
 11
270.0
 21
36.0
 31
0.0
  0
TEXT
  5
37
330
222
100
AcDbEntity
  8
11
100
AcDbText
 10
175.0
 20
32.5
 30
0.0
 40
2.5
  1
部品名称
100
AcDbText
  0
LINE
  5
38
330
222
100
AcDbEntity
  8
11
100
AcDbLine
 10
173.0
 20
36.0
 30
0.0
 11
173.0
 21
0.0
 31
0.0
  0
LINE
  5
39
330
222
100
AcDbEntity
  8
11
100
AcDbLine
 10
173.0
 20
24.0
 30
0.0
 11
270.0
 21
24.0
 31
0.0
  0
TEXT
  5
3A
330
222
100
AcDbEntity
  8
11
100
AcDbText
 10
175.0
 20
20.5
 30
0.0
 40
2.5
  1
品番
100
AcDbText
  0
LINE
  5
3B
330
222
100
AcDbEntity
  8
11
100
AcDbLine
 10
173.0
 20
12.0
 30
0.0
 11
270.0
 21
12.0
 31
0.0
  0
TEXT
  5
3C
330
222
100
AcDbEntity
  8
11
100
AcDbText
 10
175.0
 20
8.5
 30
0.0
 40
2.5
  1
尺度
100
AcDbText
  0
TEXT
  5
3D
330
222
100
AcDbEntity
  8
11
100
AcDbText
 10
200.0
 20
8.5
 30
0.0
 40
2.5
  1
図番
100
AcDbText
  0
LINE
  5
3E
330
222
100
AcDbEntity
  8
11
100
AcDbLine
 10
198.0
 20
0.0
 30
0.0
 11
198.0
 21
12.0
 31
0.0
  0
ENDBLK
  5
3F
330
222
100
AcDbEntity
  8
0
100
AcDbBlockEnd
  0
BLOCK
  5
2F8
330
2F7
100
AcDbEntity
  8
0
100
AcDbBlockBegin
  2
*U2
 70
     1
 10
0.0
 20
0.0
 30
0.0
  3
*U2
  1

  0
ENDBLK
  5
2F9
330
2F7
100
AcDbEntity
  8
0
100
AcDbBlockEnd
  0
BLOCK
  5
3E1
330
3E0
100
AcDbEntity
  8
0
100
AcDbBlockBegin
  2
*U3
 70
     1
 10
0.0
 20
0.0
 30
0.0
  3
*U3
  1

  0
ENDBLK
  5
3E2
330
3E0
100
AcDbEntity
  8
0
100
AcDbBlockEnd
  0
BLOCK
  5
412
330
407
100
AcDbEntity
  8
0
100
AcDbBlockBegin
  2
*D4
 70
     1
 10
0.0
 20
0.0
 30
0.0
  3
*D4
  1

  0
LINE
  5
408
330
407
100
AcDbEntity
  8
0
 62
     0
370
    -2
100
AcDbLine
 10
632.752617334652
 20
336.8220685526456
 30
0.0
 11
655.736328613919
 21
336.8220685526456
 31
0.0
  0
LINE
  5
409
330
407
100
AcDbEntity
  8
0
 62
     0
370
    -2
100
AcDbLine
 10
632.752617334652
 20
269.8220685526452
 30
0.0
 11
655.736328613919
 21
269.8220685526452
 31
0.0
  0
LINE
  5
40A
330
407
100
AcDbEntity
  8
0
 62
     0
370
    -2
100
AcDbLine
 10
654.736328613919
 20
334.8220685526456
 30
0.0
 11
654.736328613919
 21
308.5787352193122
 31
0.0
  0
LINE
  5
40B
330
407
100
AcDbEntity
  8
0
 62
     0
370
    -2
100
AcDbLine
 10
654.736328613919
 20
271.8220685526452
 30
0.0
 11
654.736328613919
 21
300.0654018859789
 31
0.0
  0
SOLID
  5
40C
330
407
100
AcDbEntity
  8
0
 62
     0
100
AcDbTrace
 10
654.4029952805856
 20
334.8220685526456
 30
0.0
 11
655.0696619472524
 21
334.8220685526456
 31
0.0
 12
654.736328613919
 22
336.8220685526456
 32
0.0
 13
654.736328613919
 23
336.8220685526456
 33
0.0
  0
SOLID
  5
40D
330
407
100
AcDbEntity
  8
0
 62
     0
100
AcDbTrace
 10
654.4029952805856
 20
271.8220685526452
 30
0.0
 11
655.0696619472524
 21
271.8220685526452
 31
0.0
 12
654.736328613919
 22
269.8220685526452
 32
0.0
 13
654.736328613919
 23
269.8220685526452
 33
0.0
  0
MTEXT
  5
40E
330
407
100
AcDbEntity
  8
0
 62
     0
100
AcDbMText
 10
654.7363286139188
 20
304.3220685526457
 30
0.0
 40
5.0
 41
0.0
 71
     5
 72
     1
  1
\A1;67
 11
0.0000000000000001
 21
1.0
 31
0.0
 73
     1
 44
1.0
  0
POINT
  5
40F
330
407
100
AcDbEntity
  8
DEFPOINTS
 62
     0
100
AcDbPoint
 10
631.752617334652
 20
336.8220685526456
 30
0.0
  0
POINT
  5
410
330
407
100
AcDbEntity
  8
DEFPOINTS
 62
     0
100
AcDbPoint
 10
631.752617334652
 20
269.8220685526452
 30
0.0
  0
POINT
  5
411
330
407
100
AcDbEntity
  8
DEFPOINTS
 62
     0
100
AcDbPoint
 10
654.736328613919
 20
269.8220685526452
 30
0.0
  0
ENDBLK
  5
413
330
407
100
AcDbEntity
  8
0
100
AcDbBlockEnd
  0
BLOCK
  5
41F
330
414
100
AcDbEntity
  8
0
100
AcDbBlockBegin
  2
*D5
 70
     1
 10
0.0
 20
0.0
 30
0.0
  3
*D5
  1

  0
LINE
  5
415
330
414
100
AcDbEntity
  8
0
 62
     0
370
    -2
100
AcDbLine
 10
586.7363286139188
 20
340.3220685526457
 30
0.0
 11
586.7363286139188
 21
401.3220685526457
 31
0.0
  0
LINE
  5
416
330
414
100
AcDbEntity
  8
0
 62
     0
370
    -2
100
AcDbLine
 10
636.752617334652
 20
332.8220685526456
 30
0.0
 11
636.752617334652
 21
401.3220685526457
 31
0.0
  0
LINE
  5
417
330
414
100
AcDbEntity
  8
0
 62
     0
370
    -2
100
AcDbLine
 10
588.7363286139187
 20
400.3220685526456
 30
0.0
 11
613.8963286139187
 21
400.3220685526456
 31
0.0
  0
LINE
  5
418
330
414
100
AcDbEntity
  8
0
 62
     0
370
    -2
100
AcDbLine
 10
634.7526173346521
 20
400.3220685526456
 30
0.0
 11
621.5763286139187
 21
400.3220685526456
 31
0.0
  0
SOLID
  5
419
330
414
100
AcDbEntity
  8
0
 62
     0
100
AcDbTrace
 10
588.7363286139187
 20
400.655401885979
 30
0.0
 11
588.7363286139187
 21
399.9887352193124
 31
0.0
 12
586.7363286139188
 22
400.3220685526456
 32
0.0
 13
586.7363286139188
 23
400.3220685526456
 33
0.0
  0
SOLID
  5
41A
330
414
100
AcDbEntity
  8
0
 62
     0
100
AcDbTrace
 10
634.7526173346521
 20
400.655401885979
 30
0.0
 11
634.7526173346521
 21
399.9887352193124
 31
0.0
 12
636.752617334652
 22
400.3220685526456
 32
0.0
 13
636.752617334652
 23
400.3220685526456
 33
0.0
  0
MTEXT
  5
41B
330
414
100
AcDbEntity
  8
0
 62
     0
100
AcDbMText
 10
617.7363286139187
 20
400.3220685526456
 30
0.0
 40
5.0
 41
0.0
 71
     5
 72
     1
  1
\A1;50
 73
     1
 44
1.0
  0
POINT
  5
41C
330
414
100
AcDbEntity
  8
DEFPOINTS
 62
     0
100
AcDbPoint
 10
586.7363286139188
 20
339.3220685526457
 30
0.0
  0
POINT
  5
41D
330
414
100
AcDbEntity
  8
DEFPOINTS
 62
     0
100
AcDbPoint
 10
636.752617334652
 20
331.8220685526457
 30
0.0
  0
POINT
  5
41E
330
414
100
AcDbEntity
  8
DEFPOINTS
 62
     0
100
AcDbPoint
 10
636.752617334652
 20
400.3220685526456
 30
0.0
  0
ENDBLK
  5
420
330
414
100
AcDbEntity
  8
0
100
AcDbBlockEnd
  0
BLOCK
  5
42C
330
421
100
AcDbEntity
  8
0
100
AcDbBlockBegin
  2
*D6
 70
     1
 10
0.0
 20
0.0
 30
0.0
  3
*D6
  1

  0
LINE
  5
422
330
421
100
AcDbEntity
  8
0
 62
     0
370
    -2
100
AcDbLine
 10
636.752617334652
 20
332.8220685526456
 30
0.0
 11
636.752617334652
 21
386.3220685526457
 31
0.0
  0
LINE
  5
423
330
421
100
AcDbEntity
  8
0
 62
     0
370
    -2
100
AcDbLine
 10
614.752617334652
 20
340.3220685526454
 30
0.0
 11
614.752617334652
 21
386.3220685526457
 31
0.0
  0
LINE
  5
424
330
421
100
AcDbEntity
  8
0
 62
     0
370
    -2
100
AcDbLine
 10
634.7526173346521
 20
385.3220685526457
 30
0.0
 11
631.4929952805854
 21
385.3220685526457
 31
0.0
  0
LINE
  5
425
330
421
100
AcDbEntity
  8
0
 62
     0
370
    -2
100
AcDbLine
 10
616.7526173346519
 20
385.3220685526457
 30
0.0
 11
622.9796619472521
 21
385.3220685526457
 31
0.0
  0
SOLID
  5
426
330
421
100
AcDbEntity
  8
0
 62
     0
100
AcDbTrace
 10
634.7526173346521
 20
385.655401885979
 30
0.0
 11
634.7526173346521
 21
384.9887352193123
 31
0.0
 12
636.752617334652
 22
385.3220685526457
 32
0.0
 13
636.752617334652
 23
385.3220685526457
 33
0.0
  0
SOLID
  5
427
330
421
100
AcDbEntity
  8
0
 62
     0
100
AcDbTrace
 10
616.7526173346519
 20
385.655401885979
 30
0.0
 11
616.7526173346519
 21
384.9887352193123
 31
0.0
 12
614.752617334652
 22
385.3220685526457
 32
0.0
 13
614.752617334652
 23
385.3220685526457
 33
0.0
  0
MTEXT
  5
428
330
421
100
AcDbEntity
  8
0
 62
     0
100
AcDbMText
 10
627.2363286139188
 20
385.3220685526457
 30
0.0
 40
5.0
 41
0.0
 71
     5
 72
     1
  1
\A1;22
 73
     1
 44
1.0
  0
POINT
  5
429
330
421
100
AcDbEntity
  8
DEFPOINTS
 62
     0
100
AcDbPoint
 10
636.752617334652
 20
331.8220685526457
 30
0.0
  0
POINT
  5
42A
330
421
100
AcDbEntity
  8
DEFPOINTS
 62
     0
100
AcDbPoint
 10
614.752617334652
 20
339.3220685526454
 30
0.0
  0
POINT
  5
42B
330
421
100
AcDbEntity
  8
DEFPOINTS
 62
     0
100
AcDbPoint
 10
614.752617334652
 20
385.3220685526457
 30
0.0
  0
ENDBLK
  5
42D
330
421
100
AcDbEntity
  8
0
100
AcDbBlockEnd
  0
BLOCK
  5
437
330
42E
100
AcDbEntity
  8
0
100
AcDbBlockBegin
  2
*D7
 70
     1
 10
0.0
 20
0.0
 30
0.0
  3
*D7
  1

  0
LINE
  5
42F
330
42E
100
AcDbEntity
  8
0
 62
     0
370
    -2
100
AcDbLine
 10
649.8611985576508
 20
352.4946121514389
 30
0.0
 11
647.8611985576506
 21
352.4946121514389
 31
0.0
  0
LINE
  5
430
330
42E
100
AcDbEntity
  8
0
 62
     0
370
    -2
100
AcDbLine
 10
647.8611985576506
 20
352.4946121514389
 30
0.0
 11
636.055181936807
 21
337.3436568969798
 31
0.0
  0
MTEXT
  5
431
330
42E
100
AcDbEntity
  8
0
 62
     0
100
AcDbMText
 10
654.1178652243175
 20
352.4946121514389
 30
0.0
 40
5.0
 41
0.0
 71
     5
 72
     1
  1
\A1;R5
 73
     1
 44
1.0
  0
SOLID
  5
432
330
42E
100
AcDbEntity
  8
0
 62
     0
100
AcDbTrace
 10
635.7922491585054
 20
337.5485409256538
 30
0.0
 11
636.3181147151085
 21
337.1387728683058
 31
0.0
 12
634.8258777647628
 22
335.7660602271701
 32
0.0
 13
634.8258777647628
 23
335.7660602271701
 33
0.0
  0
LINE
  5
433
330
42E
100
AcDbEntity
  8
0
 62
     0
370
    -2
100
AcDbLine
 10
631.6626173346523
 20
331.8220685526456
 30
0.0
 11
631.8426173346524
 21
331.8220685526457
 31
0.0
  0
LINE
  5
434
330
42E
100
AcDbEntity
  8
0
 62
     0
370
    -2
100
AcDbLine
 10
631.7526173346524
 20
331.7320685526457
 30
0.0
 11
631.7526173346522
 21
331.9120685526456
 31
0.0
  0
POINT
  5
435
330
42E
100
AcDbEntity
  8
DEFPOINTS
 62
     0
100
AcDbPoint
 10
634.8258777647628
 20
335.7660602271701
 30
0.0
  0
POINT
  5
436
330
42E
100
AcDbEntity
  8
DEFPOINTS
 62
     0
100
AcDbPoint
 10
631.7526173346522
 20
331.8220685526457
 30
0.0
  0
ENDBLK
  5
438
330
42E
100
AcDbEntity
  8
0
100
AcDbBlockEnd
  0
BLOCK
  5
442
330
439
100
AcDbEntity
  8
0
100
AcDbBlockBegin
  2
*D8
 70
     1
 10
0.0
 20
0.0
 30
0.0
  3
*D8
  1

  0
LINE
  5
43A
330
439
100
AcDbEntity
  8
0
 62
     0
370
    -2
100
AcDbLine
 10
222.4035185822035
 20
486.6968738053784
 30
0.0
 11
224.4035185822037
 21
486.6968738053785
 31
0.0
  0
LINE
  5
43B
330
439
100
AcDbEntity
  8
0
 62
     0
370
    -2
100
AcDbLine
 10
224.4035185822037
 20
486.6968738053785
 30
0.0
 11
243.7098468157378
 21
466.7378452728353
 31
0.0
  0
MTEXT
  5
43C
330
439
100
AcDbEntity
  8
0
 62
     0
100
AcDbMText
 10
213.1468519155368
 20
486.6968738053784
 30
0.0
 40
5.0
 41
0.0
 71
     5
 72
     1
  1
\A1;%%C22.1
 73
     1
 44
1.0
  0
SOLID
  5
43D
330
439
100
AcDbEntity
  8
0
 62
     0
100
AcDbTrace
 10
243.9494340096358
 20
466.9695974845426
 30
0.0
 11
243.4702596218399
 21
466.5060930611281
 31
0.0
 12
245.1003600859814
 22
465.3003221094476
 32
0.0
 13
245.1003600859814
 23
465.3003221094476
 33
0.0
  0
LINE
  5
43E
330
439
100
AcDbEntity
  8
0
 62
     0
370
    -2
100
AcDbLine
 10
252.7277087358335
 20
457.3220685526454
 30
0.0
 11
252.9077087358336
 21
457.3220685526454
 31
0.0
  0
LINE
  5
43F
330
439
100
AcDbEntity
  8
0
 62
     0
370
    -2
100
AcDbLine
 10
252.8177087358336
 20
457.2320685526453
 30
0.0
 11
252.8177087358336
 21
457.4120685526453
 31
0.0
  0
POINT
  5
440
330
439
100
AcDbEntity
  8
DEFPOINTS
 62
     0
100
AcDbPoint
 10
245.1003600859814
 20
465.3003221094476
 30
0.0
  0
POINT
  5
441
330
439
100
AcDbEntity
  8
DEFPOINTS
 62
     0
100
AcDbPoint
 10
260.5350573856858
 20
449.3438149958433
 30
0.0
  0
ENDBLK
  5
443
330
439
100
AcDbEntity
  8
0
100
AcDbBlockEnd
  0
BLOCK
  5
446
330
444
100
AcDbEntity
  8
0
100
AcDbBlockBegin
  2
GENAXEH
 70
     0
 10
0.0
 20
0.0
 30
0.0
  3
GENAXEH
  1

  0
LINE
  5
445
330
444
100
AcDbEntity
  8
0
100
AcDbLine
 10
-1.0
 20
0.0
 30
0.0
 11
1.0
 21
0.0
 31
0.0
  0
ENDBLK
  5
447
330
444
100
AcDbEntity
  8
0
100
AcDbBlockEnd
  0
BLOCK
  5
453
330
448
100
AcDbEntity
  8
0
100
AcDbBlockBegin
  2
*D10
 70
     1
 10
0.0
 20
0.0
 30
0.0
  3
*D10
  1

  0
LINE
  5
449
330
448
100
AcDbEntity
  8
0
 62
     0
370
    -2
100
AcDbLine
 10
576.7526173346519
 20
480.6837895078237
 30
0.0
 11
519.1282156606404
 21
480.6837895078237
 31
0.0
  0
LINE
  5
44A
330
448
100
AcDbEntity
  8
0
 62
     0
370
    -2
100
AcDbLine
 10
573.4395188450398
 20
125.9603475974672
 30
0.0
 11
519.1282156606403
 21
125.9603475974672
 31
0.0
  0
LINE
  5
44B
330
448
100
AcDbEntity
  8
0
 62
     0
370
    -2
100
AcDbLine
 10
520.1282156606404
 20
478.6837895078237
 30
0.0
 11
520.1282156606404
 21
310.3483178576233
 31
0.0
  0
LINE
  5
44C
330
448
100
AcDbEntity
  8
0
 62
     0
370
    -2
100
AcDbLine
 10
520.1282156606403
 20
127.9603475974672
 30
0.0
 11
520.1282156606404
 21
291.83498452429
 31
0.0
  0
SOLID
  5
44D
330
448
100
AcDbEntity
  8
0
 62
     0
100
AcDbTrace
 10
519.794882327307
 20
478.6837895078237
 30
0.0
 11
520.4615489939738
 21
478.6837895078237
 31
0.0
 12
520.1282156606404
 22
480.6837895078237
 32
0.0
 13
520.1282156606404
 23
480.6837895078237
 33
0.0
  0
SOLID
  5
44E
330
448
100
AcDbEntity
  8
0
 62
     0
100
AcDbTrace
 10
519.7948823273069
 20
127.9603475974672
 30
0.0
 11
520.4615489939737
 21
127.9603475974672
 31
0.0
 12
520.1282156606403
 22
125.9603475974672
 32
0.0
 13
520.1282156606403
 23
125.9603475974672
 33
0.0
  0
MTEXT
  5
44F
330
448
100
AcDbEntity
  8
0
 62
     0
100
AcDbMText
 10
520.1282156606403
 20
301.0916511909567
 30
0.0
 40
5.0
 41
0.0
 71
     5
 72
     1
  1
\A1;%%C355
 11
0.0000000000000001
 21
1.0
 31
0.0
 73
     1
 44
1.0
  0
POINT
  5
450
330
448
100
AcDbEntity
  8
DEFPOINTS
 62
     0
100
AcDbPoint
 10
577.752617334652
 20
480.6837895078237
 30
0.0
  0
POINT
  5
451
330
448
100
AcDbEntity
  8
DEFPOINTS
 62
     0
100
AcDbPoint
 10
574.4395188450398
 20
125.9603475974672
 30
0.0
  0
POINT
  5
452
330
448
100
AcDbEntity
  8
DEFPOINTS
 62
     0
100
AcDbPoint
 10
520.1282156606403
 20
125.9603475974672
 30
0.0
  0
ENDBLK
  5
454
330
448
100
AcDbEntity
  8
0
100
AcDbBlockEnd
  0
BLOCK
  5
460
330
455
100
AcDbEntity
  8
0
100
AcDbBlockBegin
  2
*D11
 70
     1
 10
0.0
 20
0.0
 30
0.0
  3
*D11
  1

  0
LINE
  5
456
330
455
100
AcDbEntity
  8
0
 62
     0
370
    -2
100
AcDbLine
 10
285.7445222281946
 20
457.3220685526455
 30
0.0
 11
451.498337677645
 21
457.3220685526454
 31
0.0
  0
LINE
  5
457
330
455
100
AcDbEntity
  8
0
 62
     0
370
    -2
100
AcDbLine
 10
443.3196201807677
 20
303.3220685526454
 30
0.0
 11
451.4983376776449
 21
303.3220685526454
 31
0.0
  0
LINE
  5
458
330
455
100
AcDbEntity
  8
0
 62
     0
370
    -2
100
AcDbLine
 10
450.498337677645
 20
455.3220685526453
 30
0.0
 11
450.498337677645
 21
390.535121497239
 31
0.0
  0
LINE
  5
459
330
455
100
AcDbEntity
  8
0
 62
     0
370
    -2
100
AcDbLine
 10
450.4983376776449
 20
305.3220685526454
 30
0.0
 11
450.4983376776449
 21
378.6884548305723
 31
0.0
  0
SOLID
  5
45A
330
455
100
AcDbEntity
  8
0
 62
     0
100
AcDbTrace
 10
450.1650043443117
 20
455.3220685526453
 30
0.0
 11
450.8316710109783
 21
455.3220685526453
 31
0.0
 12
450.498337677645
 22
457.3220685526454
 32
0.0
 13
450.498337677645
 23
457.3220685526454
 33
0.0
  0
SOLID
  5
45B
330
455
100
AcDbEntity
  8
0
 62
     0
100
AcDbTrace
 10
450.1650043443116
 20
305.3220685526454
 30
0.0
 11
450.8316710109782
 21
305.3220685526454
 31
0.0
 12
450.4983376776449
 22
303.3220685526454
 32
0.0
 13
450.4983376776449
 23
303.3220685526454
 33
0.0
  0
MTEXT
  5
45C
330
455
100
AcDbEntity
  8
0
 62
     0
100
AcDbMText
 10
450.4983376776449
 20
384.6117881639058
 30
0.0
 40
5.0
 41
0.0
 71
     5
 72
     1
  1
\A1;154
 11
0.0000000000000001
 21
1.0
 31
0.0
 73
     1
 44
1.0
  0
POINT
  5
45D
330
455
100
AcDbEntity
  8
DEFPOINTS
 62
     0
100
AcDbPoint
 10
284.7445222281947
 20
457.3220685526455
 30
0.0
  0
POINT
  5
45E
330
455
100
AcDbEntity
  8
DEFPOINTS
 62
     0
100
AcDbPoint
 10
442.3196201807677
 20
303.3220685526454
 30
0.0
  0
POINT
  5
45F
330
455
100
AcDbEntity
  8
DEFPOINTS
 62
     0
100
AcDbPoint
 10
450.4983376776449
 20
303.3220685526454
 30
0.0
  0
ENDBLK
  5
461
330
455
100
AcDbEntity
  8
0
100
AcDbBlockEnd
  0
BLOCK
  5
469
330
462
100
AcDbEntity
  8
0
100
AcDbBlockBegin
  2
*D12
 70
     1
 10
0.0
 20
0.0
 30
0.0
  3
*D12
  1

  0
LINE
  5
463
330
462
100
AcDbEntity
  8
0
 62
     0
370
    -2
100
AcDbLine
 10
550.8675355149521
 20
175.8022427892446
 30
0.0
 11
552.8675355149521
 21
175.8022427892446
 31
0.0
  0
LINE
  5
464
330
462
100
AcDbEntity
  8
0
 62
     0
370
    -2
100
AcDbLine
 10
552.8675355149521
 20
175.8022427892446
 30
0.0
 11
585.3083145311517
 21
130.3815272532697
 31
0.0
  0
MTEXT
  5
465
330
462
100
AcDbEntity
  8
0
 62
     0
100
AcDbMText
 10
544.9442021816187
 20
175.8022427892446
 30
0.0
 40
5.0
 41
0.0
 71
     5
 72
     1
  1
\A1;R15
 73
     1
 44
1.0
  0
SOLID
  5
466
330
462
100
AcDbEntity
  8
0
 62
     0
100
AcDbTrace
 10
585.5795663348491
 20
130.575263078821
 30
0.0
 11
585.0370627274543
 21
130.1877914277184
 31
0.0
 12
586.4707294844594
 22
128.7540164310855
 32
0.0
 13
586.4707294844594
 23
128.7540164310855
 33
0.0
  0
POINT
  5
467
330
462
100
AcDbEntity
  8
DEFPOINTS
 62
     0
100
AcDbPoint
 10
586.4707294844594
 20
128.7540164310855
 30
0.0
  0
POINT
  5
468
330
462
100
AcDbEntity
  8
DEFPOINTS
 62
     0
100
AcDbPoint
 10
577.7526173346518
 20
140.9603475974671
 30
0.0
  0
ENDBLK
  5
46A
330
462
100
AcDbEntity
  8
0
100
AcDbBlockEnd
  0
BLOCK
  5
476
330
46B
100
AcDbEntity
  8
0
100
AcDbBlockBegin
  2
*D13
 70
     1
 10
0.0
 20
0.0
 30
0.0
  3
*D13
  1

  0
LINE
  5
46C
330
46B
100
AcDbEntity
  8
0
 62
     0
370
    -2
100
AcDbLine
 10
562.9371950432219
 20
468.2902626030675
 30
0.0
 11
526.7875175606069
 21
468.2902626030675
 31
0.0
  0
LINE
  5
46D
330
46B
100
AcDbEntity
  8
0
 62
     0
370
    -2
100
AcDbLine
 10
561.752617334652
 20
446.1902626030675
 30
0.0
 11
526.7875175606069
 21
446.1902626030675
 31
0.0
  0
LINE
  5
46E
330
46B
100
AcDbEntity
  8
0
 62
     0
370
    -2
100
AcDbLine
 10
527.7875175606069
 20
466.2902626030676
 30
0.0
 11
527.7875175606069
 21
465.6499756603539
 31
0.0
  0
LINE
  5
46F
330
46B
100
AcDbEntity
  8
0
 62
     0
370
    -2
100
AcDbLine
 10
527.7875175606069
 20
448.1902626030675
 30
0.0
 11
527.7875175606069
 21
452.1366423270206
 31
0.0
  0
SOLID
  5
470
330
46B
100
AcDbEntity
  8
0
 62
     0
100
AcDbTrace
 10
527.4541842272736
 20
466.2902626030676
 30
0.0
 11
528.1208508939402
 21
466.2902626030676
 31
0.0
 12
527.7875175606069
 22
468.2902626030675
 32
0.0
 13
527.7875175606069
 23
468.2902626030675
 33
0.0
  0
SOLID
  5
471
330
46B
100
AcDbEntity
  8
0
 62
     0
100
AcDbTrace
 10
527.4541842272736
 20
448.1902626030675
 30
0.0
 11
528.1208508939402
 21
448.1902626030675
 31
0.0
 12
527.7875175606069
 22
446.1902626030675
 32
0.0
 13
527.7875175606069
 23
446.1902626030675
 33
0.0
  0
MTEXT
  5
472
330
46B
100
AcDbEntity
  8
0
 62
     0
100
AcDbMText
 10
527.7875175606068
 20
458.8933089936873
 30
0.0
 40
5.0
 41
0.0
 71
     5
 72
     1
  1
\A1;22.1
 11
0.0000000000000001
 21
1.0
 31
0.0
 73
     1
 44
1.0
  0
POINT
  5
473
330
46B
100
AcDbEntity
  8
DEFPOINTS
 62
     0
100
AcDbPoint
 10
563.9371950432219
 20
468.2902626030675
 30
0.0
  0
POINT
  5
474
330
46B
100
AcDbEntity
  8
DEFPOINTS
 62
     0
100
AcDbPoint
 10
562.7526173346519
 20
446.1902626030675
 30
0.0
  0
POINT
  5
475
330
46B
100
AcDbEntity
  8
DEFPOINTS
 62
     0
100
AcDbPoint
 10
527.7875175606069
 20
446.1902626030675
 30
0.0
  0
ENDBLK
  5
477
330
46B
100
AcDbEntity
  8
0
100
AcDbBlockEnd
  0
BLOCK
  5
691
330
686
100
AcDbEntity
  8
0
100
AcDbBlockBegin
  2
*D15
 70
     1
 10
0.0
 20
0.0
 30
0.0
  3
*D15
  1

  0
LINE
  5
6FB
330
686
100
AcDbEntity
  8
0
 62
     0
370
    -2
100
AcDbLine
 10
399.4327030293921
 20
481.8630942660507
 30
0.0
 11
565.1865184788424
 21
481.8630942660507
 31
0.0
  0
LINE
  5
6FC
330
686
100
AcDbEntity
  8
0
 62
     0
370
    -2
100
AcDbLine
 10
557.0078009819651
 20
327.8630942660508
 30
0.0
 11
565.1865184788424
 21
327.8630942660508
 31
0.0
  0
LINE
  5
6FD
330
686
100
AcDbEntity
  8
0
 62
     0
370
    -2
100
AcDbLine
 10
564.1865184788424
 20
479.8630942660508
 30
0.0
 11
564.1865184788424
 21
440.0428138773111
 31
0.0
  0
LINE
  5
6FE
330
686
100
AcDbEntity
  8
0
 62
     0
370
    -2
100
AcDbLine
 10
564.1865184788424
 20
329.8630942660508
 30
0.0
 11
564.1865184788424
 21
378.2628138773111
 31
0.0
  0
SOLID
  5
6FF
330
686
100
AcDbEntity
  8
0
 62
     0
100
AcDbTrace
 10
563.853185145509
 20
479.8630942660508
 30
0.0
 11
564.5198518121758
 21
479.8630942660508
 31
0.0
 12
564.1865184788424
 22
481.8630942660507
 32
0.0
 13
564.1865184788424
 23
481.8630942660507
 33
0.0
  0
SOLID
  5
700
330
686
100
AcDbEntity
  8
0
 62
     0
100
AcDbTrace
 10
563.853185145509
 20
329.8630942660508
 30
0.0
 11
564.5198518121758
 21
329.8630942660508
 31
0.0
 12
564.1865184788424
 22
327.8630942660508
 32
0.0
 13
564.1865184788424
 23
327.8630942660508
 33
0.0
  0
MTEXT
  5
701
330
686
100
AcDbEntity
  8
0
 62
     0
100
AcDbMText
 10
564.1865184788423
 20
409.1528138773111
 30
0.0
 40
33.0
 41
0.0
 71
     5
 72
     1
  1
\A1;154
  7
BIGFONT
 11
0.0000000000000001
 21
1.0
 31
0.0
 73
     1
 44
1.0
  0
POINT
  5
702
330
686
100
AcDbEntity
  8
DEFPOINTS
 62
     0
100
AcDbPoint
 10
398.4327030293921
 20
481.8630942660507
 30
0.0
  0
POINT
  5
703
330
686
100
AcDbEntity
  8
DEFPOINTS
 62
     0
100
AcDbPoint
 10
556.0078009819651
 20
327.8630942660508
 30
0.0
  0
POINT
  5
704
330
686
100
AcDbEntity
  8
DEFPOINTS
 62
     0
100
AcDbPoint
 10
564.1865184788424
 20
327.8630942660508
 30
0.0
  0
ENDBLK
  5
692
330
686
100
AcDbEntity
  8
0
100
AcDbBlockEnd
  0
BLOCK
  5
69C
330
693
100
AcDbEntity
  8
0
100
AcDbBlockBegin
  2
*D16
 70
     1
 10
0.0
 20
0.0
 30
0.0
  3
*D16
  1

  0
LINE
  5
70D
330
693
100
AcDbEntity
  8
0
 62
     0
370
    -2
100
AcDbLine
 10
336.0916993834012
 20
511.2378995187837
 30
0.0
 11
338.0916993834014
 21
511.2378995187837
 31
0.0
  0
LINE
  5
70E
330
693
100
AcDbEntity
  8
0
 62
     0
370
    -2
100
AcDbLine
 10
338.0916993834014
 20
511.2378995187837
 30
0.0
 11
357.3980276169353
 21
491.2788709862407
 31
0.0
  0
MTEXT
  5
70F
330
693
100
AcDbEntity
  8
0
 62
     0
100
AcDbMText
 10
287.6016993834013
 20
511.2378995187838
 30
0.0
 40
33.0
 41
0.0
 71
     5
 72
     1
  1
\A1;%%C22.1
  7
BIGFONT
 73
     1
 44
1.0
  0
SOLID
  5
710
330
693
100
AcDbEntity
  8
0
 62
     0
100
AcDbTrace
 10
357.6376148108333
 20
491.5106231979479
 30
0.0
 11
357.1584404230373
 21
491.0471187745334
 31
0.0
 12
358.788540887179
 22
489.8413478228529
 32
0.0
 13
358.788540887179
 23
489.8413478228529
 33
0.0
  0
LINE
  5
711
330
693
100
AcDbEntity
  8
0
 62
     0
370
    -2
100
AcDbLine
 10
366.4158895370312
 20
481.8630942660507
 30
0.0
 11
366.5958895370311
 21
481.8630942660507
 31
0.0
  0
LINE
  5
712
330
693
100
AcDbEntity
  8
0
 62
     0
370
    -2
100
AcDbLine
 10
366.5058895370311
 20
481.7730942660507
 30
0.0
 11
366.5058895370311
 21
481.9530942660507
 31
0.0
  0
POINT
  5
713
330
693
100
AcDbEntity
  8
DEFPOINTS
 62
     0
100
AcDbPoint
 10
358.788540887179
 20
489.8413478228529
 30
0.0
  0
POINT
  5
714
330
693
100
AcDbEntity
  8
DEFPOINTS
 62
     0
100
AcDbPoint
 10
374.2232381868833
 20
473.8848407092485
 30
0.0
  0
ENDBLK
  5
69D
330
693
100
AcDbEntity
  8
0
100
AcDbBlockEnd
  0
BLOCK
  5
6A9
330
69E
100
AcDbEntity
  8
0
100
AcDbBlockBegin
  2
*D17
 70
     1
 10
0.0
 20
0.0
 30
0.0
  3
*D17
  1

  0
LINE
  5
71F
330
69E
100
AcDbEntity
  8
0
 62
     0
370
    -2
100
AcDbLine
 10
690.4407981358494
 20
505.224815221229
 30
0.0
 11
632.8163964618378
 21
505.2248152212291
 31
0.0
  0
LINE
  5
720
330
69E
100
AcDbEntity
  8
0
 62
     0
370
    -2
100
AcDbLine
 10
687.1276996462372
 20
150.5013733108725
 30
0.0
 11
632.8163964618377
 21
150.5013733108725
 31
0.0
  0
LINE
  5
721
330
69E
100
AcDbEntity
  8
0
 62
     0
370
    -2
100
AcDbLine
 10
633.8163964618378
 20
503.224815221229
 30
0.0
 11
633.8163964618378
 21
374.122676904362
 31
0.0
  0
LINE
  5
722
330
69E
100
AcDbEntity
  8
0
 62
     0
370
    -2
100
AcDbLine
 10
633.8163964618376
 20
152.5013733108725
 30
0.0
 11
633.8163964618378
 21
277.1426769043619
 31
0.0
  0
SOLID
  5
723
330
69E
100
AcDbEntity
  8
0
 62
     0
100
AcDbTrace
 10
633.4830631285044
 20
503.224815221229
 30
0.0
 11
634.1497297951711
 21
503.224815221229
 31
0.0
 12
633.8163964618378
 22
505.2248152212291
 32
0.0
 13
633.8163964618378
 23
505.2248152212291
 33
0.0
  0
SOLID
  5
724
330
69E
100
AcDbEntity
  8
0
 62
     0
100
AcDbTrace
 10
633.4830631285043
 20
152.5013733108725
 30
0.0
 11
634.149729795171
 21
152.5013733108725
 31
0.0
 12
633.8163964618376
 22
150.5013733108725
 32
0.0
 13
633.8163964618376
 23
150.5013733108725
 33
0.0
  0
MTEXT
  5
725
330
69E
100
AcDbEntity
  8
0
 62
     0
100
AcDbMText
 10
633.8163964618376
 20
325.632676904362
 30
0.0
 40
33.0
 41
0.0
 71
     5
 72
     1
  1
\A1;%%C355
  7
BIGFONT
 11
0.0000000000000001
 21
1.0
 31
0.0
 73
     1
 44
1.0
  0
POINT
  5
726
330
69E
100
AcDbEntity
  8
DEFPOINTS
 62
     0
100
AcDbPoint
 10
691.4407981358494
 20
505.224815221229
 30
0.0
  0
POINT
  5
727
330
69E
100
AcDbEntity
  8
DEFPOINTS
 62
     0
100
AcDbPoint
 10
688.1276996462372
 20
150.5013733108725
 30
0.0
  0
POINT
  5
728
330
69E
100
AcDbEntity
  8
DEFPOINTS
 62
     0
100
AcDbPoint
 10
633.8163964618376
 20
150.5013733108725
 30
0.0
  0
ENDBLK
  5
6AA
330
69E
100
AcDbEntity
  8
0
100
AcDbBlockEnd
  0
BLOCK
  5
6B6
330
6AB
100
AcDbEntity
  8
0
100
AcDbBlockBegin
  2
*D18
 70
     1
 10
0.0
 20
0.0
 30
0.0
  3
*D18
  1

  0
LINE
  5
733
330
6AB
100
AcDbEntity
  8
0
 62
     0
370
    -2
100
AcDbLine
 10
746.4407981358495
 20
361.363094266051
 30
0.0
 11
769.4245094151164
 21
361.363094266051
 31
0.0
  0
LINE
  5
734
330
6AB
100
AcDbEntity
  8
0
 62
     0
370
    -2
100
AcDbLine
 10
746.4407981358495
 20
294.3630942660505
 30
0.0
 11
769.4245094151164
 21
294.3630942660505
 31
0.0
  0
LINE
  5
735
330
6AB
100
AcDbEntity
  8
0
 62
     0
370
    -2
100
AcDbLine
 10
768.4245094151163
 20
359.363094266051
 30
0.0
 11
768.4245094151163
 21
350.9530942660508
 31
0.0
  0
LINE
  5
736
330
6AB
100
AcDbEntity
  8
0
 62
     0
370
    -2
100
AcDbLine
 10
768.4245094151163
 20
296.3630942660505
 30
0.0
 11
768.4245094151163
 21
306.7730942660509
 31
0.0
  0
SOLID
  5
737
330
6AB
100
AcDbEntity
  8
0
 62
     0
100
AcDbTrace
 10
768.091176081783
 20
359.363094266051
 30
0.0
 11
768.7578427484497
 21
359.363094266051
 31
0.0
 12
768.4245094151163
 22
361.363094266051
 32
0.0
 13
768.4245094151163
 23
361.363094266051
 33
0.0
  0
SOLID
  5
738
330
6AB
100
AcDbEntity
  8
0
 62
     0
100
AcDbTrace
 10
768.091176081783
 20
296.3630942660505
 30
0.0
 11
768.7578427484497
 21
296.3630942660505
 31
0.0
 12
768.4245094151163
 22
294.3630942660505
 32
0.0
 13
768.4245094151163
 23
294.3630942660505
 33
0.0
  0
MTEXT
  5
739
330
6AB
100
AcDbEntity
  8
0
 62
     0
100
AcDbMText
 10
768.4245094151163
 20
328.863094266051
 30
0.0
 40
33.0
 41
0.0
 71
     5
 72
     1
  1
\A1;67
  7
BIGFONT
 11
0.0000000000000001
 21
1.0
 31
0.0
 73
     1
 44
1.0
  0
POINT
  5
73A
330
6AB
100
AcDbEntity
  8
DEFPOINTS
 62
     0
100
AcDbPoint
 10
745.4407981358494
 20
361.363094266051
 30
0.0
  0
POINT
  5
73B
330
6AB
100
AcDbEntity
  8
DEFPOINTS
 62
     0
100
AcDbPoint
 10
745.4407981358494
 20
294.3630942660505
 30
0.0
  0
POINT
  5
73C
330
6AB
100
AcDbEntity
  8
DEFPOINTS
 62
     0
100
AcDbPoint
 10
768.4245094151163
 20
294.3630942660505
 30
0.0
  0
ENDBLK
  5
6B7
330
6AB
100
AcDbEntity
  8
0
100
AcDbBlockEnd
  0
BLOCK
  5
6BF
330
6B8
100
AcDbEntity
  8
0
100
AcDbBlockBegin
  2
*D19
 70
     1
 10
0.0
 20
0.0
 30
0.0
  3
*D19
  1

  0
LINE
  5
743
330
6B8
100
AcDbEntity
  8
0
 62
     0
370
    -2
100
AcDbLine
 10
664.5557163161496
 20
200.3432685026499
 30
0.0
 11
666.5557163161495
 21
200.3432685026498
 31
0.0
  0
LINE
  5
744
330
6B8
100
AcDbEntity
  8
0
 62
     0
370
    -2
100
AcDbLine
 10
666.5557163161495
 20
200.3432685026498
 30
0.0
 11
698.9964953323493
 21
154.9225529666751
 31
0.0
  0
MTEXT
  5
745
330
6B8
100
AcDbEntity
  8
0
 62
     0
100
AcDbMText
 10
633.6657163161495
 20
200.3432685026498
 30
0.0
 40
33.0
 41
0.0
 71
     5
 72
     1
  1
\A1;R15
  7
BIGFONT
 73
     1
 44
1.0
  0
SOLID
  5
746
330
6B8
100
AcDbEntity
  8
0
 62
     0
100
AcDbTrace
 10
699.2677471360467
 20
155.1162887922264
 30
0.0
 11
698.7252435286519
 21
154.7288171411238
 31
0.0
 12
700.158910285657
 22
153.2950421444909
 32
0.0
 13
700.158910285657
 23
153.2950421444909
 33
0.0
  0
POINT
  5
747
330
6B8
100
AcDbEntity
  8
DEFPOINTS
 62
     0
100
AcDbPoint
 10
700.158910285657
 20
153.2950421444909
 30
0.0
  0
POINT
  5
748
330
6B8
100
AcDbEntity
  8
DEFPOINTS
 62
     0
100
AcDbPoint
 10
691.4407981358493
 20
165.5013733108725
 30
0.0
  0
ENDBLK
  5
6C0
330
6B8
100
AcDbEntity
  8
0
100
AcDbBlockEnd
  0
BLOCK
  5
6CA
330
6C1
100
AcDbEntity
  8
0
100
AcDbBlockBegin
  2
*D20
 70
     1
 10
0.0
 20
0.0
 30
0.0
  3
*D20
  1

  0
LINE
  5
751
330
6C1
100
AcDbEntity
  8
0
 62
     0
370
    -2
100
AcDbLine
 10
763.5493793588489
 20
377.0356378648442
 30
0.0
 11
761.5493793588487
 21
377.0356378648441
 31
0.0
  0
LINE
  5
752
330
6C1
100
AcDbEntity
  8
0
 62
     0
370
    -2
100
AcDbLine
 10
761.5493793588487
 20
377.0356378648441
 30
0.0
 11
749.7433627380045
 21
361.8846826103851
 31
0.0
  0
MTEXT
  5
753
330
6C1
100
AcDbEntity
  8
0
 62
     0
100
AcDbMText
 10
785.6393793588488
 20
377.0356378648441
 30
0.0
 40
33.0
 41
0.0
 71
     5
 72
     1
  1
\A1;R5
  7
BIGFONT
 73
     1
 44
1.0
  0
SOLID
  5
754
330
6C1
100
AcDbEntity
  8
0
 62
     0
100
AcDbTrace
 10
749.4804299597028
 20
362.0895666390591
 30
0.0
 11
750.0062955163062
 21
361.6797985817111
 31
0.0
 12
748.5140585659603
 22
360.3070859405755
 32
0.0
 13
748.5140585659603
 23
360.3070859405755
 33
0.0
  0
LINE
  5
755
330
6C1
100
AcDbEntity
  8
0
 62
     0
370
    -2
100
AcDbLine
 10
745.3507981358495
 20
356.3630942660509
 30
0.0
 11
745.5307981358496
 21
356.363094266051
 31
0.0
  0
LINE
  5
756
330
6C1
100
AcDbEntity
  8
0
 62
     0
370
    -2
100
AcDbLine
 10
745.4407981358494
 20
356.2730942660509
 30
0.0
 11
745.4407981358494
 21
356.4530942660509
 31
0.0
  0
POINT
  5
757
330
6C1
100
AcDbEntity
  8
DEFPOINTS
 62
     0
100
AcDbPoint
 10
748.5140585659603
 20
360.3070859405755
 30
0.0
  0
POINT
  5
758
330
6C1
100
AcDbEntity
  8
DEFPOINTS
 62
     0
100
AcDbPoint
 10
745.4407981358496
 20
356.3630942660509
 30
0.0
  0
ENDBLK
  5
6CB
330
6C1
100
AcDbEntity
  8
0
100
AcDbBlockEnd
  0
BLOCK
  5
6D6
330
6CC
100
AcDbEntity
  8
0
100
AcDbBlockBegin
  2
*D21
 70
     1
 10
0.0
 20
0.0
 30
0.0
  3
*D21
  1

  0
LINE
  5
762
330
6CC
100
AcDbEntity
  8
0
 62
     0
370
    -2
100
AcDbLine
 10
676.6253758444195
 20
492.8312883164728
 30
0.0
 11
640.4756983618043
 21
492.8312883164728
 31
0.0
  0
LINE
  5
763
330
6CC
100
AcDbEntity
  8
0
 62
     0
370
    -2
100
AcDbLine
 10
675.4407981358495
 20
470.7312883164728
 30
0.0
 11
640.4756983618043
 21
470.7312883164728
 31
0.0
  0
LINE
  5
764
330
6CC
100
AcDbEntity
  8
0
 62
     0
370
    -2
100
AcDbLine
 10
641.4756983618043
 20
490.8312883164728
 30
0.0
 11
641.4756983618043
 21
472.7312883164728
 31
0.0
  0
SOLID
  5
765
330
6CC
100
AcDbEntity
  8
0
 62
     0
100
AcDbTrace
 10
641.1423650284709
 20
490.8312883164728
 30
0.0
 11
641.8090316951377
 21
490.8312883164728
 31
0.0
 12
641.4756983618043
 22
492.8312883164728
 32
0.0
 13
641.4756983618043
 23
492.8312883164728
 33
0.0
  0
SOLID
  5
766
330
6CC
100
AcDbEntity
  8
0
 62
     0
100
AcDbTrace
 10
641.1423650284709
 20
472.7312883164728
 30
0.0
 11
641.8090316951377
 21
472.7312883164728
 31
0.0
 12
641.4756983618043
 22
470.7312883164728
 32
0.0
 13
641.4756983618043
 23
470.7312883164728
 33
0.0
  0
MTEXT
  5
767
330
6CC
100
AcDbEntity
  8
0
 62
     0
100
AcDbMText
 10
641.4756983618042
 20
481.7812883164729
 30
0.0
 40
33.0
 41
0.0
 71
     5
 72
     1
  1
\A1;22.1
  7
BIGFONT
 11
0.0000000000000001
 21
1.0
 31
0.0
 73
     1
 44
1.0
  0
POINT
  5
768
330
6CC
100
AcDbEntity
  8
DEFPOINTS
 62
     0
100
AcDbPoint
 10
677.6253758444195
 20
492.8312883164728
 30
0.0
  0
POINT
  5
769
330
6CC
100
AcDbEntity
  8
DEFPOINTS
 62
     0
100
AcDbPoint
 10
676.4407981358495
 20
470.7312883164728
 30
0.0
  0
POINT
  5
76A
330
6CC
100
AcDbEntity
  8
DEFPOINTS
 62
     0
100
AcDbPoint
 10
641.4756983618043
 20
470.7312883164728
 30
0.0
  0
ENDBLK
  5
6D7
330
6CC
100
AcDbEntity
  8
0
100
AcDbBlockEnd
  0
BLOCK
  5
6E2
330
6D8
100
AcDbEntity
  8
0
100
AcDbBlockBegin
  2
*D22
 70
     1
 10
0.0
 20
0.0
 30
0.0
  3
*D22
  1

  0
LINE
  5
774
330
6D8
100
AcDbEntity
  8
0
 62
     0
370
    -2
100
AcDbLine
 10
750.4407981358495
 20
357.363094266051
 30
0.0
 11
750.4407981358495
 21
410.863094266051
 31
0.0
  0
LINE
  5
775
330
6D8
100
AcDbEntity
  8
0
 62
     0
370
    -2
100
AcDbLine
 10
728.4407981358494
 20
364.8630942660507
 30
0.0
 11
728.4407981358494
 21
410.863094266051
 31
0.0
  0
LINE
  5
776
330
6D8
100
AcDbEntity
  8
0
 62
     0
370
    -2
100
AcDbLine
 10
748.4407981358494
 20
409.863094266051
 30
0.0
 11
730.4407981358495
 21
409.863094266051
 31
0.0
  0
SOLID
  5
777
330
6D8
100
AcDbEntity
  8
0
 62
     0
100
AcDbTrace
 10
748.4407981358494
 20
410.1964275993843
 30
0.0
 11
748.4407981358494
 21
409.5297609327176
 31
0.0
 12
750.4407981358495
 22
409.863094266051
 32
0.0
 13
750.4407981358495
 23
409.863094266051
 33
0.0
  0
SOLID
  5
778
330
6D8
100
AcDbEntity
  8
0
 62
     0
100
AcDbTrace
 10
730.4407981358495
 20
410.1964275993843
 30
0.0
 11
730.4407981358495
 21
409.5297609327176
 31
0.0
 12
728.4407981358494
 22
409.863094266051
 32
0.0
 13
728.4407981358494
 23
409.863094266051
 33
0.0
  0
MTEXT
  5
779
330
6D8
100
AcDbEntity
  8
0
 62
     0
100
AcDbMText
 10
739.4407981358495
 20
409.863094266051
 30
0.0
 40
33.0
 41
0.0
 71
     5
 72
     1
  1
\A1;22
  7
BIGFONT
 73
     1
 44
1.0
  0
POINT
  5
77A
330
6D8
100
AcDbEntity
  8
DEFPOINTS
 62
     0
100
AcDbPoint
 10
750.4407981358495
 20
356.3630942660509
 30
0.0
  0
POINT
  5
77B
330
6D8
100
AcDbEntity
  8
DEFPOINTS
 62
     0
100
AcDbPoint
 10
728.4407981358494
 20
363.8630942660507
 30
0.0
  0
POINT
  5
77C
330
6D8
100
AcDbEntity
  8
DEFPOINTS
 62
     0
100
AcDbPoint
 10
728.4407981358494
 20
409.863094266051
 30
0.0
  0
ENDBLK
  5
6E3
330
6D8
100
AcDbEntity
  8
0
100
AcDbBlockEnd
  0
BLOCK
  5
6EF
330
6E4
100
AcDbEntity
  8
0
100
AcDbBlockBegin
  2
*D23
 70
     1
 10
0.0
 20
0.0
 30
0.0
  3
*D23
  1

  0
LINE
  5
787
330
6E4
100
AcDbEntity
  8
0
 62
     0
370
    -2
100
AcDbLine
 10
700.4245094151163
 20
364.863094266051
 30
0.0
 11
700.4245094151163
 21
425.8630942660509
 31
0.0
  0
LINE
  5
788
330
6E4
100
AcDbEntity
  8
0
 62
     0
370
    -2
100
AcDbLine
 10
750.4407981358495
 20
357.363094266051
 30
0.0
 11
750.4407981358495
 21
425.8630942660509
 31
0.0
  0
LINE
  5
789
330
6E4
100
AcDbEntity
  8
0
 62
     0
370
    -2
100
AcDbLine
 10
698.4245094151162
 20
424.863094266051
 30
0.0
 11
696.4245094151163
 21
424.863094266051
 31
0.0
  0
LINE
  5
78A
330
6E4
100
AcDbEntity
  8
0
 62
     0
370
    -2
100
AcDbLine
 10
752.4407981358494
 20
424.863094266051
 30
0.0
 11
754.4407981358495
 21
424.863094266051
 31
0.0
  0
SOLID
  5
78B
330
6E4
100
AcDbEntity
  8
0
 62
     0
100
AcDbTrace
 10
698.4245094151162
 20
425.1964275993842
 30
0.0
 11
698.4245094151162
 21
424.5297609327177
 31
0.0
 12
700.4245094151163
 22
424.863094266051
 32
0.0
 13
700.4245094151163
 23
424.863094266051
 33
0.0
  0
SOLID
  5
78C
330
6E4
100
AcDbEntity
  8
0
 62
     0
100
AcDbTrace
 10
752.4407981358494
 20
425.1964275993842
 30
0.0
 11
752.4407981358494
 21
424.5297609327177
 31
0.0
 12
750.4407981358495
 22
424.863094266051
 32
0.0
 13
750.4407981358495
 23
424.863094266051
 33
0.0
  0
MTEXT
  5
78D
330
6E4
100
AcDbEntity
  8
0
 62
     0
100
AcDbMText
 10
731.4245094151162
 20
424.863094266051
 30
0.0
 40
33.0
 41
0.0
 71
     5
 72
     1
  1
\A1;50
  7
BIGFONT
 73
     1
 44
1.0
  0
POINT
  5
78E
330
6E4
100
AcDbEntity
  8
DEFPOINTS
 62
     0
100
AcDbPoint
 10
700.4245094151163
 20
363.863094266051
 30
0.0
  0
POINT
  5
78F
330
6E4
100
AcDbEntity
  8
DEFPOINTS
 62
     0
100
AcDbPoint
 10
750.4407981358495
 20
356.3630942660509
 30
0.0
  0
POINT
  5
790
330
6E4
100
AcDbEntity
  8
DEFPOINTS
 62
     0
100
AcDbPoint
 10
750.4407981358495
 20
424.863094266051
 30
0.0
  0
ENDBLK
  5
6F0
330
6E4
100
AcDbEntity
  8
0
100
AcDbBlockEnd
  0
ENDSEC
  0
SECTION
  2
ENTITIES
  0
ARC
  5
597
330
21C
100
AcDbEntity
  8
3
100
AcDbCircle
 10
366.5058895370311
 20
327.8630942660508
 30
0.0
 40
162.5
100
AcDbArc
 50
99.02834547655242
 51
269.9999999999998
  0
ARC
  5
599
330
21C
100
AcDbEntity
  8
3
100
AcDbCircle
 10
366.5058895370309
 20
327.8630942660508
 30
0.0
 40
177.5
100
AcDbArc
 50
90.0
 51
270.0
  0
ARC
  5
59C
330
21C
100
AcDbEntity
  8
3
100
AcDbCircle
 10
369.2952264210034
 20
331.7022871232531
 30
0.0
 40
43.51426576965851
100
AcDbArc
 50
213.6746902222381
 51
254.3253097777602
  0
ARC
  5
59E
330
21C
100
AcDbEntity
  8
3
100
AcDbCircle
 10
232.0031683037417
 20
299.2736583054473
 30
0.0
 40
14.09474667809679
100
AcDbArc
 50
145.1141126873967
 51
238.8858873125975
  0
LINE
  5
59F
330
21C
100
AcDbEntity
  8
3
100
AcDbLine
 10
332.0130575494935
 20
307.6086097998189
 30
0.0
 11
268.8727389522312
 21
217.3008135963492
 31
0.0
  0
LINE
  5
5A0
330
21C
100
AcDbEntity
  8
1
100
AcDbLine
 10
366.5058895370309
 20
515.9984911014998
 30
0.0
 11
366.5058895370309
 21
141.5875665434647
 31
0.0
  0
ARC
  5
5A1
330
21C
100
AcDbEntity
  8
3
100
AcDbCircle
 10
366.5058895370311
 20
327.8630942660508
 30
0.0
 40
33.5
100
AcDbArc
 50
90.00000000000039
 51
269.9999999999996
  0
LINE
  5
5A2
330
21C
100
AcDbEntity
  8
1
100
AcDbLine
 10
366.5058895370305
 20
327.8630942660506
 30
0.0
 11
255.5732549796674
 21
175.1774216710602
 31
0.0
  0
ARC
  5
5A5
330
21C
100
AcDbEntity
  8
3
100
AcDbCircle
 10
366.5058895370309
 20
327.8630942660504
 30
0.0
 40
147.5
100
AcDbArc
 50
220.000000000029
 51
228.5535578059289
  0
ARC
  5
5A6
330
21C
100
AcDbEntity
  8
3
100
AcDbCircle
 10
366.5058895370309
 20
327.8630942660504
 30
0.0
 40
147.5
100
AcDbArc
 50
208.0000000000295
 51
212.0000000000284
  0
ARC
  5
5A7
330
21C
100
AcDbEntity
  8
3
100
AcDbCircle
 10
255.2599107238697
 20
247.0381595886186
 30
0.0
 40
14.09474667808193
100
AcDbArc
 50
169.1141126874071
 51
262.8858873126538
  0
ARC
  5
5A8
330
21C
100
AcDbEntity
  8
3
100
AcDbCircle
 10
240.8864534407017
 20
271.9337178836416
 30
0.0
 40
14.09474667817121
100
AcDbArc
 50
157.1141126875305
 51
250.8858873124971
  0
ARC
  5
5A9
330
21C
100
AcDbEntity
  8
3
100
AcDbCircle
 10
366.5058895370309
 20
327.8630942660504
 30
0.0
 40
147.5
100
AcDbArc
 50
196.0000000000016
 51
199.9999999999964
  0
ARC
  5
5AC
330
21C
100
AcDbEntity
  8
3
100
AcDbCircle
 10
322.362729929818
 20
267.1052474702088
 30
0.0
 40
74.51409780419118
100
AcDbArc
 50
224.0013561106368
 51
243.9986438893615
  0
LINE
  5
5AD
330
21C
100
AcDbEntity
  8
3
100
AcDbLine
 10
357.9016013694918
 20
288.7994817264599
 30
0.0
 11
291.5252147947297
 21
200.84282653216
 31
0.0
  0
ARC
  5
5AE
330
21C
100
AcDbEntity
  8
3
100
AcDbCircle
 10
324.0137067421384
 20
197.0856028195679
 30
0.0
 40
14.09474667808218
100
AcDbArc
 50
205.1141126873775
 51
298.885887312624
  0
ARC
  5
5AF
330
21C
100
AcDbEntity
  8
3
100
AcDbCircle
 10
366.5058895370313
 20
327.8630942660503
 30
0.0
 40
147.5
100
AcDbArc
 50
239.4464421974768
 51
248.0000000000001
  0
ARC
  5
5B0
330
21C
100
AcDbEntity
  8
3
100
AcDbCircle
 10
290.080307862577
 20
201.8551277166161
 30
0.0
 40
1.764230634195647
100
AcDbArc
 50
257.4286640995468
 51
324.9849304620863
  0
ARC
  5
5B1
330
21C
100
AcDbEntity
  8
3
100
AcDbCircle
 10
352.1324322538033
 20
191.1087832062795
 30
0.0
 40
14.09474667809679
100
AcDbArc
 50
217.1141126873987
 51
310.8858873125977
  0
ARC
  5
5B2
330
21C
100
AcDbEntity
  8
3
100
AcDbCircle
 10
366.5058895370313
 20
327.8630942660503
 30
0.0
 40
147.5
100
AcDbArc
 50
256.0000000000003
 51
259.9999999999949
  0
ARC
  5
5B3
330
21C
100
AcDbEntity
  8
3
100
AcDbCircle
 10
366.5058895370313
 20
327.8630942660503
 30
0.0
 40
147.5
100
AcDbArc
 50
267.9999999999996
 51
269.9999999999998
  0
ARC
  5
5B4
330
21C
100
AcDbEntity
  8
3
100
AcDbCircle
 10
270.2819953874869
 20
216.2394437125082
 30
0.0
 40
1.764230634195647
100
AcDbArc
 50
143.0150695379136
 51
210.5713359004552
  0
ARC
  5
5B5
330
21C
100
AcDbEntity
  8
3
100
AcDbCircle
 10
366.5058895370308
 20
327.863094266051
 30
0.0
 40
39.99999499391606
100
AcDbArc
 50
257.5781816077477
 51
270.0000000000002
  0
ARC
  5
5B6
330
21C
100
AcDbEntity
  8
3
100
AcDbCircle
 10
357.3177830839166
 20
289.1578491349866
 30
0.0
 40
0.6850335685688767
100
AcDbArc
 50
328.4569901337663
 51
71.18173187228251
  0
ARC
  5
5C2
330
21C
100
AcDbEntity
  8
3
100
AcDbCircle
 10
274.4953510986532
 20
430.0511497518304
 30
0.0
 40
14.09474667817121
100
AcDbArc
 50
85.11411268753043
 51
178.8858873124965
  0
LINE
  5
5C3
330
21C
100
AcDbEntity
  8
3
100
AcDbLine
 10
336.5838588329536
 20
354.4087469809034
 30
0.0
 11
231.1846093045864
 21
386.5521146723601
 31
0.0
  0
LINE
  5
5C4
330
21C
100
AcDbEntity
  8
3
100
AcDbLine
 10
326.6953150129553
 20
323.9749384594584
 30
0.0
 11
222.5321334620879
 21
359.9225322160958
 31
0.0
  0
LINE
  5
5C5
330
21C
100
AcDbEntity
  8
1
100
AcDbLine
 10
366.5058895370305
 20
327.8630942660508
 30
0.0
 11
191.0127685902937
 21
384.8842658150293
 31
0.0
  0
ARC
  5
5C6
330
21C
100
AcDbEntity
  8
3
100
AcDbCircle
 10
295.0807569217487
 20
351.0705266588031
 30
0.0
 40
74.51409780419118
100
AcDbArc
 50
152.0013561106365
 51
171.9986438893614
  0
ARC
  5
5C7
330
21C
100
AcDbEntity
  8
3
100
AcDbCircle
 10
366.5058895370309
 20
327.8630942660504
 30
0.0
 40
147.5
100
AcDbArc
 50
167.4464421974734
 51
175.9999999999969
  0
ARC
  5
5C8
330
21C
100
AcDbEntity
  8
3
100
AcDbCircle
 10
228.9982975004114
 20
327.8630942660508
 30
0.0
 40
14.09474667808218
100
AcDbArc
 50
133.1141126873776
 51
226.8858873126223
  0
ARC
  5
5C9
330
21C
100
AcDbEntity
  8
3
100
AcDbCircle
 10
366.5058895370309
 20
327.8630942660504
 30
0.0
 40
147.5
100
AcDbArc
 50
183.9999999999965
 51
187.9999999999942
  0
ARC
  5
5CA
330
21C
100
AcDbEntity
  8
3
100
AcDbCircle
 10
223.0483883026929
 20
361.6095386387826
 30
0.0
 40
1.764230634195647
100
AcDbArc
 50
185.4286640995455
 51
252.9849304620886
  0
ARC
  5
5CB
330
21C
100
AcDbEntity
  8
3
100
AcDbCircle
 10
366.5058895370308
 20
327.863094266051
 30
0.0
 40
147.5
100
AcDbArc
 50
136.0000000000332
 51
140.0000000000299
  0
ARC
  5
5CC
330
21C
100
AcDbEntity
  8
3
100
AcDbCircle
 10
230.6106707482862
 20
384.8838508250547
 30
0.0
 40
1.764230634195647
100
AcDbArc
 50
71.01506953791035
 51
138.571335900452
  0
ARC
  5
5CD
330
21C
100
AcDbEntity
  8
3
100
AcDbCircle
 10
366.5058895370308
 20
327.863094266051
 30
0.0
 40
147.5
100
AcDbArc
 50
148.0000000000315
 51
156.5535578059311
  0
ARC
  5
5CE
330
21C
100
AcDbEntity
  8
3
100
AcDbCircle
 10
255.259910723787
 20
408.688028943369
 30
0.0
 40
14.09474667808193
100
AcDbArc
 50
97.1141126874051
 51
190.8858873126526
  0
ARC
  5
5CF
330
21C
100
AcDbEntity
  8
3
100
AcDbCircle
 10
366.5058895370309
 20
481.8630942660507
 30
0.0
 40
16.0
100
AcDbArc
 50
187.0669710576926
 51
270.0
  0
ARC
  5
5D0
330
21C
100
AcDbEntity
  8
3
100
AcDbCircle
 10
366.5058895370309
 20
481.8630942660507
 30
0.0
 40
11.1
100
AcDbArc
 50
90.0
 51
270.0
  0
ARC
  5
5D3
330
21C
100
AcDbEntity
  8
3
100
AcDbCircle
 10
366.5058895370308
 20
327.863094266051
 30
0.0
 40
147.5
100
AcDbArc
 50
95.56019152843203
 51
103.9999999999996
  0
ARC
  5
5D4
330
21C
100
AcDbEntity
  8
3
100
AcDbCircle
 10
324.0137067421385
 20
458.6405857125336
 30
0.0
 40
14.09474667808218
100
AcDbArc
 50
61.11411268737594
 51
154.8858873126224
  0
ARC
  5
5D5
330
21C
100
AcDbEntity
  8
3
100
AcDbCircle
 10
366.5058895370309
 20
481.8630942660507
 30
0.0
 40
16.0
100
AcDbArc
 50
187.0669710576926
 51
270.0
  0
LINE
  5
5D6
330
21C
100
AcDbEntity
  8
3
100
AcDbLine
 10
350.5058895370309
 20
364.5236943636122
 30
0.0
 11
352.495694672062
 21
474.1355823866939
 31
0.0
  0
ARC
  5
5DA
330
21C
100
AcDbEntity
  8
3
100
AcDbCircle
 10
371.0191314213716
 20
326.3966530839649
 30
0.0
 40
43.51426576965851
100
AcDbArc
 50
141.6746902222412
 51
182.3253097777568
  0
ARC
  5
5DB
330
21C
100
AcDbEntity
  8
3
100
AcDbCircle
 10
366.5058895370308
 20
327.863094266051
 30
0.0
 40
39.99999499391606
100
AcDbArc
 50
185.5781816077437
 51
210.4218183922565
  0
ARC
  5
5DC
330
21C
100
AcDbEntity
  8
3
100
AcDbCircle
 10
332.5342949804703
 20
307.1641072344553
 30
0.0
 40
0.6850335685688767
100
AcDbArc
 50
36.81826812771532
 51
139.5430098662359
  0
ARC
  5
5DD
330
21C
100
AcDbEntity
  8
3
100
AcDbCircle
 10
326.855732900193
 20
324.6409242637517
 30
0.0
 40
0.6850335685688767
100
AcDbArc
 50
256.4569901337646
 51
359.1817318722849
  0
ARC
  5
5DE
330
21C
100
AcDbEntity
  8
3
100
AcDbCircle
 10
366.5058895370309
 20
323.1175909158167
 30
0.0
 40
43.51426576965851
100
AcDbArc
 50
89.99999999999992
 51
110.3253097777609
  0
ARC
  5
5DF
330
21C
100
AcDbEntity
  8
3
100
AcDbCircle
 10
351.1888515293225
 20
364.5769288181637
 30
0.0
 40
0.6850335685688767
100
AcDbArc
 50
184.4569901337639
 51
287.1817318722812
  0
ARC
  5
5E0
330
21C
100
AcDbEntity
  8
3
100
AcDbCircle
 10
366.5058895370308
 20
327.863094266051
 30
0.0
 40
39.99999499391606
100
AcDbArc
 50
113.5781816077466
 51
138.4218183922546
  0
ARC
  5
5E1
330
21C
100
AcDbEntity
  8
3
100
AcDbCircle
 10
336.3221829959308
 20
353.7756618788952
 30
0.0
 40
0.6850335685688767
100
AcDbArc
 50
324.8182681277181
 51
67.54300986623277
  0
ARC
  5
5E3
330
21C
100
AcDbEntity
  8
3
100
AcDbCircle
 10
297.7520935187338
 20
446.9481621829806
 30
0.0
 40
14.09474667809679
100
AcDbArc
 50
73.1141126873976
 51
166.8858873125989
  0
ARC
  5
5E4
330
21C
100
AcDbEntity
  8
3
100
AcDbCircle
 10
366.5058895370308
 20
327.863094266051
 30
0.0
 40
147.5
100
AcDbArc
 50
123.9999999999995
 51
127.9999999999995
  0
ARC
  5
5E5
330
21C
100
AcDbEntity
  8
3
100
AcDbCircle
 10
366.5058895370308
 20
327.863094266051
 30
0.0
 40
147.5
100
AcDbArc
 50
111.9999999999998
 51
115.9999999999934
  0
LINE
  5
5F7
330
21C
100
AcDbEntity
  8
1
100
AcDbLine
 10
333.0058895370311
 20
481.8630942660507
 30
0.0
 11
366.5058895370309
 21
481.8630942660507
 31
0.0
  0
ARC
  5
5FA
330
21C
100
AcDbEntity
  8
3
100
AcDbCircle
 10
341.0337828365324
 20
478.6796014961813
 30
0.0
 40
9.67029257659056
100
AcDbArc
 50
7.029732032859776
 51
90.16526599806525
  0
ARC
  5
5FB
330
21C
100
AcDbEntity
  8
3
100
AcDbCircle
 10
366.5058895370309
 20
481.8630942660507
 30
0.0
 40
8.0
100
AcDbArc
 50
90.0
 51
270.0
  0
ARC
  5
5FC
330
21C
100
AcDbEntity
  8
3
100
AcDbCircle
 10
366.5058895370309
 20
481.8630942660507
 30
0.0
 40
6.799999999999999
100
AcDbArc
 50
90.0
 51
270.0
  0
LINE
  5
602
330
21C
100
AcDbEntity
  8
1
100
AcDbLine
 10
691.4407981358494
 20
150.5013733108725
 30
0.0
 11
691.4407981358494
 21
328.0013733108725
 31
0.0
  0
LINE
  5
603
330
21C
100
AcDbEntity
  8
3
100
AcDbLine
 10
676.4407981358495
 20
328.0013733108725
 30
0.0
 11
676.4407981358495
 21
165.5013733108725
 31
0.0
  0
LINE
  5
605
330
21C
100
AcDbEntity
  8
3
100
AcDbLine
 10
700.4245094151163
 20
327.8630942660505
 30
0.0
 11
700.4245094151163
 21
291.8630942660505
 31
0.0
  0
LINE
  5
606
330
21C
100
AcDbEntity
  8
3
100
AcDbLine
 10
728.4407981358494
 20
294.3630942660508
 30
0.0
 11
728.4407981358494
 21
327.8630942660508
 31
0.0
  0
LINE
  5
607
330
21C
100
AcDbEntity
  8
3
100
AcDbLine
 10
750.4407981358495
 20
327.8630942660508
 30
0.0
 11
750.4407981358495
 21
299.3630942660505
 31
0.0
  0
ARC
  5
609
330
21C
100
AcDbEntity
  8
3
100
AcDbCircle
 10
698.9701589379924
 20
208.727234426851
 30
0.0
 40
14.60551182633437
100
AcDbArc
 50
155.3815802549076
 51
200.550606421507
  0
LINE
  5
60A
330
21C
100
AcDbEntity
  8
3
100
AcDbLine
 10
706.4407981358492
 20
165.5013733108725
 30
0.0
 11
706.4407981358492
 21
216.8630942660499
 31
0.0
  0
LINE
  5
60B
330
21C
100
AcDbEntity
  8
3
100
AcDbLine
 10
701.1657699485115
 20
210.1534072087391
 30
0.0
 11
722.4407981358495
 21
289.1046478540907
 31
0.0
  0
ARC
  5
60D
330
21C
100
AcDbEntity
  8
3
100
AcDbCircle
 10
691.2550479584486
 20
212.1034782534688
 30
0.0
 40
11.26218363893161
100
AcDbArc
 50
246.0741733084466
 51
295.5392167380243
  0
LINE
  5
60E
330
21C
100
AcDbEntity
  8
1
100
AcDbLine
 10
691.4407981358494
 20
168.5013733108725
 30
0.0
 11
701.4543476778101
 21
168.5013733108725
 31
0.0
  0
ARC
  5
60F
330
21C
100
AcDbEntity
  8
3
100
AcDbCircle
 10
691.4407981358494
 20
165.5013733108725
 30
0.0
 40
15.0
100
AcDbArc
 50
180.0
 51
0.0
  0
ARC
  5
610
330
21C
100
AcDbEntity
  8
3
100
AcDbCircle
 10
691.4407981358494
 20
168.5013733108725
 30
0.0
 40
12.0
100
AcDbArc
 50
7.681546513872352
 51
172.3184534861276
  0
LINE
  5
611
330
21C
100
AcDbEntity
  8
1
100
AcDbLine
 10
713.9245094151163
 20
165.5013733108725
 30
0.0
 11
669.4245094151162
 21
165.5013733108725
 31
0.0
  0
LINE
  5
612
330
21C
100
AcDbEntity
  8
1
100
AcDbLine
 10
691.4407981358494
 20
150.5013733108725
 30
0.0
 11
691.4407981358494
 21
144.1053774124026
 31
0.0
  0
ARC
  5
613
330
21C
100
AcDbEntity
  8
3
100
AcDbCircle
 10
672.5026715776182
 20
171.4884426863856
 30
0.0
 40
7.148308444007569
100
AcDbArc
 50
303.1176437988391
 51
348.8439706715227
  0
LINE
  5
614
330
21C
100
AcDbEntity
  8
1
100
AcDbLine
 10
691.4407981358494
 20
168.5013733108725
 30
0.0
 11
681.4659122609357
 21
168.5013733108725
 31
0.0
  0
ARC
  5
615
330
21C
100
AcDbEntity
  8
3
100
AcDbCircle
 10
688.7314881126014
 20
204.8368276283696
 30
0.0
 40
3.653061823774475
100
AcDbArc
 50
199.7866987036255
 51
235.9793070470295
  0
ARC
  5
616
330
21C
100
AcDbEntity
  8
3
100
AcDbCircle
 10
710.3463472526141
 20
171.4884426863856
 30
0.0
 40
7.148308444007569
100
AcDbArc
 50
191.1560293284772
 51
236.8823562011608
  0
ARC
  5
617
330
21C
100
AcDbEntity
  8
3
100
AcDbCircle
 10
663.8205387257967
 20
227.4819303142328
 30
0.0
 40
41.16969769254649
100
AcDbArc
 50
321.6572546797215
 51
335.108275931527
  0
LINE
  5
618
330
21C
100
AcDbEntity
  8
3
100
AcDbLine
 10
685.69225550869
 20
214.811497425055
 30
0.0
 11
703.1886498613758
 21
290.3629805144738
 31
0.0
  0
LINE
  5
619
330
21C
100
AcDbEntity
  8
3
100
AcDbLine
 10
706.4407981358492
 20
216.8630942660499
 30
0.0
 11
706.4407981358492
 21
229.7289403719515
 31
0.0
  0
ARC
  5
61A
330
21C
100
AcDbEntity
  8
3
100
AcDbCircle
 10
714.4245094151163
 20
314.3630942660505
 30
0.0
 40
26.5
100
AcDbArc
 50
238.1092081981531
 51
301.8907918018468
  0
LINE
  5
61B
330
21C
100
AcDbEntity
  8
3
100
AcDbLine
 10
706.4407981358495
 20
287.9652159702766
 30
0.0
 11
706.4407981358495
 21
289.0943318466263
 31
0.0
  0
LINE
  5
61C
330
21C
100
AcDbEntity
  8
3
100
AcDbLine
 10
722.4407981358495
 20
289.1046478540907
 30
0.0
 11
722.4407981358495
 21
288.1515746008749
 31
0.0
  0
LINE
  5
61D
330
21C
100
AcDbEntity
  8
3
100
AcDbLine
 10
745.4407981358494
 20
294.3630942660505
 30
0.0
 11
728.5268481298178
 21
294.3630942660505
 31
0.0
  0
LINE
  5
61E
330
21C
100
AcDbEntity
  8
3
100
AcDbLine
 10
728.4407981358494
 20
294.3630942660508
 30
0.0
 11
728.4407981358494
 21
291.8630942660507
 31
0.0
  0
ARC
  5
61F
330
21C
100
AcDbEntity
  8
3
100
AcDbCircle
 10
745.4407981358494
 20
299.3630942660505
 30
0.0
 40
5.0
100
AcDbArc
 50
270.0
 51
0.0
  0
LINE
  5
626
330
21C
100
AcDbEntity
  8
1
100
AcDbLine
 10
667.4245094151163
 20
327.8630942660508
 30
0.0
 11
762.4245094151163
 21
327.8630942660508
 31
0.0
  0
LINE
  5
628
330
21C
100
AcDbEntity
  8
2
100
AcDbLine
 10
678.4407981358494
 20
492.8312883164728
 30
0.0
 11
678.4407981358494
 21
470.7312883164728
 31
0.0
  0
LINE
  5
629
330
21C
100
AcDbEntity
  8
3
100
AcDbLine
 10
703.3331137573873
 20
468.863094266051
 30
0.0
 11
703.3331137573873
 21
485.6208111196989
 31
0.0
  0
LINE
  5
62A
330
21C
100
AcDbEntity
  8
3
100
AcDbLine
 10
676.4407981358495
 20
327.724815221229
 30
0.0
 11
676.4407981358495
 21
490.224815221229
 31
0.0
  0
LINE
  5
62B
330
21C
100
AcDbEntity
  8
1
100
AcDbLine
 10
691.4407981358494
 20
505.224815221229
 30
0.0
 11
691.4407981358494
 21
327.724815221229
 31
0.0
  0
LINE
  5
62C
330
21C
100
AcDbEntity
  8
3
100
AcDbLine
 10
706.4407981358492
 20
490.224815221229
 30
0.0
 11
706.4407981358492
 21
438.8630942660515
 31
0.0
  0
ARC
  5
636
330
21C
100
AcDbEntity
  8
3
100
AcDbCircle
 10
688.2632445020203
 20
382.7479793001633
 30
0.0
 40
3.312622789299599
100
AcDbArc
 50
121.9888423912934
 51
141.969185405493
  0
ARC
  5
637
330
21C
100
AcDbEntity
  8
3
100
AcDbCircle
 10
691.1610766486695
 20
375.5332444190873
 30
0.0
 40
11.05147427429222
100
AcDbArc
 50
62.59020643170875
 51
114.8979492992371
  0
LINE
  5
638
330
21C
100
AcDbEntity
  8
3
100
AcDbLine
 10
706.0037349334845
 20
371.9192779680855
 30
0.0
 11
686.0350010344002
 21
465.8630942660507
 31
0.0
  0
LINE
  5
639
330
21C
100
AcDbEntity
  8
3
100
AcDbLine
 10
721.9238522099267
 20
372.0924235715923
 30
0.0
 11
699.484276396719
 21
468.8630942660508
 31
0.0
  0
LINE
  5
63C
330
21C
100
AcDbEntity
  8
3
100
AcDbLine
 10
686.8074112292957
 20
360.7868581639873
 30
0.0
 11
700.4245094151163
 21
339.4906016879349
 31
0.0
  0
ARC
  5
63F
330
21C
100
AcDbEntity
  8
3
100
AcDbCircle
 10
732.0350414983179
 20
374.187264159596
 30
0.0
 40
47.57728587235559
100
AcDbArc
 50
167.1247838587816
 51
194.8105308914415
  0
ARC
  5
640
330
21C
100
AcDbEntity
  8
3
100
AcDbCircle
 10
688.3766144732267
 20
362.6191089829471
 30
0.0
 40
2.412372666969739
100
AcDbArc
 50
194.2475867619572
 51
229.4221023532316
  0
LINE
  5
641
330
21C
100
AcDbEntity
  8
3
100
AcDbLine
 10
750.4407981358495
 20
327.8630942660508
 30
0.0
 11
750.4407981358495
 21
356.3630942660509
 31
0.0
  0
LINE
  5
642
330
21C
100
AcDbEntity
  8
3
100
AcDbLine
 10
728.4407981358494
 20
361.3630942660507
 30
0.0
 11
728.4407981358494
 21
327.8630942660508
 31
0.0
  0
LINE
  5
643
330
21C
100
AcDbEntity
  8
3
100
AcDbLine
 10
700.4245094151163
 20
327.863094266051
 30
0.0
 11
700.4245094151163
 21
363.863094266051
 31
0.0
  0
ARC
  5
644
330
21C
100
AcDbEntity
  8
3
100
AcDbCircle
 10
714.4245094151163
 20
341.363094266051
 30
0.0
 40
26.5
100
AcDbArc
 50
58.10920819815311
 51
121.8907918018468
  0
LINE
  5
645
330
21C
100
AcDbEntity
  8
3
100
AcDbLine
 10
696.2486397656203
 20
385.344043834343
 30
0.0
 11
705.6715290048361
 21
373.4821558596812
 31
0.0
  0
ARC
  5
646
330
21C
100
AcDbEntity
  8
3
100
AcDbCircle
 10
686.4407981358494
 20
367.7609725618249
 30
0.0
 40
20.0
100
AcDbArc
 50
0.0
 51
12.00020967188566
  0
LINE
  5
647
330
21C
100
AcDbEntity
  8
3
100
AcDbLine
 10
722.4407981358495
 20
366.6215406780107
 30
0.0
 11
722.4407981358495
 21
367.5746139312266
 31
0.0
  0
ARC
  5
648
330
21C
100
AcDbEntity
  8
3
100
AcDbCircle
 10
702.4407981358494
 20
367.5746139312266
 30
0.0
 40
20.0
100
AcDbArc
 50
0.0
 51
13.05524722379476
  0
LINE
  5
649
330
21C
100
AcDbEntity
  8
3
100
AcDbLine
 10
745.4407981358494
 20
361.363094266051
 30
0.0
 11
728.5268481298178
 21
361.363094266051
 31
0.0
  0
LINE
  5
64A
330
21C
100
AcDbEntity
  8
3
100
AcDbLine
 10
728.4407981358494
 20
361.3630942660507
 30
0.0
 11
728.4407981358494
 21
363.8630942660507
 31
0.0
  0
ARC
  5
64B
330
21C
100
AcDbEntity
  8
3
100
AcDbCircle
 10
745.4407981358494
 20
356.3630942660509
 30
0.0
 40
5.0
100
AcDbArc
 50
0.0
 51
90.0
  0
LINE
  5
64E
330
21C
100
AcDbEntity
  8
2
100
AcDbLine
 10
678.4407981358494
 20
470.7312883164728
 30
0.0
 11
676.4407981358495
 21
470.7312883164728
 31
0.0
  0
LINE
  5
64F
330
21C
100
AcDbEntity
  8
3
100
AcDbLine
 10
676.4407981358495
 20
465.8630942660507
 30
0.0
 11
686.0350010344002
 21
465.8630942660507
 31
0.0
  0
LINE
  5
657
330
21C
100
AcDbEntity
  8
3
100
AcDbLine
 10
699.484276396719
 20
468.863094266051
 30
0.0
 11
703.3331137573873
 21
468.863094266051
 31
0.0
  0
LINE
  5
659
330
21C
100
AcDbEntity
  8
2
100
AcDbLine
 10
679.4407981358495
 20
489.7812883164728
 30
0.0
 11
705.8333160666388
 21
489.7812883164728
 31
0.0
  0
LINE
  5
65A
330
21C
100
AcDbEntity
  8
2
100
AcDbLine
 10
704.4515972241688
 20
488.2812883164728
 30
0.0
 11
680.9407981358495
 21
488.2812883164728
 31
0.0
  0
LINE
  5
65B
330
21C
100
AcDbEntity
  8
2
100
AcDbLine
 10
680.9407981358495
 20
475.2812883164728
 30
0.0
 11
703.3331137573873
 21
475.2812883164728
 31
0.0
  0
LINE
  5
65C
330
21C
100
AcDbEntity
  8
2
100
AcDbLine
 10
703.3331137573873
 20
473.7812883164727
 30
0.0
 11
679.4407981358495
 21
473.7812883164727
 31
0.0
  0
LINE
  5
65D
330
21C
100
AcDbEntity
  8
1
100
AcDbLine
 10
666.4844693354264
 20
481.7812883164727
 30
0.0
 11
716.8611793918858
 21
481.7812883164727
 31
0.0
  0
ARC
  5
65E
330
21C
100
AcDbEntity
  8
3
100
AcDbCircle
 10
691.4407981358494
 20
490.224815221229
 30
0.0
 40
15.0
100
AcDbArc
 50
0.0
 51
180.0
  0
LINE
  5
66A
330
21C
100
AcDbEntity
  8
2
100
AcDbLine
 10
678.4407981358494
 20
492.8312883164728
 30
0.0
 11
677.6253758444195
 21
492.8312883164728
 31
0.0
  0
LINE
  5
66B
330
21C
100
AcDbEntity
  8
2
100
AcDbLine
 10
679.4407981358495
 20
473.7812883164727
 30
0.0
 11
679.4407981358495
 21
489.7812883164728
 31
0.0
  0
LINE
  5
66C
330
21C
100
AcDbEntity
  8
2
100
AcDbLine
 10
680.9407981358495
 20
475.2812883164728
 30
0.0
 11
680.9407981358495
 21
488.2812883164728
 31
0.0
  0
LWPOLYLINE
  5
66D
330
21C
100
AcDbEntity
  8
2
100
AcDbPolyline
 90
        2
 70
     0
 43
0.0
 10
678.4407981358494
 20
472.7812883164728
 10
680.9407981358495
 20
475.2812883164728
  0
LWPOLYLINE
  5
66E
330
21C
100
AcDbEntity
  8
2
100
AcDbPolyline
 90
        2
 70
     0
 43
0.0
 10
680.9407981358495
 20
488.2812883164728
 10
678.4407981358494
 20
490.7812883164727
  0
LINE
  5
66F
330
21C
100
AcDbEntity
  8
1
100
AcDbLine
 10
691.4407981358494
 20
505.224815221229
 30
0.0
 11
691.4407981358494
 21
511.6208111196989
 31
0.0
  0
MTEXT
  5
67B
102
{ACAD_REACTORS
330
67A
102
}
330
21C
100
AcDbEntity
  8
0
100
AcDbMText
 10
652.7591716046948
 20
955.0438165227266
 30
0.0
 40
5.0
 41
0.0
 71
     1
 72
     1
  1
 
 73
     1
 44
1.0
  0
ARC
  5
67C
330
21C
100
AcDbEntity
  8
3
100
AcDbCircle
 10
710.3463472526141
 20
484.2377458457159
 30
0.0
 40
7.148308444007569
100
AcDbArc
 50
123.1176437988391
 51
168.8439706715227
  0
LINE
  5
792
330
21C
100
AcDbEntity
  8
1
100
AcDbLine
 10
366.505889537031
 20
481.8630942660507
 30
0.0
 11
334.5790760446699
 21
481.8630942660507
 31
0.0
  0
LINE
  5
793
330
21C
100
AcDbEntity
  8
1
100
AcDbLine
 10
366.5058895370311
 20
327.8630942660508
 30
0.0
 11
178.9868565160641
 21
327.8630942660508
 31
0.0
  0
ARC
  5
797
330
21C
100
AcDbEntity
  8
3
100
AcDbCircle
 10
366.5058895370309
 20
327.8630942660508
 30
0.0
 40
177.5
100
AcDbArc
 50
270.0
 51
90.0
  0
ARC
  5
798
330
21C
100
AcDbEntity
  8
3
100
AcDbCircle
 10
366.5058895370307
 20
327.8630942660508
 30
0.0
 40
162.5
100
AcDbArc
 50
270.0000000000001
 51
80.97165452344759
  0
ARC
  5
799
330
21C
100
AcDbEntity
  8
3
100
AcDbCircle
 10
366.5058895370307
 20
327.8630942660508
 30
0.0
 40
33.5
100
AcDbArc
 50
270.0000000000004
 51
89.99999999999962
  0
LINE
  5
79A
330
21C
100
AcDbEntity
  8
1
100
AcDbLine
 10
366.5058895370313
 20
327.8630942660506
 30
0.0
 11
477.4385240943945
 21
175.1774216710602
 31
0.0
  0
LINE
  5
79B
330
21C
100
AcDbEntity
  8
3
100
AcDbLine
 10
400.9987215245683
 20
307.6086097998189
 30
0.0
 11
464.1390401218306
 21
217.3008135963492
 31
0.0
  0
ARC
  5
79C
330
21C
100
AcDbEntity
  8
3
100
AcDbCircle
 10
501.0086107703201
 20
299.2736583054473
 30
0.0
 40
14.09474667809679
100
AcDbArc
 50
301.1141126874024
 51
34.88588731260323
  0
ARC
  5
79D
330
21C
100
AcDbEntity
  8
3
100
AcDbCircle
 10
363.7165526530584
 20
331.7022871232531
 30
0.0
 40
43.51426576965851
100
AcDbArc
 50
285.6746902222397
 51
326.3253097777619
  0
ARC
  5
79E
330
21C
100
AcDbEntity
  8
3
100
AcDbCircle
 10
366.5058895370306
 20
327.8630942660503
 30
0.0
 40
147.5
100
AcDbArc
 50
291.9999999999998
 51
300.5535578025231
  0
LINE
  5
79F
330
21C
100
AcDbEntity
  8
3
100
AcDbLine
 10
375.11017770457
 20
288.7994817264599
 30
0.0
 11
441.4865642793321
 21
200.84282653216
 31
0.0
  0
ARC
  5
7A0
330
21C
100
AcDbEntity
  8
3
100
AcDbCircle
 10
410.6490491442437
 20
267.1052474702088
 30
0.0
 40
74.51409780419118
100
AcDbArc
 50
296.0013561106383
 51
315.9986438893631
  0
ARC
  5
7A1
330
21C
100
AcDbEntity
  8
3
100
AcDbCircle
 10
442.9314712114849
 20
201.8551277166161
 30
0.0
 40
1.764230634195647
100
AcDbArc
 50
215.0150695379136
 51
282.5713359004531
  0
ARC
  5
7A2
330
21C
100
AcDbEntity
  8
3
100
AcDbCircle
 10
492.1253256333601
 20
271.9337178836416
 30
0.0
 40
14.09474667817121
100
AcDbArc
 50
289.1141126875028
 51
22.88588731246942
  0
ARC
  5
7A3
330
21C
100
AcDbEntity
  8
3
100
AcDbCircle
 10
366.5058895370309
 20
327.8630942660504
 30
0.0
 40
147.5
100
AcDbArc
 50
340.0000000000035
 51
343.9999999999983
  0
ARC
  5
7A4
330
21C
100
AcDbEntity
  8
3
100
AcDbCircle
 10
366.5058895370309
 20
327.8630942660504
 30
0.0
 40
147.5
100
AcDbArc
 50
327.9999999999715
 51
331.9999999999704
  0
ARC
  5
7A5
330
21C
100
AcDbEntity
  8
3
100
AcDbCircle
 10
477.7518683501921
 20
247.0381595886186
 30
0.0
 40
14.09474667808193
100
AcDbArc
 50
277.1141126873461
 51
10.88588731259289
  0
ARC
  5
7A6
330
21C
100
AcDbEntity
  8
3
100
AcDbCircle
 10
366.5058895370309
 20
327.8630942660504
 30
0.0
 40
147.5
100
AcDbArc
 50
311.4464421940711
 51
319.9999999999709
  0
ARC
  5
7A7
330
21C
100
AcDbEntity
  8
3
100
AcDbCircle
 10
462.7297836865749
 20
216.2394437125082
 30
0.0
 40
1.764230634195647
100
AcDbArc
 50
329.4286640995447
 51
36.98493046208635
  0
ARC
  5
7A8
330
21C
100
AcDbEntity
  8
3
100
AcDbCircle
 10
366.5058895370306
 20
327.8630942660503
 30
0.0
 40
147.5
100
AcDbArc
 50
280.000000000005
 51
283.9999999999996
  0
ARC
  5
7A9
330
21C
100
AcDbEntity
  8
3
100
AcDbCircle
 10
408.9980723319234
 20
197.0856028195679
 30
0.0
 40
14.09474667808218
100
AcDbArc
 50
241.1141126873759
 51
334.8858873126224
  0
ARC
  5
7AA
330
21C
100
AcDbEntity
  8
3
100
AcDbCircle
 10
380.8793468202585
 20
191.1087832062795
 30
0.0
 40
14.09474667809679
100
AcDbArc
 50
229.1141126874022
 51
322.8858873126012
  0
ARC
  5
7AB
330
21C
100
AcDbEntity
  8
3
100
AcDbCircle
 10
366.5058895370306
 20
327.8630942660503
 30
0.0
 40
147.5
100
AcDbArc
 50
270.0000000000001
 51
272.0000000000004
  0
ARC
  5
7AC
330
21C
100
AcDbEntity
  8
3
100
AcDbCircle
 10
366.505889537031
 20
327.863094266051
 30
0.0
 40
39.99999499391606
100
AcDbArc
 50
269.9999999999997
 51
282.4218183922522
  0
ARC
  5
7AD
330
21C
100
AcDbEntity
  8
3
100
AcDbCircle
 10
375.6939959901452
 20
289.1578491349866
 30
0.0
 40
0.6850335685688767
100
AcDbArc
 50
108.8182681277174
 51
211.5430098662336
  0
LINE
  5
7AE
330
21C
100
AcDbEntity
  8
1
100
AcDbLine
 10
366.5058895370307
 20
327.8630942660508
 30
0.0
 11
554.0249225579978
 21
327.8630942660508
 31
0.0
  0
LINE
  5
7AF
330
21C
100
AcDbEntity
  8
1
100
AcDbLine
 10
366.5058895370314
 20
327.8630942660508
 30
0.0
 11
541.9990104837681
 21
384.8842658150293
 31
0.0
  0
LINE
  5
7B0
330
21C
100
AcDbEntity
  8
3
100
AcDbLine
 10
406.3164640611065
 20
323.9749384594584
 30
0.0
 11
510.4796456119739
 21
359.9225322160958
 31
0.0
  0
LINE
  5
7B1
330
21C
100
AcDbEntity
  8
3
100
AcDbLine
 10
396.4279202411082
 20
354.4087469809034
 30
0.0
 11
501.8271697694754
 21
386.5521146723601
 31
0.0
  0
ARC
  5
7B2
330
21C
100
AcDbEntity
  8
3
100
AcDbCircle
 10
366.505889537031
 20
327.863094266051
 30
0.0
 40
147.5
100
AcDbArc
 50
64.00000000000656
 51
68.00000000000017
  0
ARC
  5
7B3
330
21C
100
AcDbEntity
  8
3
100
AcDbCircle
 10
366.505889537031
 20
327.863094266051
 30
0.0
 40
147.5
100
AcDbArc
 50
23.44644219406892
 51
31.99999999996842
  0
ARC
  5
7B4
330
21C
100
AcDbEntity
  8
3
100
AcDbCircle
 10
366.5058895370309
 20
327.8630942660504
 30
0.0
 40
147.5
100
AcDbArc
 50
4.000000000003015
 51
12.55355780252657
  0
ARC
  5
7B5
330
21C
100
AcDbEntity
  8
3
100
AcDbCircle
 10
504.0134815736504
 20
327.8630942660508
 30
0.0
 40
14.09474667808218
100
AcDbArc
 50
313.1141126873776
 51
46.88588731262234
  0
ARC
  5
7B6
330
21C
100
AcDbEntity
  8
3
100
AcDbCircle
 10
366.5058895370309
 20
327.8630942660504
 30
0.0
 40
147.5
100
AcDbArc
 50
352.0000000000058
 51
356.0000000000035
  0
ARC
  5
7B7
330
21C
100
AcDbEntity
  8
3
100
AcDbCircle
 10
437.9310221523131
 20
351.0705266588031
 30
0.0
 40
74.51409780419118
100
AcDbArc
 50
8.001356110638608
 51
27.99864388936347
  0
ARC
  5
7B8
330
21C
100
AcDbEntity
  8
3
100
AcDbCircle
 10
509.9633907713689
 20
361.6095386387826
 30
0.0
 40
1.764230634195647
100
AcDbArc
 50
287.0150695379113
 51
354.5713359004544
  0
ARC
  5
7B9
330
21C
100
AcDbEntity
  8
3
100
AcDbCircle
 10
502.4011083257756
 20
384.8838508250547
 30
0.0
 40
1.764230634195647
100
AcDbArc
 50
41.42866409954796
 51
108.9849304620896
  0
ARC
  5
7BA
330
21C
100
AcDbEntity
  8
3
100
AcDbCircle
 10
366.505889537031
 20
327.863094266051
 30
0.0
 40
147.5
100
AcDbArc
 50
52.00000000000049
 51
56.00000000000044
  0
ARC
  5
7BB
330
21C
100
AcDbEntity
  8
3
100
AcDbCircle
 10
458.5164279754086
 20
430.0511497518304
 30
0.0
 40
14.09474667817121
100
AcDbArc
 50
1.114112687503472
 51
94.88588731246958
  0
ARC
  5
7BC
330
21C
100
AcDbEntity
  8
3
100
AcDbCircle
 10
477.7518683502749
 20
408.688028943369
 30
0.0
 40
14.09474667808193
100
AcDbArc
 50
349.1141126873474
 51
82.88588731259492
  0
ARC
  5
7BD
330
21C
100
AcDbEntity
  8
3
100
AcDbCircle
 10
366.505889537031
 20
327.863094266051
 30
0.0
 40
147.5
100
AcDbArc
 50
39.99999999997006
 51
43.99999999996678
  0
ARC
  5
7BE
330
21C
100
AcDbEntity
  8
3
100
AcDbCircle
 10
435.259685555328
 20
446.9481621829806
 30
0.0
 40
14.09474667809679
100
AcDbArc
 50
13.1141126874011
 51
106.8858873126024
  0
LINE
  5
7BF
330
21C
100
AcDbEntity
  8
3
100
AcDbLine
 10
382.5058895370309
 20
364.5236943636122
 30
0.0
 11
380.5160844019998
 21
474.1355823866939
 31
0.0
  0
ARC
  5
7C0
330
21C
100
AcDbEntity
  8
3
100
AcDbCircle
 10
361.9926476526902
 20
326.3966530839649
 30
0.0
 40
43.51426576965851
100
AcDbArc
 50
357.674690222243
 51
38.32530977775878
  0
ARC
  5
7C1
330
21C
100
AcDbEntity
  8
3
100
AcDbCircle
 10
366.505889537031
 20
327.863094266051
 30
0.0
 40
39.99999499391606
100
AcDbArc
 50
329.5781816077434
 51
354.4218183922562
  0
ARC
  5
7C2
330
21C
100
AcDbEntity
  8
3
100
AcDbCircle
 10
400.4774840935915
 20
307.1641072344553
 30
0.0
 40
0.6850335685688767
100
AcDbArc
 50
40.45699013376406
 51
143.1817318722846
  0
ARC
  5
7C3
330
21C
100
AcDbEntity
  8
3
100
AcDbCircle
 10
406.1560461738688
 20
324.6409242637517
 30
0.0
 40
0.6850335685688767
100
AcDbArc
 50
180.8182681277151
 51
283.5430098662353
  0
ARC
  5
7C4
330
21C
100
AcDbEntity
  8
3
100
AcDbCircle
 10
366.505889537031
 20
327.863094266051
 30
0.0
 40
39.99999499391606
100
AcDbArc
 50
41.57818160774536
 51
66.42181839225336
  0
ARC
  5
7C5
330
21C
100
AcDbEntity
  8
3
100
AcDbCircle
 10
396.689596078131
 20
353.7756618788952
 30
0.0
 40
0.6850335685688767
100
AcDbArc
 50
112.4569901337672
 51
215.1817318722818
  0
ARC
  5
7C6
330
21C
100
AcDbEntity
  8
3
100
AcDbCircle
 10
366.505889537031
 20
323.1175909158167
 30
0.0
 40
43.51426576965851
100
AcDbArc
 50
69.67469022223911
 51
90.00000000000007
  0
ARC
  5
7C7
330
21C
100
AcDbEntity
  8
3
100
AcDbCircle
 10
381.8229275447393
 20
364.5769288181637
 30
0.0
 40
0.6850335685688767
100
AcDbArc
 50
252.8182681277188
 51
355.543009866236
  0
LINE
  5
7C8
330
21C
100
AcDbEntity
  8
1
100
AcDbLine
 10
366.5058895370309
 20
481.8630942660507
 30
0.0
 11
398.4327030293919
 21
481.8630942660507
 31
0.0
  0
LINE
  5
7C9
330
21C
100
AcDbEntity
  8
1
100
AcDbLine
 10
400.0058895370306
 20
481.8630942660507
 30
0.0
 11
366.5058895370309
 21
481.8630942660507
 31
0.0
  0
ARC
  5
7CA
330
21C
100
AcDbEntity
  8
3
100
AcDbCircle
 10
366.505889537031
 20
327.863094266051
 30
0.0
 40
147.5
100
AcDbArc
 50
76.0000000000004
 51
84.43980847156799
  0
ARC
  5
7CB
330
21C
100
AcDbEntity
  8
3
100
AcDbCircle
 10
408.9980723319233
 20
458.6405857125336
 30
0.0
 40
14.09474667808218
100
AcDbArc
 50
25.1141126873776
 51
118.885887312624
  0
ARC
  5
7CC
330
21C
100
AcDbEntity
  8
3
100
AcDbCircle
 10
366.5058895370309
 20
481.8630942660507
 30
0.0
 40
16.0
100
AcDbArc
 50
270.0
 51
352.9330289423074
  0
ARC
  5
7CD
330
21C
100
AcDbEntity
  8
3
100
AcDbCircle
 10
366.5058895370309
 20
481.8630942660507
 30
0.0
 40
11.1
100
AcDbArc
 50
270.0
 51
90.0
  0
ARC
  5
7CE
330
21C
100
AcDbEntity
  8
3
100
AcDbCircle
 10
366.5058895370309
 20
481.8630942660507
 30
0.0
 40
16.0
100
AcDbArc
 50
270.0
 51
352.9330289423074
  0
ARC
  5
7CF
330
21C
100
AcDbEntity
  8
3
100
AcDbCircle
 10
391.9779962375295
 20
478.6796014961813
 30
0.0
 40
9.67029257659056
100
AcDbArc
 50
89.83473400193476
 51
172.9702679671402
  0
ARC
  5
7D0
330
21C
100
AcDbEntity
  8
3
100
AcDbCircle
 10
366.5058895370309
 20
481.8630942660507
 30
0.0
 40
6.799999999999999
100
AcDbArc
 50
270.0
 51
90.0
  0
ARC
  5
7D1
330
21C
100
AcDbEntity
  8
3
100
AcDbCircle
 10
366.5058895370309
 20
481.8630942660507
 30
0.0
 40
8.0
100
AcDbArc
 50
270.0
 51
90.0
  0
ENDSEC
  0
SECTION
  2
OBJECTS
  0
DICTIONARY
  5
211
330
0
100
AcDbDictionary
281
     1
  3
ACAD_GROUP
350
212
  3
ACAD_LAYOUT
350
243
  3
ACAD_MLINESTYLE
350
21F
  3
ACAD_PLOTSETTINGS
350
244
  3
ACAD_PLOTSTYLENAME
350
241
  3
ACDBVARIABLEDICTIONARY
350
234
  3
AcmDictionary
350
301
  3
AMG
350
248
  3
AMGSNAPSETTINGS
350
31E
  3
DWGPROPS
350
406
  0
DICTIONARY
  5
32B
330
21C
100
AcDbDictionary
280
     1
281
     1
  3
ACAD_INDEX
360
32C
  0
DICTIONARY
  5
212
102
{ACAD_REACTORS
330
211
102
}
330
211
100
AcDbDictionary
281
     1
  0
DICTIONARY
  5
243
102
{ACAD_REACTORS
330
211
102
}
330
211
100
AcDbDictionary
281
     1
  3
Model
350
245
  3
ﾚｲｱｳﾄ1
350
246
  0
DICTIONARY
  5
21F
102
{ACAD_REACTORS
330
211
102
}
330
211
100
AcDbDictionary
281
     1
  3
STANDARD
350
220
  0
DICTIONARY
  5
244
102
{ACAD_REACTORS
330
211
102
}
330
211
100
AcDbDictionary
281
     1
  0
ACDBDICTIONARYWDFLT
  5
241
102
{ACAD_REACTORS
330
211
102
}
330
211
100
AcDbDictionary
281
     1
  3
Normal
350
242
100
AcDbDictionaryWithDefault
340
242
  0
DICTIONARY
  5
234
102
{ACAD_REACTORS
330
211
102
}
330
211
100
AcDbDictionary
281
     1
  3
DIMADEC
350
235
  3
DIMASSOC
350
334
  3
INDEXCTL
350
333
  0
DICTIONARY
  5
301
102
{ACAD_REACTORS
330
211
102
}
330
211
100
AcDbDictionary
281
     1
  3
AcmBOMDATA
350
3EA
  3
AcmStdDictionary
350
57D
  0
DICTIONARY
  5
248
102
{ACAD_REACTORS
330
211
102
}
330
211
100
AcDbDictionary
281
     1
  3
AcMgSettings
350
249
  3
AMGLAYCFG
350
3F4
  0
DICTIONARY
  5
31E
102
{ACAD_REACTORS
330
211
102
}
330
211
100
AcDbDictionary
281
     1
  3
DIMENSION
350
323
  3
FEA
350
322
  3
HATCH (1)
350
31F
  3
HATCH (2)
350
320
  3
SIMPLE WELD
350
324
  3
SYMBOLS
350
321
  0
XRECORD
  5
406
102
{ACAD_REACTORS
330
211
102
}
330
211
100
AcDbXrecord
280
     1
  1
DWGPROPS COOKIE
  2

  3

  4

  6

  7

  8

  9

300
AmdtFileType=84
301
=
302
=
303
=
304
=
305
=
306
=
307
=
308
=
309
=
 40
0.0039771296296296
 41
2450863.977785301
 42
2456275.628052476
  1

 90
        1
  0
DICTIONARY
  5
32C
102
{ACAD_REACTORS
330
32B
102
}
330
32B
100
AcDbDictionary
281
     1
  3
*A1
350
32D
  0
LAYOUT
  5
245
102
{ACAD_REACTORS
330
243
102
}
330
243
100
AcDbPlotSettings
  1

  2
\\KONISHIDENXP\SHARP MX-2700FG
  4

  6

 40
0.0
 41
0.0
 42
0.0
 43
0.0
 44
0.0
 45
0.0
 46
0.0
 47
0.0
 48
0.0
 49
0.0
140
0.0
141
0.0
142
1.0
143
1.0
 70
  1712
 72
     0
 73
     0
 74
     0
  7

 75
     0
147
1.0
148
0.0
149
0.0
100
AcDbLayout
  1
Model
 70
     1
 71
     0
 10
0.0
 20
0.0
 11
12.0
 21
9.0
 12
0.0
 22
0.0
 32
0.0
 14
0.0
 24
0.0
 34
0.0
 15
0.0
 25
0.0
 35
0.0
146
0.0
 13
0.0
 23
0.0
 33
0.0
 16
1.0
 26
0.0
 36
0.0
 17
0.0
 27
1.0
 37
0.0
 76
     0
330
21C
  0
LAYOUT
  5
246
102
{ACAD_REACTORS
330
243
102
}
330
243
100
AcDbPlotSettings
  1

  2
\\KONISHIDENXP\SHARP MX-2700FG
  4

  6

 40
0.0
 41
0.0
 42
0.0
 43
0.0
 44
0.0
 45
0.0
 46
0.0
 47
0.0
 48
0.0
 49
0.0
140
0.0
141
0.0
142
1.0
143
1.0
 70
   688
 72
     0
 73
     0
 74
     5
  7

 75
    16
147
1.0
148
0.0
149
0.0
100
AcDbLayout
  1
ﾚｲｱｳﾄ1
 70
     0
 71
     1
 10
0.0
 20
0.0
 11
12.0
 21
9.0
 12
0.0
 22
0.0
 32
0.0
 14
1.000000000000000E+20
 24
1.000000000000000E+20
 34
1.000000000000000E+20
 15
-1.000000000000000E+20
 25
-1.000000000000000E+20
 35
-1.000000000000000E+20
146
0.0
 13
0.0
 23
0.0
 33
0.0
 16
1.0
 26
0.0
 36
0.0
 17
0.0
 27
1.0
 37
0.0
 76
     0
330
219
  0
MLINESTYLE
  5
220
102
{ACAD_REACTORS
330
21F
102
}
330
21F
100
AcDbMlineStyle
  2
STANDARD
 70
     0
  3

 62
   256
 51
90.0
 52
90.0
 71
     2
 49
0.5
 62
   256
  6
BYLAYER
 49
-0.5
 62
   256
  6
BYLAYER
  0
ACDBPLACEHOLDER
  5
242
102
{ACAD_REACTORS
330
241
102
}
330
241
  0
DICTIONARYVAR
  5
235
102
{ACAD_REACTORS
330
234
102
}
330
234
100
DictionaryVariables
280
     0
  1
0
  0
DICTIONARYVAR
  5
334
102
{ACAD_REACTORS
330
234
102
}
330
234
100
DictionaryVariables
280
     0
  1
0
  0
DICTIONARYVAR
  5
333
102
{ACAD_REACTORS
330
234
102
}
330
234
100
DictionaryVariables
280
     0
  1
1
  0
ACMDATADICTIONARY
  5
3EA
102
{ACAD_REACTORS
330
301
102
}
330
301
100
AcDbDictionary
281
     1
  3
*A1
350
3EB
100
AcmDataDictionary
  0
DICTIONARY
  5
57D
102
{ACAD_REACTORS
330
301
102
}
330
301
100
AcDbDictionary
281
     1
  3
ANSI
350
57E
  0
DICTIONARY
  5
249
102
{ACAD_REACTORS
330
248
102
}
330
248
100
AcDbDictionary
281
     1
  3
DWGSETTINGS
350
33C
  0
ACAMGFILTERDAT
  5
323
102
{ACAD_REACTORS
330
31E
102
}
330
31E
100
AcAmgFilterDat
 70
    15
  1
DIMENSION,AMDT_*_DIM
  2
*
  3
*
  4
*
  5
*
290
     1
  0
ACAMGFILTERDAT
  5
322
102
{ACAD_REACTORS
330
31E
102
}
330
31E
100
AcAmgFilterDat
 70
    15
  1
*
  2
AM_FEA-AM_*
  3
*
  4
*
  5
*
290
     1
  0
ACAMGFILTERDAT
  5
31F
102
{ACAD_REACTORS
330
31E
102
}
330
31E
100
AcAmgFilterDat
 70
    15
  1
HATCH
  2
*
  3
*
  4
*
  5
*
290
     1
  0
ACAMGFILTERDAT
  5
320
102
{ACAD_REACTORS
330
31E
102
}
330
31E
100
AcAmgFilterDat
 70
    15
  1
LINE
  2
8,8N,*-8,*-8N,AM_8,AM_8N,*-AM_8,*-AM_8N
  3
*
  4
*
  5
INSERT,STDPART2D
290
     1
  0
ACAMGFILTERDAT
  5
324
102
{ACAD_REACTORS
330
31E
102
}
330
31E
100
AcAmgFilterDat
 70
    15
  1
ARC
  2
AM_5
  3
*
  4
2
  5
INSERT
290
     0
  0
ACAMGFILTERDAT
  5
321
102
{ACAD_REACTORS
330
31E
102
}
330
31E
100
AcAmgFilterDat
 70
    15
  1
ACMFCFRAME,ACMDATUMTARGET,ACMDATUMID,ACMWELDSYM,ACMSURFSYM,ACMFEATID,ACMPARTREF,ACMBALLOON,AMDTEDGESYM,AMGSCREWCALCTABLE
  2
*
  3
*
  4
*
  5
*
290
     1
  0
LAYER_INDEX
  5
32D
102
{ACAD_REACTORS
330
32C
102
}
330
32C
100
AcDbIndex
 40
2456448.440502928
100
AcDbLayerIndex
  8
0
360
32E
 90
        1
  8
1
360
32F
 90
       20
  8
10
360
330
 90
        0
  8
11
360
331
 90
        0
  8
2
360
332
 90
       11
  8
3
360
7D2
 90
      155
  8
DEFPOINTS
360
7D3
 90
        0
  0
ACMDATAENTRYBLOCK
  5
3EB
102
{ACAD_REACTORS
330
3EA
102
}
330
3EA
100
AcmDataEntry
100
AcmDataEntryBlock
  0
IDBUFFER
  5
32E
330
0
100
AcDbIdBuffer
330
67B
  0
IDBUFFER
  5
32F
330
0
100
AcDbIdBuffer
330
612
330
614
330
626
330
62B
330
65D
330
66F
330
792
330
793
330
79A
330
7AE
330
7AF
330
7C8
330
7C9
330
5A0
330
5A2
330
5C5
330
5F7
330
602
330
60E
330
611
  0
IDBUFFER
  5
330
330
0
100
AcDbIdBuffer
  0
IDBUFFER
  5
331
330
0
100
AcDbIdBuffer
  0
IDBUFFER
  5
332
330
0
100
AcDbIdBuffer
330
66B
330
66C
330
66D
330
66E
330
628
330
64E
330
659
330
65A
330
65B
330
65C
330
66A
  0
IDBUFFER
  5
7D2
330
0
100
AcDbIdBuffer
330
7A3
330
7A4
330
7A5
330
7A6
330
7A7
330
7A8
330
7A9
330
7AA
330
7AB
330
7AC
330
7AD
330
7B0
330
7B1
330
7B2
330
7B3
330
7B4
330
7B5
330
7B6
330
7B7
330
7B8
330
7B9
330
7BA
330
7BB
330
7BC
330
7BD
330
7BE
330
7BF
330
7C0
330
7C1
330
7C2
330
7C3
330
7C4
330
7C5
330
7C6
330
7C7
330
7CA
330
7CB
330
7CC
330
7CD
330
7CE
330
7CF
330
7D0
330
7D1
330
597
330
599
330
59C
330
59E
330
59F
330
5A1
330
5A5
330
5A6
330
5A7
330
5A8
330
5A9
330
5AC
330
5AD
330
5AE
330
5AF
330
5B0
330
5B1
330
5B2
330
5B3
330
5B4
330
5B5
330
5B6
330
5C2
330
5C3
330
5C4
330
5C6
330
5C7
330
5C8
330
5C9
330
5CA
330
5CB
330
5CC
330
5CD
330
5CE
330
5CF
330
5D0
330
5D3
330
5D4
330
5D5
330
5D6
330
5DA
330
5DB
330
5DC
330
5DD
330
5DE
330
5DF
330
5E0
330
5E1
330
5E3
330
5E4
330
5E5
330
5FA
330
5FB
330
5FC
330
603
330
605
330
606
330
607
330
609
330
60A
330
60B
330
60D
330
60F
330
610
330
613
330
615
330
616
330
617
330
618
330
619
330
61A
330
61B
330
61C
330
61D
330
61E
330
61F
330
629
330
62A
330
62C
330
636
330
637
330
638
330
639
330
63C
330
63F
330
640
330
641
330
642
330
643
330
644
330
645
330
646
330
647
330
648
330
649
330
64A
330
64B
330
64F
330
657
330
65E
330
67C
330
797
330
798
330
799
330
79B
330
79C
330
79D
330
79E
330
79F
330
7A0
330
7A1
330
7A2
  0
IDBUFFER
  5
7D3
330
0
100
AcDbIdBuffer
  0
ENDSEC
  0
EOF
