  0
SECTION
  2
HEADER
  9
$ACADVER
  1
AC1014
  9
$ACADMAINTVER
 70
     0
  9
$DWGCODEPAGE
  3
ANSI_932
  9
$INSBASE
 10
0.0
 20
0.0
 30
0.0
  9
$EXTMIN
 10
87.5
 20
127.5
 30
0.0
  9
$EXTMAX
 10
730.342161
 20
492.5
 30
0.0
  9
$LIMMIN
 10
0.0
 20
0.0
  9
$LIMMAX
 10
880.0
 20
610.0
  9
$ORTHOMODE
 70
     1
  9
$REGENMODE
 70
     1
  9
$FILLMODE
 70
     1
  9
$QTEXTMODE
 70
     0
  9
$MIRRTEXT
 70
     1
  9
$DRAGMODE
 70
     1
  9
$LTSCALE
 40
50.0
  9
$OSMODE
 70
    33
  9
$ATTMODE
 70
     1
  9
$TEXTSIZE
 40
30.0
  9
$TRACEWID
 40
0.05
  9
$TEXTSTYLE
  7
BIGFONT
  9
$CLAYER
  8
0
  9
$CELTYPE
  6
BYLAYER
  9
$CECOLOR
 62
   256
  9
$CELTSCALE
 40
1.0
  9
$DELOBJ
 70
     1
  9
$DISPSILH
 70
     0
  9
$DIMSCALE
 40
5.0
  9
$DIMASZ
 40
3.0
  9
$DIMEXO
 40
2.0
  9
$DIMDLI
 40
0.38
  9
$DIMRND
 40
0.0
  9
$DIMDLE
 40
0.0
  9
$DIMEXE
 40
2.0
  9
$DIMTP
 40
0.0
  9
$DIMTM
 40
0.0
  9
$DIMTXT
 40
3.2
  9
$DIMCEN
 40
0.09
  9
$DIMTSZ
 40
0.0
  9
$DIMTOL
 70
     0
  9
$DIMLIM
 70
     0
  9
$DIMTIH
 70
     0
  9
$DIMTOH
 70
     0
  9
$DIMSE1
 70
     0
  9
$DIMSE2
 70
     0
  9
$DIMTAD
 70
     1
  9
$DIMZIN
 70
     0
  9
$DIMBLK
  1

  9
$DIMASO
 70
     0
  9
$DIMSHO
 70
     0
  9
$DIMPOST
  1

  9
$DIMAPOST
  1

  9
$DIMALT
 70
     0
  9
$DIMALTD
 70
     2
  9
$DIMALTF
 40
25.4
  9
$DIMLFAC
 40
1.0
  9
$DIMTOFL
 70
     0
  9
$DIMTVP
 40
1.6
  9
$DIMTIX
 70
     1
  9
$DIMSOXD
 70
     0
  9
$DIMSAH
 70
     0
  9
$DIMBLK1
  1

  9
$DIMBLK2
  1

  9
$DIMSTYLE
  2
STANDARD
  9
$DIMCLRD
 70
     0
  9
$DIMCLRE
 70
     0
  9
$DIMCLRT
 70
     0
  9
$DIMTFAC
 40
1.0
  9
$DIMGAP
 40
0.09
  9
$DIMJUST
 70
     0
  9
$DIMSD1
 70
     0
  9
$DIMSD2
 70
     0
  9
$DIMTOLJ
 70
     1
  9
$DIMTZIN
 70
     0
  9
$DIMALTZ
 70
     0
  9
$DIMALTTZ
 70
     0
  9
$DIMFIT
 70
     5
  9
$DIMUPT
 70
     0
  9
$DIMUNIT
 70
     2
  9
$DIMDEC
 70
     4
  9
$DIMTDEC
 70
     4
  9
$DIMALTU
 70
     2
  9
$DIMALTTD
 70
     2
  9
$DIMTXSTY
  7
BIGFONT
  9
$DIMAUNIT
 70
     0
  9
$LUNITS
 70
     2
  9
$LUPREC
 70
     4
  9
$SKETCHINC
 40
0.1
  9
$FILLETRAD
 40
0.0
  9
$AUNITS
 70
     0
  9
$AUPREC
 70
     0
  9
$MENU
  1
ACAD
  9
$ELEVATION
 40
0.0
  9
$PELEVATION
 40
0.0
  9
$THICKNESS
 40
0.0
  9
$LIMCHECK
 70
     0
  9
$BLIPMODE
 70
     0
  9
$CHAMFERA
 40
0.0
  9
$CHAMFERB
 40
0.0
  9
$CHAMFERC
 40
0.0
  9
$CHAMFERD
 40
0.0
  9
$SKPOLY
 70
     0
  9
$TDCREATE
 40
2450863.976209027
  9
$TDUPDATE
 40
2453551.651945520
  9
$TDINDWG
 40
0.0004432523
  9
$TDUSRTIMER
 40
0.0004432523
  9
$USRTIMER
 70
     1
  9
$ANGBASE
 50
0.0
  9
$ANGDIR
 70
     0
  9
$PDMODE
 70
     0
  9
$PDSIZE
 40
0.0
  9
$PLINEWID
 40
0.0
  9
$COORDS
 70
     2
  9
$SPLFRAME
 70
     0
  9
$SPLINETYPE
 70
     6
  9
$SPLINESEGS
 70
     8
  9
$ATTDIA
 70
     0
  9
$ATTREQ
 70
     1
  9
$HANDLING
 70
     1
  9
$HANDSEED
  5
201
  9
$SURFTAB1
 70
     6
  9
$SURFTAB2
 70
     6
  9
$SURFTYPE
 70
     6
  9
$SURFU
 70
     6
  9
$SURFV
 70
     6
  9
$UCSNAME
  2

  9
$UCSORG
 10
0.0
 20
0.0
 30
0.0
  9
$UCSXDIR
 10
1.0
 20
0.0
 30
0.0
  9
$UCSYDIR
 10
0.0
 20
1.0
 30
0.0
  9
$PUCSNAME
  2

  9
$PUCSORG
 10
0.0
 20
0.0
 30
0.0
  9
$PUCSXDIR
 10
1.0
 20
0.0
 30
0.0
  9
$PUCSYDIR
 10
0.0
 20
1.0
 30
0.0
  9
$USERI1
 70
     0
  9
$USERI2
 70
     0
  9
$USERI3
 70
     0
  9
$USERI4
 70
     0
  9
$USERI5
 70
     0
  9
$USERR1
 40
0.0
  9
$USERR2
 40
0.0
  9
$USERR3
 40
0.0
  9
$USERR4
 40
0.0
  9
$USERR5
 40
0.0
  9
$WORLDVIEW
 70
     1
  9
$SHADEDGE
 70
     3
  9
$SHADEDIF
 70
    70
  9
$TILEMODE
 70
     1
  9
$MAXACTVP
 70
    16
  9
$PINSBASE
 10
0.0
 20
0.0
 30
0.0
  9
$PLIMCHECK
 70
     0
  9
$PEXTMIN
 10
1.000000E+20
 20
1.000000E+20
 30
1.000000E+20
  9
$PEXTMAX
 10
-1.000000E+20
 20
-1.000000E+20
 30
-1.000000E+20
  9
$PLIMMIN
 10
0.0
 20
0.0
  9
$PLIMMAX
 10
12.0
 20
9.0
  9
$UNITMODE
 70
     0
  9
$VISRETAIN
 70
     0
  9
$PLINEGEN
 70
   287
  9
$PSLTSCALE
 70
     0
  9
$TREEDEPTH
 70
  3020
  9
$PICKSTYLE
 70
     1
  9
$CMLSTYLE
  2
STANDARD
  9
$CMLJUST
 70
     0
  9
$CMLSCALE
 40
1.0
  9
$PROXYGRAPHICS
 70
     1
  9
$MEASUREMENT
 70
     0
  0
ENDSEC
  0
SECTION
  2
CLASSES
  0
CLASS
  1
DICTIONARYVAR
  2
AcDbDictionaryVar
  3
"AutoCAD"
 90
        0
280
     0
281
     0
  0
ENDSEC
  0
SECTION
  2
TABLES
  0
TABLE
  2
VPORT
  5
1D0
100
AcDbSymbolTable
 70
     3
  0
VPORT
  5
200
100
AcDbSymbolTableRecord
100
AcDbViewportTableRecord
  2
*ACTIVE
 70
     0
 10
0.0
 20
0.0
 11
1.0
 21
1.0
 12
540.954724
 22
376.986583
 13
0.0
 23
0.0
 14
5.0
 24
5.0
 15
10.0
 25
10.0
 16
0.0
 26
0.0
 36
1.0
 17
0.0
 27
0.0
 37
0.0
 40
753.973165
 41
1.434944
 42
50.0
 43
0.0
 44
0.0
 50
0.0
 51
0.0
 71
     0
 72
   500
 73
     1
 74
     1
 75
     0
 76
     0
 77
     0
 78
     0
  0
ENDTAB
  0
TABLE
  2
LTYPE
  5
1CD
100
AcDbSymbolTable
 70
     3
  0
LTYPE
  5
1D9
100
AcDbSymbolTableRecord
100
AcDbLinetypeTableRecord
  2
BYBLOCK
 70
     0
  3

 72
    65
 73
     0
 40
0.0
  0
LTYPE
  5
1DA
100
AcDbSymbolTableRecord
100
AcDbLinetypeTableRecord
  2
BYLAYER
 70
     0
  3

 72
    65
 73
     0
 40
0.0
  0
LTYPE
  5
1DB
100
AcDbSymbolTableRecord
100
AcDbLinetypeTableRecord
  2
CONTINUOUS
 70
     0
  3
実線
 72
    65
 73
     0
 40
0.0
  0
LTYPE
  5
1E9
100
AcDbSymbolTableRecord
100
AcDbLinetypeTableRecord
  2
CENTER
 70
     0
  3
____ _ ____ _ ____ _ ____ _ ____ _ ____ _ ____
 72
    65
 73
     4
 40
2.0
 49
1.25
 74
     0
 49
-0.25
 74
     0
 49
0.25
 74
     0
 49
-0.25
 74
     0
  0
LTYPE
  5
1EA
100
AcDbSymbolTableRecord
100
AcDbLinetypeTableRecord
  2
TENSEN1
 70
     0
  3

 72
    65
 73
     2
 40
0.4
 49
0.3
 74
     0
 49
-0.1
 74
     0
  0
ENDTAB
  0
TABLE
  2
LAYER
  5
1CA
100
AcDbSymbolTable
 70
     6
  0
LAYER
  5
1D6
100
AcDbSymbolTableRecord
100
AcDbLayerTableRecord
  2
0
 70
     0
 62
     7
  6
CONTINUOUS
  0
LAYER
  5
1EF
100
AcDbSymbolTableRecord
100
AcDbLayerTableRecord
  2
1
 70
     0
 62
     1
  6
CENTER
  0
LAYER
  5
1F0
100
AcDbSymbolTableRecord
100
AcDbLayerTableRecord
  2
4
 70
     0
 62
     4
  6
CONTINUOUS
  0
LAYER
  5
1F1
100
AcDbSymbolTableRecord
100
AcDbLayerTableRecord
  2
10
 70
     0
 62
     7
  6
CONTINUOUS
  0
LAYER
  5
1F2
100
AcDbSymbolTableRecord
100
AcDbLayerTableRecord
  2
11
 70
     0
 62
     3
  6
CONTINUOUS
  0
LAYER
  5
1F3
100
AcDbSymbolTableRecord
100
AcDbLayerTableRecord
  2
5
 70
     0
 62
     2
  6
TENSEN1
  0
ENDTAB
  0
TABLE
  2
STYLE
  5
1CB
100
AcDbSymbolTable
 70
     4
  0
STYLE
  5
1D7
100
AcDbSymbolTableRecord
100
AcDbTextStyleTableRecord
  2
STANDARD
 70
     0
 40
0.0
 41
1.0
 50
0.0
 71
     0
 42
0.2
  3
TXT
  4
BIGFONT
  0
STYLE
  5
1E6
100
AcDbSymbolTableRecord
100
AcDbTextStyleTableRecord
  2
K80
 70
     0
 40
0.0
 41
0.8
 50
0.0
 71
     0
 42
0.2
  3
TXT
  4
BIGFONT
  0
STYLE
  5
1E7
100
AcDbSymbolTableRecord
100
AcDbTextStyleTableRecord
  2
07500
 70
     0
 40
0.0
 41
0.75
 50
0.0
 71
     0
 42
0.2
  3
TXT
  4
BIGFONT
  0
STYLE
  5
1E8
100
AcDbSymbolTableRecord
100
AcDbTextStyleTableRecord
  2
BIGFONT
 70
     0
 40
30.0
 41
0.8
 50
0.0
 71
     0
 42
30.0
  3

  4
bigfont
  0
ENDTAB
  0
TABLE
  2
VIEW
  5
1CE
100
AcDbSymbolTable
 70
     1
  0
VIEW
  5
1EB
100
AcDbSymbolTableRecord
100
AcDbViewTableRecord
  2
ALL
 70
     0
 40
1350.0
 10
1104.957983
 20
675.0
 41
0.0
 11
0.0
 21
0.0
 31
1.0
 12
0.0
 22
0.0
 32
0.0
 42
0.0
 43
0.0
 44
0.0
 50
0.0
 71
     0
  0
ENDTAB
  0
TABLE
  2
UCS
  5
1CF
100
AcDbSymbolTable
 70
     0
  0
ENDTAB
  0
TABLE
  2
APPID
  5
1D1
100
AcDbSymbolTable
 70
     1
  0
APPID
  5
1D8
100
AcDbSymbolTableRecord
100
AcDbRegAppTableRecord
  2
ACAD
 70
     0
  0
ENDTAB
  0
TABLE
  2
DIMSTYLE
  5
1D2
100
AcDbSymbolTable
 70
     1
  0
DIMSTYLE
105
1EE
100
AcDbSymbolTableRecord
100
AcDbDimStyleTableRecord
  2
STANDARD
 70
     0
  3

  4

  5

  6

  7

 40
1.0
 41
0.18
 42
0.0625
 43
0.38
 44
0.18
 45
0.0
 46
0.0
 47
0.0
 48
0.0
140
0.18
141
0.09
142
0.0
143
25.4
144
1.0
145
0.0
146
1.0
147
0.09
 71
     0
 72
     0
 73
     1
 74
     1
 75
     0
 76
     0
 77
     0
 78
     0
170
     0
171
     2
172
     0
173
     0
174
     0
175
     0
176
     0
177
     0
178
     0
270
     2
271
     4
272
     4
273
     2
274
     2
340
1E8
275
     0
280
     0
281
     0
282
     0
283
     1
284
     0
285
     0
286
     0
287
     5
288
     0
  0
ENDTAB
  0
TABLE
  2
BLOCK_RECORD
  5
1C9
100
AcDbSymbolTable
 70
     2
  0
BLOCK_RECORD
  5
1DF
100
AcDbSymbolTableRecord
100
AcDbBlockTableRecord
  2
*MODEL_SPACE
  0
BLOCK_RECORD
  5
1DC
100
AcDbSymbolTableRecord
100
AcDbBlockTableRecord
  2
*PAPER_SPACE
  0
BLOCK_RECORD
  5
1E4
100
AcDbSymbolTableRecord
100
AcDbBlockTableRecord
  2
WAKU
  0
BLOCK_RECORD
  5
1E5
100
AcDbSymbolTableRecord
100
AcDbBlockTableRecord
  2
QQ
  0
ENDTAB
  0
ENDSEC
  0
SECTION
  2
BLOCKS
  0
BLOCK
  5
1F6
100
AcDbEntity
  8
0
100
AcDbBlockBegin
  2
*MODEL_SPACE
 70
     0
 10
0.0
 20
0.0
 30
0.0
  3
*MODEL_SPACE
  1

  0
ENDBLK
  5
1F7
100
AcDbEntity
  8
0
100
AcDbBlockEnd
  0
BLOCK
  5
1F4
100
AcDbEntity
 67
     1
  8
0
100
AcDbBlockBegin
  2
*PAPER_SPACE
 70
     0
 10
0.0
 20
0.0
 30
0.0
  3
*PAPER_SPACE
  1

  0
ENDBLK
  5
1F5
100
AcDbEntity
 67
     1
  8
0
100
AcDbBlockEnd
  0
BLOCK
  5
2F
100
AcDbEntity
  8
0
100
AcDbBlockBegin
  2
WAKU
 70
     0
 10
549.0
 20
0.0
 30
0.0
  3
WAKU
  1

  0
LINE
  5
30
100
AcDbEntity
  8
11
100
AcDbLine
 10
452.0
 20
12.0
 30
0.0
 11
549.0
 21
12.0
 31
0.0
  0
LINE
  5
31
100
AcDbEntity
  8
11
100
AcDbLine
 10
477.0
 20
0.0
 30
0.0
 11
477.0
 21
12.0
 31
0.0
  0
LINE
  5
32
100
AcDbEntity
  8
11
100
AcDbLine
 10
452.0
 20
12.0
 30
0.0
 11
452.0
 21
0.0
 31
0.0
  0
TEXT
  5
33
100
AcDbEntity
  8
11
100
AcDbText
 10
454.0
 20
8.5
 30
0.0
 40
2.5
  1
尺度
100
AcDbText
  0
TEXT
  5
34
100
AcDbEntity
  8
11
100
AcDbText
 10
479.0
 20
8.5
 30
0.0
 40
2.5
  1
図番
100
AcDbText
  0
ENDBLK
  5
35
100
AcDbEntity
  8
0
100
AcDbBlockEnd
  0
BLOCK
  5
36
100
AcDbEntity
  8
0
100
AcDbBlockBegin
  2
QQ
 70
     0
 10
270.0
 20
0.0
 30
0.0
  3
QQ
  1

  0
LINE
  5
37
100
AcDbEntity
  8
11
100
AcDbLine
 10
173.0
 20
36.0
 30
0.0
 11
270.0
 21
36.0
 31
0.0
  0
TEXT
  5
38
100
AcDbEntity
  8
11
100
AcDbText
 10
175.0
 20
32.5
 30
0.0
 40
2.5
  1
部品名称
100
AcDbText
  0
LINE
  5
39
100
AcDbEntity
  8
11
100
AcDbLine
 10
173.0
 20
36.0
 30
0.0
 11
173.0
 21
0.0
 31
0.0
  0
LINE
  5
3A
100
AcDbEntity
  8
11
100
AcDbLine
 10
173.0
 20
24.0
 30
0.0
 11
270.0
 21
24.0
 31
0.0
  0
TEXT
  5
3B
100
AcDbEntity
  8
11
100
AcDbText
 10
175.0
 20
20.5
 30
0.0
 40
2.5
  1
品番
100
AcDbText
  0
LINE
  5
3C
100
AcDbEntity
  8
11
100
AcDbLine
 10
173.0
 20
12.0
 30
0.0
 11
270.0
 21
12.0
 31
0.0
  0
TEXT
  5
3D
100
AcDbEntity
  8
11
100
AcDbText
 10
175.0
 20
8.5
 30
0.0
 40
2.5
  1
尺度
100
AcDbText
  0
TEXT
  5
3E
100
AcDbEntity
  8
11
100
AcDbText
 10
200.0
 20
8.5
 30
0.0
 40
2.5
  1
図番
100
AcDbText
  0
LINE
  5
3F
100
AcDbEntity
  8
11
100
AcDbLine
 10
198.0
 20
0.0
 30
0.0
 11
198.0
 21
12.0
 31
0.0
  0
ENDBLK
  5
40
100
AcDbEntity
  8
0
100
AcDbBlockEnd
  0
ENDSEC
  0
SECTION
  2
ENTITIES
  0
ARC
  5
41
100
AcDbEntity
  8
0
100
AcDbCircle
 10
297.240797
 20
341.967397
 30
0.0
 40
7.0
100
AcDbArc
 50
230.041548
 51
289.386103
  0
LINE
  5
42
100
AcDbEntity
  8
0
100
AcDbLine
 10
380.696131
 20
359.832692
 30
0.0
 11
299.564323
 21
335.364275
 31
0.0
  0
ARC
  5
43
100
AcDbEntity
  8
0
100
AcDbCircle
 10
378.674362
 20
366.534368
 30
0.0
 40
7.0
100
AcDbArc
 50
286.787572
 51
27.40084
  0
ARC
  5
44
100
AcDbEntity
  8
0
100
AcDbCircle
 10
291.984932
 20
345.786007
 30
0.0
 40
7.0
100
AcDbArc
 50
178.613897
 51
237.958452
  0
LINE
  5
45
100
AcDbEntity
  8
0
100
AcDbLine
 10
283.186721
 20
430.677426
 30
0.0
 11
284.986981
 21
345.955334
 31
0.0
  0
ARC
  5
46
100
AcDbEntity
  8
0
100
AcDbCircle
 10
290.185154
 20
430.825541
 30
0.0
 40
7.0
100
AcDbArc
 50
80.59916
 51
181.212428
  0
ARC
  5
47
100
AcDbEntity
  8
0
100
AcDbCircle
 10
270.0
 20
310.0
 30
0.0
 40
35.0
100
AcDbArc
 50
49.468795
 51
58.531205
  0
ARC
  5
48
100
AcDbEntity
  8
0
100
AcDbCircle
 10
308.820671
 20
293.970932
 30
0.0
 40
7.0
100
AcDbArc
 50
158.041548
 51
217.386103
  0
LINE
  5
49
100
AcDbEntity
  8
0
100
AcDbLine
 10
351.600693
 20
220.120872
 30
0.0
 11
303.258737
 21
289.72065
 31
0.0
  0
ARC
  5
4A
100
AcDbEntity
  8
0
100
AcDbCircle
 10
357.349604
 20
224.11462
 30
0.0
 40
7.0
100
AcDbArc
 50
214.787572
 51
315.40084
  0
ARC
  5
4B
100
AcDbEntity
  8
0
100
AcDbCircle
 10
310.828232
 20
300.149571
 30
0.0
 40
7.0
100
AcDbArc
 50
106.613897
 51
165.958452
  0
LINE
  5
4C
100
AcDbEntity
  8
0
100
AcDbLine
 10
388.845973
 20
334.750058
 30
0.0
 11
308.826787
 21
306.857344
 31
0.0
  0
ARC
  5
4D
100
AcDbEntity
  8
0
100
AcDbCircle
 10
391.149473
 20
328.139923
 30
0.0
 40
7.0
100
AcDbArc
 50
8.59916
 51
109.212428
  0
ARC
  5
4E
100
AcDbEntity
  8
0
100
AcDbCircle
 10
270.0
 20
310.0
 30
0.0
 40
35.0
100
AcDbArc
 50
337.468795
 51
346.531205
  0
ARC
  5
4F
100
AcDbEntity
  8
0
100
AcDbCircle
 10
266.751697
 20
268.126093
 30
0.0
 40
7.0
100
AcDbArc
 50
86.041548
 51
145.386103
  0
LINE
  5
50
100
AcDbEntity
  8
0
100
AcDbLine
 10
209.73587
 20
204.618952
 30
0.0
 11
260.990707
 21
272.102397
 31
0.0
  0
ARC
  5
51
100
AcDbEntity
  8
0
100
AcDbCircle
 10
215.310662
 20
200.385548
 30
0.0
 40
7.0
100
AcDbArc
 50
142.787572
 51
243.40084
  0
ARC
  5
52
100
AcDbEntity
  8
0
100
AcDbCircle
 10
273.248303
 20
268.126093
 30
0.0
 40
7.0
100
AcDbArc
 50
34.613897
 51
93.958452
  0
LINE
  5
53
100
AcDbEntity
  8
0
100
AcDbLine
 10
330.26413
 20
204.618952
 30
0.0
 11
279.009293
 21
272.102397
 31
0.0
  0
ARC
  5
54
100
AcDbEntity
  8
0
100
AcDbCircle
 10
324.689338
 20
200.385548
 30
0.0
 40
7.0
100
AcDbArc
 50
296.59916
 51
37.212428
  0
ARC
  5
55
100
AcDbEntity
  8
0
100
AcDbCircle
 10
270.0
 20
310.0
 30
0.0
 40
35.0
100
AcDbArc
 50
265.468795
 51
274.531205
  0
ARC
  5
56
100
AcDbEntity
  8
0
100
AcDbCircle
 10
229.171768
 20
300.149571
 30
0.0
 40
7.0
100
AcDbArc
 50
14.041548
 51
73.386103
  0
LINE
  5
57
100
AcDbEntity
  8
0
100
AcDbLine
 10
151.154027
 20
334.750058
 30
0.0
 11
231.173213
 21
306.857344
 31
0.0
  0
ARC
  5
58
100
AcDbEntity
  8
0
100
AcDbCircle
 10
148.850527
 20
328.139923
 30
0.0
 40
7.0
100
AcDbArc
 50
70.787572
 51
171.40084
  0
ARC
  5
59
100
AcDbEntity
  8
0
100
AcDbCircle
 10
231.179329
 20
293.970932
 30
0.0
 40
7.0
100
AcDbArc
 50
322.613897
 51
21.958452
  0
LINE
  5
5A
100
AcDbEntity
  8
0
100
AcDbLine
 10
188.399307
 20
220.120872
 30
0.0
 11
236.741263
 21
289.72065
 31
0.0
  0
ARC
  5
5B
100
AcDbEntity
  8
0
100
AcDbCircle
 10
182.650396
 20
224.11462
 30
0.0
 40
7.0
100
AcDbArc
 50
224.59916
 51
325.212428
  0
ARC
  5
5C
100
AcDbEntity
  8
0
100
AcDbCircle
 10
270.0
 20
310.0
 30
0.0
 40
35.0
100
AcDbArc
 50
193.468795
 51
202.531205
  0
ARC
  5
5D
100
AcDbEntity
  8
0
100
AcDbCircle
 10
270.0
 20
310.0
 30
0.0
 40
35.0
100
AcDbArc
 50
121.468795
 51
130.531205
  0
ARC
  5
5E
100
AcDbEntity
  8
0
100
AcDbCircle
 10
161.325638
 20
366.534368
 30
0.0
 40
7.0
100
AcDbArc
 50
152.59916
 51
253.212428
  0
LINE
  5
5F
100
AcDbEntity
  8
0
100
AcDbLine
 10
159.303869
 20
359.832692
 30
0.0
 11
240.435677
 21
335.364275
 31
0.0
  0
ARC
  5
60
100
AcDbEntity
  8
0
100
AcDbCircle
 10
242.759203
 20
341.967397
 30
0.0
 40
7.0
100
AcDbArc
 50
250.613897
 51
309.958452
  0
ARC
  5
61
100
AcDbEntity
  8
0
100
AcDbCircle
 10
270.0
 20
310.0
 30
0.0
 40
143.5
100
AcDbArc
 50
100.840223
 51
79.159777
  0
ARC
  5
62
100
AcDbEntity
  8
0
100
AcDbCircle
 10
270.0
 20
448.0
 30
0.0
 40
19.0
100
AcDbArc
 50
187.247038
 51
352.752962
  0
ARC
  5
63
100
AcDbEntity
  8
0
100
AcDbCircle
 10
244.323269
 20
444.063254
 30
0.0
 40
7.0
100
AcDbArc
 50
12.708531
 51
100.798078
  0
ARC
  5
64
100
AcDbEntity
  8
0
100
AcDbCircle
 10
249.814846
 20
430.825541
 30
0.0
 40
7.0
100
AcDbArc
 50
358.787572
 51
99.40084
  0
LINE
  5
65
100
AcDbEntity
  8
0
100
AcDbLine
 10
256.813279
 20
430.677426
 30
0.0
 11
255.013019
 21
345.955334
 31
0.0
  0
ARC
  5
66
100
AcDbEntity
  8
0
100
AcDbCircle
 10
248.015068
 20
345.786007
 30
0.0
 40
7.0
100
AcDbArc
 50
302.041548
 51
1.386103
  0
ARC
  5
67
100
AcDbEntity
  8
0
100
AcDbCircle
 10
295.676731
 20
444.063254
 30
0.0
 40
7.0
100
AcDbArc
 50
79.201922
 51
167.291469
  0
CIRCLE
  5
68
100
AcDbEntity
  8
0
100
AcDbCircle
 10
270.0
 20
310.0
 30
0.0
 40
157.5
  0
LINE
  5
69
100
AcDbEntity
  8
1
100
AcDbLine
 10
299.888637
 20
448.0
 30
0.0
 11
240.111363
 21
448.0
 31
0.0
  0
TEXT
  5
6A
100
AcDbEntity
  8
4
100
AcDbText
 10
544.879071
 20
220.330364
 30
0.0
 40
6.4
  1
                
100
AcDbText
  0
LINE
  5
6B
100
AcDbEntity
  8
1
100
AcDbLine
 10
452.5
 20
310.0
 30
0.0
 11
87.5
 21
310.0
 31
0.0
  0
LINE
  5
6C
100
AcDbEntity
  8
1
100
AcDbLine
 10
270.0
 20
492.5
 30
0.0
 11
270.0
 21
127.5
 31
0.0
  0
CIRCLE
  5
73
100
AcDbEntity
  8
0
100
AcDbCircle
 10
269.994975
 20
309.874924
 30
0.0
 40
28.5
  0
ARC
  5
74
100
AcDbEntity
  8
0
100
AcDbCircle
 10
364.131093
 20
239.053495
 30
0.0
 40
15.971452
100
AcDbArc
 50
282.787472
 51
2.915248
  0
ARC
  5
75
100
AcDbEntity
  8
0
100
AcDbCircle
 10
378.686134
 20
260.938394
 30
0.0
 40
14.880349
100
AcDbArc
 50
294.120363
 51
19.280758
  0
ARC
  5
76
100
AcDbEntity
  8
0
100
AcDbCircle
 10
384.606993
 20
288.061168
 30
0.0
 40
17.022564
100
AcDbArc
 50
311.010886
 51
27.107765
  0
ARC
  5
77
100
AcDbEntity
  8
0
100
AcDbCircle
 10
388.242844
 20
313.1604
 30
0.0
 40
15.264968
100
AcDbArc
 50
323.177715
 51
42.344053
  0
ARC
  5
78
100
AcDbEntity
  8
0
100
AcDbCircle
 10
366.474882
 20
377.118793
 30
0.0
 40
15.958511
100
AcDbArc
 50
358.084139
 51
74.604648
  0
ARC
  5
79
100
AcDbEntity
  8
0
100
AcDbCircle
 10
349.628737
 20
397.342335
 30
0.0
 40
15.531542
100
AcDbArc
 50
5.480109
 51
89.137817
  0
ARC
  5
7A
100
AcDbEntity
  8
0
100
AcDbCircle
 10
326.453124
 20
411.289008
 30
0.0
 40
17.371591
100
AcDbArc
 50
23.64649
 51
96.248275
  0
ARC
  5
7B
100
AcDbEntity
  8
0
100
AcDbCircle
 10
302.30874
 20
421.470365
 30
0.0
 40
17.463021
100
AcDbArc
 50
36.40683
 51
109.597877
  0
ARC
  5
7C
100
AcDbEntity
  8
0
100
AcDbCircle
 10
236.363869
 20
419.843224
 30
0.0
 40
18.674295
100
AcDbArc
 50
72.854753
 51
142.804184
  0
ARC
  5
7D
100
AcDbEntity
  8
0
100
AcDbCircle
 10
212.117083
 20
410.996323
 30
0.0
 40
17.195399
100
AcDbArc
 50
83.739862
 51
155.882543
  0
ARC
  5
7E
100
AcDbEntity
  8
0
100
AcDbCircle
 10
191.43393
 20
395.022202
 30
0.0
 40
17.733425
100
AcDbArc
 50
96.602596
 51
170.696167
  0
ARC
  5
7F
100
AcDbEntity
  8
0
100
AcDbCircle
 10
173.754951
 20
375.933564
 30
0.0
 40
16.92447
100
AcDbArc
 50
107.925861
 51
180.963967
  0
ARC
  5
80
100
AcDbEntity
  8
0
100
AcDbCircle
 10
153.658802
 20
311.919927
 30
0.0
 40
17.717178
100
AcDbArc
 50
139.430738
 51
218.180745
  0
ARC
  5
81
100
AcDbEntity
  8
0
100
AcDbCircle
 10
156.099357
 20
286.832331
 30
0.0
 40
17.514224
100
AcDbArc
 50
155.198949
 51
229.183562
  0
ARC
  5
82
100
AcDbEntity
  8
0
100
AcDbCircle
 10
164.500342
 20
261.754618
 30
0.0
 40
17.69884
100
AcDbArc
 50
167.392587
 51
240.039825
  0
ARC
  5
83
100
AcDbEntity
  8
0
100
AcDbCircle
 10
177.215165
 20
237.991093
 30
0.0
 40
16.635816
100
AcDbArc
 50
179.187412
 51
256.143436
  0
ARC
  5
84
100
AcDbEntity
  8
0
100
AcDbCircle
 10
231.444425
 20
198.717521
 30
0.0
 40
16.303511
100
AcDbArc
 50
214.290028
 51
287.994488
  0
ARC
  5
85
100
AcDbEntity
  8
0
100
AcDbCircle
 10
257.630304
 20
195.009933
 30
0.0
 40
18.199509
100
AcDbArc
 50
228.693747
 51
299.892363
  0
ARC
  5
86
100
AcDbEntity
  8
0
100
AcDbCircle
 10
283.268239
 20
192.95667
 30
0.0
 40
16.389104
100
AcDbArc
 50
235.402875
 51
317.131296
  0
ARC
  5
87
100
AcDbEntity
  8
0
100
AcDbCircle
 10
307.921404
 20
200.530617
 30
0.0
 40
18.001905
100
AcDbArc
 50
254.169451
 51
325.114886
  0
LINE
  5
88
100
AcDbEntity
  8
0
100
AcDbLine
 10
362.304152
 20
219.171604
 30
0.0
 11
367.682615
 21
223.428323
 31
0.0
  0
LINE
  5
89
100
AcDbEntity
  8
0
100
AcDbLine
 10
380.06392
 20
239.769802
 30
0.0
 11
384.756538
 21
247.345319
 31
0.0
  0
LINE
  5
8A
100
AcDbEntity
  8
0
100
AcDbLine
 10
392.733989
 20
265.742993
 30
0.0
 11
395.766138
 21
275.230424
 31
0.0
  0
LINE
  5
8B
100
AcDbEntity
  8
0
100
AcDbLine
 10
399.809018
 20
295.792544
 30
0.0
 11
400.458765
 21
304.05346
 31
0.0
  0
LINE
  5
8C
100
AcDbEntity
  8
0
100
AcDbLine
 10
399.556343
 20
323.352991
 30
0.0
 11
398.040265
 21
329.233035
 31
0.0
  0
LINE
  5
8D
100
AcDbEntity
  8
0
100
AcDbLine
 10
384.864831
 20
369.671859
 30
0.0
 11
382.374136
 21
376.634123
 31
0.0
  0
LINE
  5
8E
100
AcDbEntity
  8
0
100
AcDbLine
 10
370.786968
 20
392.470556
 30
0.0
 11
365.083627
 21
398.855631
 31
0.0
  0
LINE
  5
8F
100
AcDbEntity
  8
0
100
AcDbLine
 10
349.886758
 20
412.852302
 30
0.0
 11
342.414664
 21
418.263388
 31
0.0
  0
LINE
  5
90
100
AcDbEntity
  8
0
100
AcDbLine
 10
324.618799
 20
428.54444
 30
0.0
 11
316.352569
 21
431.791091
 31
0.0
  0
LINE
  5
91
100
AcDbEntity
  8
0
100
AcDbLine
 10
296.499171
 20
437.923651
 30
0.0
 11
291.301195
 21
437.707208
 31
0.0
  0
LINE
  5
92
100
AcDbEntity
  8
0
100
AcDbLine
 10
248.742736
 20
437.707203
 30
0.0
 11
241.848195
 21
437.67113
 31
0.0
  0
LINE
  5
93
100
AcDbEntity
  8
0
100
AcDbLine
 10
221.525537
 20
431.177833
 30
0.0
 11
213.945151
 21
428.039404
 31
0.0
  0
LINE
  5
94
100
AcDbEntity
  8
0
100
AcDbLine
 10
196.438082
 20
418.046931
 30
0.0
 11
189.363053
 21
412.563702
 31
0.0
  0
LINE
  5
95
100
AcDbEntity
  8
0
100
AcDbLine
 10
173.985704
 20
397.917696
 30
0.0
 11
168.462851
 21
392.001578
 31
0.0
  0
LINE
  5
96
100
AcDbEntity
  8
0
100
AcDbLine
 10
155.07084
 20
369.743986
 30
0.0
 11
156.875691
 21
375.768324
 31
0.0
  0
LINE
  5
97
100
AcDbEntity
  8
0
100
AcDbLine
 10
140.162751
 20
323.425113
 30
0.0
 11
141.931504
 21
329.23301
 31
0.0
  0
LINE
  5
98
100
AcDbEntity
  8
0
100
AcDbLine
 10
140.19884
 20
294.133114
 30
0.0
 11
139.693484
 21
300.987152
 31
0.0
  0
LINE
  5
99
100
AcDbEntity
  8
0
100
AcDbLine
 10
147.237772
 20
265.634742
 30
0.0
 11
144.602687
 21
273.679221
 31
0.0
  0
LINE
  5
9A
100
AcDbEntity
  8
0
100
AcDbLine
 10
160.593693
 20
238.182515
 30
0.0
 11
155.576197
 21
246.479511
 31
0.0
  0
LINE
  5
9B
100
AcDbEntity
  8
0
100
AcDbLine
 10
177.703706
 20
219.171574
 30
0.0
 11
173.227665
 21
221.841041
 31
0.0
  0
LINE
  5
9C
100
AcDbEntity
  8
0
100
AcDbLine
 10
217.988047
 20
189.48276
 30
0.0
 11
212.104219
 21
194.172368
 31
0.0
  0
LINE
  5
9D
100
AcDbEntity
  8
0
100
AcDbLine
 10
245.602318
 20
181.293986
 30
0.0
 11
236.361472
 21
183.205901
 31
0.0
  0
LINE
  5
9E
100
AcDbEntity
  8
0
100
AcDbLine
 10
273.974622
 20
179.418145
 30
0.0
 11
266.683016
 21
179.201698
 31
0.0
  0
LINE
  5
9F
100
AcDbEntity
  8
0
100
AcDbLine
 10
302.996664
 20
183.205901
 30
0.0
 11
295.163595
 21
181.72687
 31
0.0
  0
LINE
  5
A0
100
AcDbEntity
  8
0
100
AcDbLine
 10
322.633469
 20
190.16816
 30
0.0
 11
327.831452
 21
194.136284
 31
0.0
  0
LINE
  5
124
100
AcDbEntity
  8
1
100
AcDbLine
 10
730.342161
 20
310.0
 30
0.0
 11
543.811074
 21
310.0
 31
0.0
  0
LINE
  5
125
100
AcDbEntity
  8
0
100
AcDbLine
 10
693.5
 20
309.864606
 30
0.0
 11
693.5
 21
340.364606
 31
0.0
  0
LINE
  5
126
100
AcDbEntity
  8
5
100
AcDbLine
 10
670.5
 20
338.364606
 30
0.0
 11
670.5
 21
309.864606
 31
0.0
  0
LINE
  5
127
100
AcDbEntity
  8
0
100
AcDbLine
 10
715.5
 20
309.864606
 30
0.0
 11
715.5
 21
335.364606
 31
0.0
  0
LINE
  5
128
100
AcDbEntity
  8
0
100
AcDbLine
 10
674.5
 20
309.864606
 30
0.0
 11
674.5
 21
453.364606
 31
0.0
  0
LINE
  5
129
100
AcDbEntity
  8
0
100
AcDbLine
 10
645.5
 20
309.864606
 30
0.0
 11
645.5
 21
453.364606
 31
0.0
  0
LINE
  5
12A
100
AcDbEntity
  8
1
100
AcDbLine
 10
660.0
 20
470.864606
 30
0.0
 11
660.0
 21
307.864606
 31
0.0
  0
LINE
  5
12B
100
AcDbEntity
  8
1
100
AcDbLine
 10
659.984055
 20
309.78387
 30
0.0
 11
659.984055
 21
141.675108
 31
0.0
  0
LINE
  5
12C
100
AcDbEntity
  8
0
100
AcDbLine
 10
645.5
 20
310.135394
 30
0.0
 11
645.5
 21
166.635394
 31
0.0
  0
LINE
  5
12D
100
AcDbEntity
  8
0
100
AcDbLine
 10
674.5
 20
310.135394
 30
0.0
 11
674.5
 21
166.635394
 31
0.0
  0
ARC
  5
12E
100
AcDbEntity
  8
0
100
AcDbCircle
 10
660.0
 20
167.144323
 30
0.0
 40
14.508929
100
AcDbArc
 50
182.010172
 51
357.989828
  0
LINE
  5
12F
100
AcDbEntity
  8
0
100
AcDbLine
 10
712.5
 20
281.635394
 30
0.0
 11
693.5
 21
281.635394
 31
0.0
  0
LINE
  5
130
100
AcDbEntity
  8
5
100
AcDbLine
 10
670.5
 20
281.635394
 30
0.0
 11
670.5
 21
310.135394
 31
0.0
  0
LINE
  5
131
100
AcDbEntity
  8
0
100
AcDbLine
 10
693.5
 20
310.135394
 30
0.0
 11
693.5
 21
279.635394
 31
0.0
  0
LINE
  5
132
100
AcDbEntity
  8
5
100
AcDbLine
 10
670.5
 20
281.635394
 30
0.0
 11
673.0
 21
279.135394
 31
0.0
  0
LINE
  5
133
100
AcDbEntity
  8
0
100
AcDbLine
 10
715.5
 20
310.135394
 30
0.0
 11
715.5
 21
284.635394
 31
0.0
  0
ARC
  5
134
100
AcDbEntity
  8
0
100
AcDbCircle
 10
712.476513
 20
284.658881
 30
0.0
 40
3.023578
100
AcDbArc
 50
270.445072
 51
359.554928
  0
LINE
  5
135
100
AcDbEntity
  8
0
100
AcDbLine
 10
712.5
 20
338.364606
 30
0.0
 11
693.5
 21
338.364606
 31
0.0
  0
LINE
  5
136
100
AcDbEntity
  8
5
100
AcDbLine
 10
670.5
 20
338.364606
 30
0.0
 11
673.0
 21
340.864606
 31
0.0
  0
LINE
  5
137
100
AcDbEntity
  8
0
100
AcDbLine
 10
689.684046
 20
341.88037
 30
0.0
 11
689.658511
 21
341.888026
 31
0.0
  0
ARC
  5
138
100
AcDbEntity
  8
0
100
AcDbCircle
 10
712.476513
 20
335.341119
 30
0.0
 40
3.023578
100
AcDbArc
 50
0.445072
 51
89.554928
  0
ARC
  5
139
100
AcDbEntity
  8
0
100
AcDbCircle
 10
660.0
 20
452.855677
 30
0.0
 40
14.508929
100
AcDbArc
 50
2.010172
 51
177.989828
  0
LINE
  5
13A
100
AcDbEntity
  8
0
100
AcDbLine
 10
689.093747
 20
341.855889
 30
0.0
 11
674.656542
 21
399.567603
 31
0.0
  0
LINE
  5
13B
100
AcDbEntity
  8
0
100
AcDbLine
 10
687.39525
 20
273.111055
 30
0.0
 11
674.656542
 21
234.495128
 31
0.0
  0
LINE
  5
13C
100
AcDbEntity
  8
0
100
AcDbLine
 10
677.204283
 20
307.907822
 30
0.0
 11
674.656542
 21
310.87828
 31
0.0
  0
LINE
  5
13D
100
AcDbEntity
  8
0
100
AcDbLine
 10
687.39525
 20
334.217575
 30
0.0
 11
674.656542
 21
347.796804
 31
0.0
  0
ARC
  5
13E
100
AcDbEntity
  8
0
100
AcDbCircle
 10
658.180015
 20
324.533727
 30
0.0
 40
30.859866
100
AcDbArc
 50
359.622394
 51
18.250078
  0
ARC
  5
13F
100
AcDbEntity
  8
0
100
AcDbCircle
 10
596.052893
 20
318.996348
 30
0.0
 40
92.990373
100
AcDbArc
 50
354.505681
 51
3.201339
  0
ARC
  5
140
100
AcDbEntity
  8
0
100
AcDbCircle
 10
684.087109
 20
309.826936
 30
0.0
 40
4.536727
100
AcDbArc
 50
273.756595
 51
3.359523
  0
ARC
  5
141
100
AcDbEntity
  8
0
100
AcDbCircle
 10
682.829908
 20
312.170964
 30
0.0
 40
7.112219
100
AcDbArc
 50
217.54043
 51
284.964734
  0
LINE
  5
142
100
AcDbEntity
  8
0
100
AcDbLine
 10
674.683388
 20
347.76064
 30
0.0
 11
674.494147
 21
348.003786
 31
0.0
  0
ARC
  5
143
100
AcDbEntity
  8
0
100
AcDbCircle
 10
681.913858
 20
340.958161
 30
0.0
 40
7.23275
100
AcDbArc
 50
332.60007
 51
7.03619
  0
ARC
  5
144
100
AcDbEntity
  8
0
100
AcDbCircle
 10
685.874364
 20
340.894633
 30
0.0
 40
4.072285
100
AcDbArc
 50
256.967396
 51
306.701987
  0
ARC
  5
145
100
AcDbEntity
  8
0
100
AcDbCircle
 10
683.106378
 20
325.339477
 30
0.0
 40
18.329355
100
AcDbArc
 50
55.720027
 51
71.731998
  0
LINE
  5
146
100
AcDbEntity
  8
0
100
AcDbLine
 10
693.430249
 20
340.485763
 30
0.0
 11
693.50061
 21
340.435799
 31
0.0
  0
LINE
  5
147
100
AcDbEntity
  8
0
100
AcDbLine
 10
693.50061
 20
340.435799
 30
0.0
 11
693.50061
 21
340.346983
 31
0.0
  0
LINE
  5
148
100
AcDbEntity
  8
0
100
AcDbLine
 10
674.507538
 20
278.374061
 30
0.0
 11
676.633775
 21
286.406078
 31
0.0
  0
ARC
  5
149
100
AcDbEntity
  8
0
100
AcDbCircle
 10
684.79133
 20
285.068435
 30
0.0
 40
8.266499
100
AcDbArc
 50
105.463733
 51
170.687739
  0
ARC
  5
14A
100
AcDbEntity
  8
0
100
AcDbCircle
 10
684.039291
 20
286.273909
 30
0.0
 40
6.957481
100
AcDbArc
 50
57.522183
 51
102.046331
  0
ARC
  5
14B
100
AcDbEntity
  8
0
100
AcDbCircle
 10
683.049539
 20
287.593567
 30
0.0
 40
6.528699
100
AcDbArc
 50
4.127533
 51
44.698935
  0
ARC
  5
14C
100
AcDbEntity
  8
0
100
AcDbCircle
 10
654.565158
 20
284.833674
 30
0.0
 40
35.148802
100
AcDbArc
 50
347.500918
 51
5.341895
  0
LINE
  5
14D
100
AcDbEntity
  8
0
100
AcDbLine
 10
687.307492
 20
272.891888
 30
0.0
 11
688.880915
 21
277.311627
 31
0.0
  0
ARC
  5
14E
100
AcDbEntity
  8
0
100
AcDbCircle
 10
683.240673
 20
289.766062
 30
0.0
 40
14.351423
100
AcDbArc
 50
292.293582
 51
315.935619
  0
LINE
  5
15B
100
AcDbEntity
  8
1
100
AcDbLine
 10
543.0
 20
447.778991
 30
0.0
 11
688.5
 21
447.778991
 31
0.0
  0
CIRCLE
  5
1FD
100
AcDbEntity
  8
0
100
AcDbCircle
 10
270.0
 20
448.0
 30
0.0
 40
10.0
  0
CIRCLE
  5
1FE
100
AcDbEntity
  8
0
100
AcDbCircle
 10
270.0
 20
448.0
 30
0.0
 40
6.0
  0
CIRCLE
  5
1FF
100
AcDbEntity
  8
0
100
AcDbCircle
 10
270.0
 20
448.0
 30
0.0
 40
5.0
  0
ENDSEC
  0
SECTION
  2
OBJECTS
  0
DICTIONARY
  5
1D4
100
AcDbDictionary
  3
ACAD_GROUP
350
1D5
  3
ACAD_MLINESTYLE
350
1E2
  3
ACDBVARIABLEDICTIONARY
350
1F8
  0
DICTIONARY
  5
1D5
102
{ACAD_REACTORS
330
1D4
102
}
100
AcDbDictionary
  0
DICTIONARY
  5
1E2
102
{ACAD_REACTORS
330
1D4
102
}
100
AcDbDictionary
  3
STANDARD
350
1E3
  0
DICTIONARY
  5
1F8
102
{ACAD_REACTORS
330
1D4
102
}
100
AcDbDictionary
  3
DIMADEC
350
1F9
  0
MLINESTYLE
  5
1E3
102
{ACAD_REACTORS
330
1E2
102
}
100
AcDbMlineStyle
  2
STANDARD
 70
     0
  3

 62
   256
 51
90.0
 52
90.0
 71
     2
 49
0.5
 62
   256
  6
BYLAYER
 49
-0.5
 62
   256
  6
BYLAYER
  0
DICTIONARYVAR
  5
1F9
102
{ACAD_REACTORS
330
1F8
102
}
100
DictionaryVariables
280
     0
  1
0
  0
ENDSEC
  0
EOF
