  0
SECTION
  2
HEADER
  9
$ACADVER
  1
AC1014
  9
$ACADMAINTVER
 70
     0
  9
$DWGCODEPAGE
  3
ANSI_932
  9
$INSBASE
 10
0.0
 20
0.0
 30
0.0
  9
$EXTMIN
 10
50.0
 20
80.0
 30
0.0
  9
$EXTMAX
 10
595.5
 20
400.0
 30
0.0
  9
$LIMMIN
 10
0.0
 20
0.0
  9
$LIMMAX
 10
680.0
 20
470.0
  9
$ORTHOMODE
 70
     1
  9
$REGENMODE
 70
     1
  9
$FILLMODE
 70
     1
  9
$QTEXTMODE
 70
     0
  9
$MIRRTEXT
 70
     1
  9
$DRAGMODE
 70
     1
  9
$LTSCALE
 40
40.0
  9
$OSMODE
 70
    33
  9
$ATTMODE
 70
     1
  9
$TEXTSIZE
 40
25.0
  9
$TRACEWID
 40
0.05
  9
$TEXTSTYLE
  7
BIGFONT
  9
$CLAYER
  8
0
  9
$CELTYPE
  6
BYLAYER
  9
$CECOLOR
 62
   256
  9
$CELTSCALE
 40
1.0
  9
$DELOBJ
 70
     1
  9
$DISPSILH
 70
     0
  9
$DIMSCALE
 40
4.0
  9
$DIMASZ
 40
3.0
  9
$DIMEXO
 40
2.0
  9
$DIMDLI
 40
0.38
  9
$DIMRND
 40
0.0
  9
$DIMDLE
 40
0.0
  9
$DIMEXE
 40
2.0
  9
$DIMTP
 40
0.0
  9
$DIMTM
 40
0.0
  9
$DIMTXT
 40
3.2
  9
$DIMCEN
 40
0.09
  9
$DIMTSZ
 40
0.0
  9
$DIMTOL
 70
     0
  9
$DIMLIM
 70
     0
  9
$DIMTIH
 70
     0
  9
$DIMTOH
 70
     0
  9
$DIMSE1
 70
     0
  9
$DIMSE2
 70
     0
  9
$DIMTAD
 70
     1
  9
$DIMZIN
 70
     0
  9
$DIMBLK
  1

  9
$DIMASO
 70
     0
  9
$DIMSHO
 70
     0
  9
$DIMPOST
  1

  9
$DIMAPOST
  1

  9
$DIMALT
 70
     0
  9
$DIMALTD
 70
     2
  9
$DIMALTF
 40
25.4
  9
$DIMLFAC
 40
1.0
  9
$DIMTOFL
 70
     0
  9
$DIMTVP
 40
1.6
  9
$DIMTIX
 70
     1
  9
$DIMSOXD
 70
     0
  9
$DIMSAH
 70
     0
  9
$DIMBLK1
  1

  9
$DIMBLK2
  1

  9
$DIMSTYLE
  2
STANDARD
  9
$DIMCLRD
 70
     0
  9
$DIMCLRE
 70
     0
  9
$DIMCLRT
 70
     0
  9
$DIMTFAC
 40
1.0
  9
$DIMGAP
 40
0.09
  9
$DIMJUST
 70
     0
  9
$DIMSD1
 70
     0
  9
$DIMSD2
 70
     0
  9
$DIMTOLJ
 70
     1
  9
$DIMTZIN
 70
     0
  9
$DIMALTZ
 70
     0
  9
$DIMALTTZ
 70
     0
  9
$DIMFIT
 70
     5
  9
$DIMUPT
 70
     0
  9
$DIMUNIT
 70
     2
  9
$DIMDEC
 70
     4
  9
$DIMTDEC
 70
     4
  9
$DIMALTU
 70
     2
  9
$DIMALTTD
 70
     2
  9
$DIMTXSTY
  7
BIGFONT
  9
$DIMAUNIT
 70
     0
  9
$LUNITS
 70
     2
  9
$LUPREC
 70
     4
  9
$SKETCHINC
 40
0.1
  9
$FILLETRAD
 40
0.0
  9
$AUNITS
 70
     0
  9
$AUPREC
 70
     0
  9
$MENU
  1
ACAD
  9
$ELEVATION
 40
0.0
  9
$PELEVATION
 40
0.0
  9
$THICKNESS
 40
0.0
  9
$LIMCHECK
 70
     0
  9
$BLIPMODE
 70
     0
  9
$CHAMFERA
 40
0.0
  9
$CHAMFERB
 40
0.0
  9
$CHAMFERC
 40
0.0
  9
$CHAMFERD
 40
0.0
  9
$SKPOLY
 70
     0
  9
$TDCREATE
 40
2450863.972201504
  9
$TDUPDATE
 40
2453551.650681423
  9
$TDINDWG
 40
0.0004891898
  9
$TDUSRTIMER
 40
0.0004891898
  9
$USRTIMER
 70
     1
  9
$ANGBASE
 50
0.0
  9
$ANGDIR
 70
     0
  9
$PDMODE
 70
     0
  9
$PDSIZE
 40
0.0
  9
$PLINEWID
 40
0.0
  9
$COORDS
 70
     2
  9
$SPLFRAME
 70
     0
  9
$SPLINETYPE
 70
     6
  9
$SPLINESEGS
 70
     8
  9
$ATTDIA
 70
     0
  9
$ATTREQ
 70
     1
  9
$HANDLING
 70
     1
  9
$HANDSEED
  5
221
  9
$SURFTAB1
 70
     6
  9
$SURFTAB2
 70
     6
  9
$SURFTYPE
 70
     6
  9
$SURFU
 70
     6
  9
$SURFV
 70
     6
  9
$UCSNAME
  2

  9
$UCSORG
 10
0.0
 20
0.0
 30
0.0
  9
$UCSXDIR
 10
1.0
 20
0.0
 30
0.0
  9
$UCSYDIR
 10
0.0
 20
1.0
 30
0.0
  9
$PUCSNAME
  2

  9
$PUCSORG
 10
0.0
 20
0.0
 30
0.0
  9
$PUCSXDIR
 10
1.0
 20
0.0
 30
0.0
  9
$PUCSYDIR
 10
0.0
 20
1.0
 30
0.0
  9
$USERI1
 70
     0
  9
$USERI2
 70
     0
  9
$USERI3
 70
     0
  9
$USERI4
 70
     0
  9
$USERI5
 70
     0
  9
$USERR1
 40
0.0
  9
$USERR2
 40
0.0
  9
$USERR3
 40
0.0
  9
$USERR4
 40
0.0
  9
$USERR5
 40
0.0
  9
$WORLDVIEW
 70
     1
  9
$SHADEDGE
 70
     3
  9
$SHADEDIF
 70
    70
  9
$TILEMODE
 70
     1
  9
$MAXACTVP
 70
    16
  9
$PINSBASE
 10
0.0
 20
0.0
 30
0.0
  9
$PLIMCHECK
 70
     0
  9
$PEXTMIN
 10
1.000000E+20
 20
1.000000E+20
 30
1.000000E+20
  9
$PEXTMAX
 10
-1.000000E+20
 20
-1.000000E+20
 30
-1.000000E+20
  9
$PLIMMIN
 10
0.0
 20
0.0
  9
$PLIMMAX
 10
12.0
 20
9.0
  9
$UNITMODE
 70
     0
  9
$VISRETAIN
 70
     0
  9
$PLINEGEN
 70
   256
  9
$PSLTSCALE
 70
     0
  9
$TREEDEPTH
 70
  3020
  9
$PICKSTYLE
 70
     1
  9
$CMLSTYLE
  2
STANDARD
  9
$CMLJUST
 70
     0
  9
$CMLSCALE
 40
1.0
  9
$PROXYGRAPHICS
 70
     1
  9
$MEASUREMENT
 70
     0
  0
ENDSEC
  0
SECTION
  2
CLASSES
  0
CLASS
  1
DICTIONARYVAR
  2
AcDbDictionaryVar
  3
"AutoCAD"
 90
        0
280
     0
281
     0
  0
ENDSEC
  0
SECTION
  2
TABLES
  0
TABLE
  2
VPORT
  5
1F1
100
AcDbSymbolTable
 70
     3
  0
VPORT
  5
220
100
AcDbSymbolTableRecord
100
AcDbViewportTableRecord
  2
*ACTIVE
 70
     0
 10
0.0
 20
0.0
 11
1.0
 21
1.0
 12
416.801181
 22
290.465072
 13
0.0
 23
0.0
 14
5.0
 24
5.0
 15
10.0
 25
10.0
 16
0.0
 26
0.0
 36
1.0
 17
0.0
 27
0.0
 37
0.0
 40
580.930144
 41
1.434944
 42
50.0
 43
0.0
 44
0.0
 50
0.0
 51
0.0
 71
     0
 72
   500
 73
     1
 74
     1
 75
     0
 76
     0
 77
     0
 78
     1
  0
ENDTAB
  0
TABLE
  2
LTYPE
  5
1EE
100
AcDbSymbolTable
 70
     3
  0
LTYPE
  5
1FA
100
AcDbSymbolTableRecord
100
AcDbLinetypeTableRecord
  2
BYBLOCK
 70
     0
  3

 72
    65
 73
     0
 40
0.0
  0
LTYPE
  5
1FB
100
AcDbSymbolTableRecord
100
AcDbLinetypeTableRecord
  2
BYLAYER
 70
     0
  3

 72
    65
 73
     0
 40
0.0
  0
LTYPE
  5
1FC
100
AcDbSymbolTableRecord
100
AcDbLinetypeTableRecord
  2
CONTINUOUS
 70
     0
  3
実線
 72
    65
 73
     0
 40
0.0
  0
LTYPE
  5
20A
100
AcDbSymbolTableRecord
100
AcDbLinetypeTableRecord
  2
CENTER
 70
     0
  3
____ _ ____ _ ____ _ ____ _ ____ _ ____ _ ____
 72
    65
 73
     4
 40
2.0
 49
1.25
 74
     0
 49
-0.25
 74
     0
 49
0.25
 74
     0
 49
-0.25
 74
     0
  0
LTYPE
  5
20B
100
AcDbSymbolTableRecord
100
AcDbLinetypeTableRecord
  2
TENSEN1
 70
     0
  3

 72
    65
 73
     2
 40
0.4
 49
0.3
 74
     0
 49
-0.1
 74
     0
  0
ENDTAB
  0
TABLE
  2
LAYER
  5
1EB
100
AcDbSymbolTable
 70
     5
  0
LAYER
  5
1F7
100
AcDbSymbolTableRecord
100
AcDbLayerTableRecord
  2
0
 70
     0
 62
     7
  6
CONTINUOUS
  0
LAYER
  5
210
100
AcDbSymbolTableRecord
100
AcDbLayerTableRecord
  2
1
 70
     0
 62
     1
  6
CENTER
  0
LAYER
  5
211
100
AcDbSymbolTableRecord
100
AcDbLayerTableRecord
  2
10
 70
     0
 62
     7
  6
CONTINUOUS
  0
LAYER
  5
212
100
AcDbSymbolTableRecord
100
AcDbLayerTableRecord
  2
11
 70
     0
 62
     3
  6
CONTINUOUS
  0
LAYER
  5
213
100
AcDbSymbolTableRecord
100
AcDbLayerTableRecord
  2
2
 70
     0
 62
     2
  6
TENSEN1
  0
ENDTAB
  0
TABLE
  2
STYLE
  5
1EC
100
AcDbSymbolTable
 70
     4
  0
STYLE
  5
1F8
100
AcDbSymbolTableRecord
100
AcDbTextStyleTableRecord
  2
STANDARD
 70
     0
 40
0.0
 41
1.0
 50
0.0
 71
     0
 42
0.2
  3
TXT
  4
BIGFONT
  0
STYLE
  5
207
100
AcDbSymbolTableRecord
100
AcDbTextStyleTableRecord
  2
K80
 70
     0
 40
0.0
 41
0.8
 50
0.0
 71
     0
 42
0.2
  3
TXT
  4
BIGFONT
  0
STYLE
  5
208
100
AcDbSymbolTableRecord
100
AcDbTextStyleTableRecord
  2
07500
 70
     0
 40
0.0
 41
0.75
 50
0.0
 71
     0
 42
0.2
  3
TXT
  4
BIGFONT
  0
STYLE
  5
209
100
AcDbSymbolTableRecord
100
AcDbTextStyleTableRecord
  2
BIGFONT
 70
     0
 40
25.0
 41
0.8
 50
0.0
 71
     0
 42
25.0
  3

  4
bigfont
  0
ENDTAB
  0
TABLE
  2
VIEW
  5
1EF
100
AcDbSymbolTable
 70
     1
  0
VIEW
  5
20C
100
AcDbSymbolTableRecord
100
AcDbViewTableRecord
  2
ALL
 70
     0
 40
1080.0
 10
883.966387
 20
540.0
 41
0.0
 11
0.0
 21
0.0
 31
1.0
 12
0.0
 22
0.0
 32
0.0
 42
0.0
 43
0.0
 44
0.0
 50
0.0
 71
     0
  0
ENDTAB
  0
TABLE
  2
UCS
  5
1F0
100
AcDbSymbolTable
 70
     0
  0
ENDTAB
  0
TABLE
  2
APPID
  5
1F2
100
AcDbSymbolTable
 70
     1
  0
APPID
  5
1F9
100
AcDbSymbolTableRecord
100
AcDbRegAppTableRecord
  2
ACAD
 70
     0
  0
ENDTAB
  0
TABLE
  2
DIMSTYLE
  5
1F3
100
AcDbSymbolTable
 70
     1
  0
DIMSTYLE
105
20F
100
AcDbSymbolTableRecord
100
AcDbDimStyleTableRecord
  2
STANDARD
 70
     0
  3

  4

  5

  6

  7

 40
1.0
 41
0.18
 42
0.0625
 43
0.38
 44
0.18
 45
0.0
 46
0.0
 47
0.0
 48
0.0
140
0.18
141
0.09
142
0.0
143
25.4
144
1.0
145
0.0
146
1.0
147
0.09
 71
     0
 72
     0
 73
     1
 74
     1
 75
     0
 76
     0
 77
     0
 78
     0
170
     0
171
     2
172
     0
173
     0
174
     0
175
     0
176
     0
177
     0
178
     0
270
     2
271
     4
272
     4
273
     2
274
     2
340
209
275
     0
280
     0
281
     0
282
     0
283
     1
284
     0
285
     0
286
     0
287
     5
288
     0
  0
ENDTAB
  0
TABLE
  2
BLOCK_RECORD
  5
1EA
100
AcDbSymbolTable
 70
     2
  0
BLOCK_RECORD
  5
200
100
AcDbSymbolTableRecord
100
AcDbBlockTableRecord
  2
*MODEL_SPACE
  0
BLOCK_RECORD
  5
1FD
100
AcDbSymbolTableRecord
100
AcDbBlockTableRecord
  2
*PAPER_SPACE
  0
BLOCK_RECORD
  5
205
100
AcDbSymbolTableRecord
100
AcDbBlockTableRecord
  2
WAKU
  0
BLOCK_RECORD
  5
206
100
AcDbSymbolTableRecord
100
AcDbBlockTableRecord
  2
QQ
  0
ENDTAB
  0
ENDSEC
  0
SECTION
  2
BLOCKS
  0
BLOCK
  5
216
100
AcDbEntity
  8
0
100
AcDbBlockBegin
  2
*MODEL_SPACE
 70
     0
 10
0.0
 20
0.0
 30
0.0
  3
*MODEL_SPACE
  1

  0
ENDBLK
  5
217
100
AcDbEntity
  8
0
100
AcDbBlockEnd
  0
BLOCK
  5
214
100
AcDbEntity
 67
     1
  8
0
100
AcDbBlockBegin
  2
*PAPER_SPACE
 70
     0
 10
0.0
 20
0.0
 30
0.0
  3
*PAPER_SPACE
  1

  0
ENDBLK
  5
215
100
AcDbEntity
 67
     1
  8
0
100
AcDbBlockEnd
  0
BLOCK
  5
2E
100
AcDbEntity
  8
0
100
AcDbBlockBegin
  2
WAKU
 70
     0
 10
549.0
 20
0.0
 30
0.0
  3
WAKU
  1

  0
LINE
  5
2F
100
AcDbEntity
  8
11
100
AcDbLine
 10
452.0
 20
12.0
 30
0.0
 11
549.0
 21
12.0
 31
0.0
  0
LINE
  5
30
100
AcDbEntity
  8
11
100
AcDbLine
 10
477.0
 20
0.0
 30
0.0
 11
477.0
 21
12.0
 31
0.0
  0
LINE
  5
31
100
AcDbEntity
  8
11
100
AcDbLine
 10
452.0
 20
12.0
 30
0.0
 11
452.0
 21
0.0
 31
0.0
  0
TEXT
  5
32
100
AcDbEntity
  8
11
100
AcDbText
 10
454.0
 20
8.5
 30
0.0
 40
2.5
  1
尺度
100
AcDbText
  0
TEXT
  5
33
100
AcDbEntity
  8
11
100
AcDbText
 10
479.0
 20
8.5
 30
0.0
 40
2.5
  1
図番
100
AcDbText
  0
ENDBLK
  5
34
100
AcDbEntity
  8
0
100
AcDbBlockEnd
  0
BLOCK
  5
35
100
AcDbEntity
  8
0
100
AcDbBlockBegin
  2
QQ
 70
     0
 10
270.0
 20
0.0
 30
0.0
  3
QQ
  1

  0
LINE
  5
36
100
AcDbEntity
  8
11
100
AcDbLine
 10
173.0
 20
36.0
 30
0.0
 11
270.0
 21
36.0
 31
0.0
  0
TEXT
  5
37
100
AcDbEntity
  8
11
100
AcDbText
 10
175.0
 20
32.5
 30
0.0
 40
2.5
  1
部品名称
100
AcDbText
  0
LINE
  5
38
100
AcDbEntity
  8
11
100
AcDbLine
 10
173.0
 20
36.0
 30
0.0
 11
173.0
 21
0.0
 31
0.0
  0
LINE
  5
39
100
AcDbEntity
  8
11
100
AcDbLine
 10
173.0
 20
24.0
 30
0.0
 11
270.0
 21
24.0
 31
0.0
  0
TEXT
  5
3A
100
AcDbEntity
  8
11
100
AcDbText
 10
175.0
 20
20.5
 30
0.0
 40
2.5
  1
品番
100
AcDbText
  0
LINE
  5
3B
100
AcDbEntity
  8
11
100
AcDbLine
 10
173.0
 20
12.0
 30
0.0
 11
270.0
 21
12.0
 31
0.0
  0
TEXT
  5
3C
100
AcDbEntity
  8
11
100
AcDbText
 10
175.0
 20
8.5
 30
0.0
 40
2.5
  1
尺度
100
AcDbText
  0
TEXT
  5
3D
100
AcDbEntity
  8
11
100
AcDbText
 10
200.0
 20
8.5
 30
0.0
 40
2.5
  1
図番
100
AcDbText
  0
LINE
  5
3E
100
AcDbEntity
  8
11
100
AcDbLine
 10
198.0
 20
0.0
 30
0.0
 11
198.0
 21
12.0
 31
0.0
  0
ENDBLK
  5
3F
100
AcDbEntity
  8
0
100
AcDbBlockEnd
  0
ENDSEC
  0
SECTION
  2
ENTITIES
  0
CIRCLE
  5
40
100
AcDbEntity
  8
0
100
AcDbCircle
 10
210.0
 20
240.0
 30
0.0
 40
140.0
  0
ARC
  5
41
100
AcDbEntity
  8
0
100
AcDbCircle
 10
190.00365
 20
271.723298
 30
0.0
 40
6.0
100
AcDbArc
 50
302.814188
 51
358.611335
  0
LINE
  5
42
100
AcDbEntity
  8
0
100
AcDbLine
 10
196.001888
 20
271.577892
 30
0.0
 11
197.818206
 21
346.501001
 31
0.0
  0
ARC
  5
43
100
AcDbEntity
  8
0
100
AcDbCircle
 10
191.815403
 20
346.458081
 30
0.0
 40
6.0
100
AcDbArc
 50
0.409665
 51
99.577456
  0
ARC
  5
44
100
AcDbEntity
  8
0
100
AcDbCircle
 10
210.0
 20
362.0
 30
0.0
 40
15.0
100
AcDbArc
 50
186.323062
 51
353.676938
  0
ARC
  5
45
100
AcDbEntity
  8
0
100
AcDbCircle
 10
186.008562
 20
268.820697
 30
0.0
 40
6.0
100
AcDbArc
 50
253.388665
 51
309.185812
  0
LINE
  5
46
100
AcDbEntity
  8
0
100
AcDbLine
 10
184.293295
 20
263.071101
 30
0.0
 11
112.47591
 21
284.496194
 31
0.0
  0
ARC
  5
47
100
AcDbEntity
  8
0
100
AcDbCircle
 10
114.371698
 20
290.191936
 30
0.0
 40
6.0
100
AcDbArc
 50
152.422544
 51
251.590335
  0
ARC
  5
48
100
AcDbEntity
  8
0
100
AcDbCircle
 10
210.0
 20
240.0
 30
0.0
 40
31.5
100
AcDbArc
 50
122.112446
 51
129.887554
  0
ARC
  5
49
100
AcDbEntity
  8
0
100
AcDbCircle
 10
210.0
 20
240.0
 30
0.0
 40
31.5
100
AcDbArc
 50
194.112446
 51
201.887554
  0
ARC
  5
4A
100
AcDbEntity
  8
0
100
AcDbCircle
 10
132.713862
 20
164.562242
 30
0.0
 40
6.0
100
AcDbArc
 50
224.422544
 51
323.590335
  0
LINE
  5
4B
100
AcDbEntity
  8
0
100
AcDbLine
 10
180.114271
 20
222.680832
 30
0.0
 11
137.545004
 21
160.999159
 31
0.0
  0
ARC
  5
4C
100
AcDbEntity
  8
0
100
AcDbCircle
 10
175.176127
 20
226.088872
 30
0.0
 40
6.0
100
AcDbArc
 50
325.388665
 51
21.185812
  0
ARC
  5
4D
100
AcDbEntity
  8
0
100
AcDbCircle
 10
103.132999
 20
255.602776
 30
0.0
 40
6.0
100
AcDbArc
 50
72.409665
 51
171.577456
  0
LINE
  5
4E
100
AcDbEntity
  8
0
100
AcDbLine
 10
175.641986
 20
236.44511
 30
0.0
 11
104.947147
 21
261.325045
 31
0.0
  0
ARC
  5
4F
100
AcDbEntity
  8
0
100
AcDbCircle
 10
173.650139
 20
230.78538
 30
0.0
 40
6.0
100
AcDbArc
 50
14.814188
 51
70.611335
  0
ARC
  5
50
100
AcDbEntity
  8
0
100
AcDbCircle
 10
210.0
 20
240.0
 30
0.0
 40
31.5
100
AcDbArc
 50
266.112446
 51
273.887554
  0
ARC
  5
51
100
AcDbEntity
  8
0
100
AcDbCircle
 10
257.862842
 20
143.184965
 30
0.0
 40
6.0
100
AcDbArc
 50
296.422544
 51
35.590335
  0
LINE
  5
52
100
AcDbEntity
  8
0
100
AcDbLine
 10
217.236309
 20
206.225065
 30
0.0
 11
262.74444
 21
146.678601
 31
0.0
  0
ARC
  5
53
100
AcDbEntity
  8
0
100
AcDbCircle
 10
212.4691
 20
202.581753
 30
0.0
 40
6.0
100
AcDbArc
 50
37.388665
 51
93.185812
  0
ARC
  5
54
100
AcDbEntity
  8
0
100
AcDbCircle
 10
162.137158
 20
143.184965
 30
0.0
 40
6.0
100
AcDbArc
 50
144.409665
 51
243.577456
  0
LINE
  5
55
100
AcDbEntity
  8
0
100
AcDbLine
 10
202.763691
 20
206.225065
 30
0.0
 11
157.25556
 21
146.678601
 31
0.0
  0
ARC
  5
56
100
AcDbEntity
  8
0
100
AcDbCircle
 10
207.5309
 20
202.581753
 30
0.0
 40
6.0
100
AcDbArc
 50
86.814188
 51
142.611335
  0
ARC
  5
57
100
AcDbEntity
  8
0
100
AcDbCircle
 10
210.0
 20
240.0
 30
0.0
 40
31.5
100
AcDbArc
 50
338.112446
 51
345.887554
  0
ARC
  5
58
100
AcDbEntity
  8
0
100
AcDbCircle
 10
316.867001
 20
255.602776
 30
0.0
 40
6.0
100
AcDbArc
 50
8.422544
 51
107.590335
  0
LINE
  5
59
100
AcDbEntity
  8
0
100
AcDbLine
 10
244.358014
 20
236.44511
 30
0.0
 11
315.052853
 21
261.325045
 31
0.0
  0
ARC
  5
5A
100
AcDbEntity
  8
0
100
AcDbCircle
 10
246.349861
 20
230.78538
 30
0.0
 40
6.0
100
AcDbArc
 50
109.388665
 51
165.185812
  0
ARC
  5
5B
100
AcDbEntity
  8
0
100
AcDbCircle
 10
287.286138
 20
164.562242
 30
0.0
 40
6.0
100
AcDbArc
 50
216.409665
 51
315.577456
  0
LINE
  5
5C
100
AcDbEntity
  8
0
100
AcDbLine
 10
239.885729
 20
222.680832
 30
0.0
 11
282.454996
 21
160.999159
 31
0.0
  0
ARC
  5
5D
100
AcDbEntity
  8
0
100
AcDbCircle
 10
244.823873
 20
226.088872
 30
0.0
 40
6.0
100
AcDbArc
 50
158.814188
 51
214.611335
  0
ARC
  5
5E
100
AcDbEntity
  8
0
100
AcDbCircle
 10
210.0
 20
240.0
 30
0.0
 40
31.5
100
AcDbArc
 50
50.112446
 51
57.887554
  0
ARC
  5
5F
100
AcDbEntity
  8
0
100
AcDbCircle
 10
228.184597
 20
346.458081
 30
0.0
 40
6.0
100
AcDbArc
 50
80.422544
 51
179.590335
  0
LINE
  5
60
100
AcDbEntity
  8
0
100
AcDbLine
 10
223.998112
 20
271.577892
 30
0.0
 11
222.181794
 21
346.501001
 31
0.0
  0
ARC
  5
61
100
AcDbEntity
  8
0
100
AcDbCircle
 10
229.99635
 20
271.723298
 30
0.0
 40
6.0
100
AcDbArc
 50
181.388665
 51
237.185812
  0
ARC
  5
62
100
AcDbEntity
  8
0
100
AcDbCircle
 10
305.628302
 20
290.191936
 30
0.0
 40
6.0
100
AcDbArc
 50
288.409665
 51
27.577456
  0
LINE
  5
63
100
AcDbEntity
  8
0
100
AcDbLine
 10
235.706705
 20
263.071101
 30
0.0
 11
307.52409
 21
284.496194
 31
0.0
  0
ARC
  5
64
100
AcDbEntity
  8
0
100
AcDbCircle
 10
233.991438
 20
268.820697
 30
0.0
 40
6.0
100
AcDbArc
 50
230.814188
 51
286.611335
  0
LINE
  5
65
100
AcDbEntity
  8
1
100
AcDbLine
 10
235.491565
 20
362.0
 30
0.0
 11
184.508435
 21
362.0
 31
0.0
  0
LINE
  5
66
100
AcDbEntity
  8
1
100
AcDbLine
 10
370.0
 20
240.0
 30
0.0
 11
50.0
 21
240.0
 31
0.0
  0
LINE
  5
67
100
AcDbEntity
  8
1
100
AcDbLine
 10
210.0
 20
400.0
 30
0.0
 11
210.0
 21
80.0
 31
0.0
  0
CIRCLE
  5
6E
100
AcDbEntity
  8
0
100
AcDbCircle
 10
210.03581
 20
240.069611
 30
0.0
 40
26.5
  0
ARC
  5
6F
100
AcDbEntity
  8
0
100
AcDbCircle
 10
230.361823
 20
359.345761
 30
0.0
 40
5.501828
100
AcDbArc
 50
84.011692
 51
171.031606
  0
ARC
  5
70
100
AcDbEntity
  8
0
100
AcDbCircle
 10
189.02567
 20
358.517599
 30
0.0
 40
6.323588
100
AcDbArc
 50
14.868424
 51
85.046273
  0
ARC
  5
71
100
AcDbEntity
  8
0
100
AcDbCircle
 10
210.03581
 20
240.069611
 30
0.0
 40
126.5
100
AcDbArc
 50
99.918896
 51
80.135691
  0
LINE
  5
72
100
AcDbEntity
  8
0
100
AcDbLine
 10
189.591489
 20
364.797812
 30
0.0
 11
188.23956
 21
364.6714
 31
0.0
  0
LINE
  5
73
100
AcDbEntity
  8
0
100
AcDbLine
 10
230.910275
 20
364.817908
 30
0.0
 11
231.722068
 21
364.692709
 31
0.0
  0
ARC
  5
74
100
AcDbEntity
  8
0
100
AcDbCircle
 10
292.425798
 20
176.096825
 30
0.0
 40
13.374965
100
AcDbArc
 50
284.273356
 51
2.509232
  0
ARC
  5
75
100
AcDbEntity
  8
0
100
AcDbCircle
 10
305.06332
 20
195.686296
 30
0.0
 40
12.828914
100
AcDbArc
 50
295.133453
 51
14.28266
  0
ARC
  5
76
100
AcDbEntity
  8
0
100
AcDbCircle
 10
312.44594
 20
218.847037
 30
0.0
 40
12.84003
100
AcDbArc
 50
309.289164
 51
25.152491
  0
ARC
  5
77
100
AcDbEntity
  8
0
100
AcDbCircle
 10
315.550167
 20
243.643703
 30
0.0
 40
11.810383
100
AcDbArc
 50
322.262361
 51
42.383657
  0
ARC
  5
78
100
AcDbEntity
  8
0
100
AcDbCircle
 10
298.865628
 20
298.918514
 30
0.0
 40
10.999023
100
AcDbArc
 50
349.791117
 51
78.471986
  0
ARC
  5
79
100
AcDbEntity
  8
0
100
AcDbCircle
 10
280.113602
 20
314.86362
 30
0.0
 40
14.65469
100
AcDbArc
 50
11.164204
 51
82.755522
  0
ARC
  5
7A
100
AcDbEntity
  8
0
100
AcDbCircle
 10
260.552051
 20
330.999668
 30
0.0
 40
13.303321
100
AcDbArc
 50
23.857707
 51
97.778695
  0
ARC
  5
7B
100
AcDbEntity
  8
0
100
AcDbCircle
 10
240.00298
 20
341.968154
 30
0.0
 40
11.337876
100
AcDbArc
 50
28.99994
 51
113.17336
  0
ARC
  5
7C
100
AcDbEntity
  8
0
100
AcDbCircle
 10
180.089835
 20
342.403612
 30
0.0
 40
11.135178
100
AcDbArc
 50
63.759576
 51
148.111777
  0
ARC
  5
7D
100
AcDbEntity
  8
0
100
AcDbCircle
 10
157.17909
 20
332.877252
 30
0.0
 40
10.94596
100
AcDbArc
 50
77.524767
 51
161.334549
  0
ARC
  5
7E
100
AcDbEntity
  8
0
100
AcDbCircle
 10
137.011271
 20
317.380203
 30
0.0
 40
11.620194
100
AcDbArc
 50
92.329817
 51
174.360287
  0
ARC
  5
7F
100
AcDbEntity
  8
0
100
AcDbCircle
 10
121.287043
 20
299.791778
 30
0.0
 40
10.693836
100
AcDbArc
 50
105.308227
 51
186.338167
  0
ARC
  5
80
100
AcDbEntity
  8
0
100
AcDbCircle
 10
103.340496
 20
244.070611
 30
0.0
 40
11.193727
100
AcDbArc
 50
136.256866
 51
218.968206
  0
ARC
  5
81
100
AcDbEntity
  8
0
100
AcDbCircle
 10
105.744942
 20
219.148463
 30
0.0
 40
11.695551
100
AcDbArc
 50
151.578802
 51
231.972462
  0
ARC
  5
82
100
AcDbEntity
  8
0
100
AcDbCircle
 10
111.070245
 20
195.514554
 30
0.0
 40
9.634679
100
AcDbArc
 50
159.737411
 51
248.745621
  0
ARC
  5
83
100
AcDbEntity
  8
0
100
AcDbCircle
 10
123.977428
 20
172.133429
 30
0.0
 40
8.998747
100
AcDbArc
 50
167.937911
 51
270.204413
  0
ARC
  5
84
100
AcDbEntity
  8
0
100
AcDbCircle
 10
173.921567
 20
140.118488
 30
0.0
 40
11.756024
100
AcDbArc
 50
209.121269
 51
292.605266
  0
ARC
  5
85
100
AcDbEntity
  8
0
100
AcDbCircle
 10
197.806077
 20
135.404125
 30
0.0
 40
12.820456
100
AcDbArc
 50
222.139385
 51
303.793699
  0
ARC
  5
86
100
AcDbEntity
  8
0
100
AcDbCircle
 10
221.991078
 20
136.042088
 30
0.0
 40
13.501247
100
AcDbArc
 50
236.761159
 51
314.376103
  0
ARC
  5
87
100
AcDbEntity
  8
0
100
AcDbCircle
 10
246.130181
 20
141.865153
 30
0.0
 40
13.224096
100
AcDbArc
 50
252.320593
 51
327.746197
  0
LINE
  5
88
100
AcDbEntity
  8
0
100
AcDbLine
 10
291.519279
 20
160.330194
 30
0.0
 11
295.77784
 21
163.132809
 31
0.0
  0
LINE
  5
89
100
AcDbEntity
  8
0
100
AcDbLine
 10
305.801035
 20
176.626884
 30
0.0
 11
310.578931
 21
184.100525
 31
0.0
  0
LINE
  5
8A
100
AcDbEntity
  8
0
100
AcDbLine
 10
317.486102
 20
198.736406
 30
0.0
 11
320.550188
 21
208.90886
 31
0.0
  0
LINE
  5
8B
100
AcDbEntity
  8
0
100
AcDbLine
 10
324.133608
 20
224.271339
 30
0.0
 11
324.912613
 21
236.467908
 31
0.0
  0
LINE
  5
8C
100
AcDbEntity
  8
0
100
AcDbLine
 10
324.341341
 20
251.518987
 30
0.0
 11
322.783332
 21
256.501412
 31
0.0
  0
LINE
  5
8D
100
AcDbEntity
  8
0
100
AcDbLine
 10
310.994396
 20
292.935408
 30
0.0
 11
309.644119
 21
296.931728
 31
0.0
  0
LINE
  5
8E
100
AcDbEntity
  8
0
100
AcDbLine
 10
301.17894
 20
309.647295
 30
0.0
 11
294.479502
 21
317.74374
 31
0.0
  0
LINE
  5
8F
100
AcDbEntity
  8
0
100
AcDbLine
 10
282.119294
 20
329.369404
 30
0.0
 11
272.719303
 21
336.324038
 31
0.0
  0
LINE
  5
90
100
AcDbEntity
  8
0
100
AcDbLine
 10
258.853018
 20
344.160981
 30
0.0
 11
249.868498
 21
347.482598
 31
0.0
  0
LINE
  5
91
100
AcDbEntity
  8
0
100
AcDbLine
 10
235.534816
 20
352.465024
 30
0.0
 11
229.198911
 21
352.309324
 31
0.0
  0
LINE
  5
92
100
AcDbEntity
  8
0
100
AcDbLine
 10
190.923812
 20
352.309324
 30
0.0
 11
185.003378
 21
352.361227
 31
0.0
  0
LINE
  5
93
100
AcDbEntity
  8
0
100
AcDbLine
 10
170.669697
 20
348.313005
 30
0.0
 11
159.503964
 21
343.641983
 31
0.0
  0
LINE
  5
94
100
AcDbEntity
  8
0
100
AcDbLine
 10
146.832155
 20
336.479746
 30
0.0
 11
136.497365
 21
328.954203
 31
0.0
  0
LINE
  5
95
100
AcDbEntity
  8
0
100
AcDbLine
 10
125.383564
 20
318.626049
 30
0.0
 11
118.528325
 21
310.114403
 31
0.0
  0
LINE
  5
96
100
AcDbEntity
  8
0
100
AcDbLine
 10
110.58248
 20
298.696342
 30
0.0
 11
109.076402
 21
292.987311
 31
0.0
  0
LINE
  5
97
100
AcDbEntity
  8
0
100
AcDbLine
 10
97.183604
 20
256.553319
 30
0.0
 11
95.262061
 21
251.778496
 31
0.0
  0
LINE
  5
98
100
AcDbEntity
  8
0
100
AcDbLine
 10
94.638851
 20
237.038817
 30
0.0
 11
95.469787
 21
224.738451
 31
0.0
  0
LINE
  5
99
100
AcDbEntity
  8
0
100
AcDbLine
 10
98.533867
 20
209.946869
 30
0.0
 11
102.013425
 21
198.788309
 31
0.0
  0
LINE
  5
9A
100
AcDbEntity
  8
0
100
AcDbLine
 10
107.466456
 20
186.591744
 30
0.0
 11
115.204562
 21
174.031876
 31
0.0
  0
LINE
  5
9B
100
AcDbEntity
  8
0
100
AcDbLine
 10
123.98135
 20
163.080918
 30
0.0
 11
128.499575
 21
160.330202
 31
0.0
  0
LINE
  5
9C
100
AcDbEntity
  8
0
100
AcDbLine
 10
163.710582
 20
134.276263
 30
0.0
 11
159.45202
 21
137.857381
 31
0.0
  0
LINE
  5
9D
100
AcDbEntity
  8
0
100
AcDbLine
 10
188.27519
 20
126.750724
 30
0.0
 11
178.355865
 21
129.241939
 31
0.0
  0
LINE
  5
9E
100
AcDbEntity
  8
0
100
AcDbLine
 10
214.657478
 20
124.726617
 30
0.0
 11
204.893954
 21
124.674718
 31
0.0
  0
LINE
  5
9F
100
AcDbEntity
  8
0
100
AcDbLine
 10
231.328173
 20
126.283624
 30
0.0
 11
242.130366
 21
129.19004
 31
0.0
  0
LINE
  5
A0
100
AcDbEntity
  8
0
100
AcDbLine
 10
257.243058
 20
134.691468
 30
0.0
 11
260.462945
 21
137.805487
 31
0.0
  0
LINE
  5
133
100
AcDbEntity
  8
0
100
AcDbLine
 10
584.496098
 20
239.931504
 30
0.0
 11
584.496098
 21
263.431504
 31
0.0
  0
ARC
  5
134
100
AcDbEntity
  8
0
100
AcDbCircle
 10
581.473396
 20
263.408802
 30
0.0
 40
3.022787
100
AcDbArc
 50
0.430311
 51
89.569689
  0
LINE
  5
135
100
AcDbEntity
  8
0
100
AcDbLine
 10
581.5
 20
266.5
 30
0.0
 11
565.5
 21
266.5
 31
0.0
  0
LINE
  5
136
100
AcDbEntity
  8
2
100
AcDbLine
 10
539.5
 20
266.5
 30
0.0
 11
540.5
 21
267.5
 31
0.0
  0
LINE
  5
137
100
AcDbEntity
  8
2
100
AcDbLine
 10
540.5
 20
267.5
 30
0.0
 11
543.504162
 21
268.626561
 31
0.0
  0
ARC
  5
138
100
AcDbEntity
  8
0
100
AcDbCircle
 10
553.241803
 20
231.577869
 30
0.0
 40
38.429611
100
AcDbArc
 50
71.398876
 51
77.37161
  0
LINE
  5
139
100
AcDbEntity
  8
0
100
AcDbLine
 10
565.5
 20
240.0
 30
0.0
 11
565.5
 21
268.0
 31
0.0
  0
LINE
  5
13A
100
AcDbEntity
  8
0
100
AcDbLine
 10
516.5
 20
240.0
 30
0.0
 11
516.5
 21
366.5
 31
0.0
  0
LINE
  5
13B
100
AcDbEntity
  8
0
100
AcDbLine
 10
543.5
 20
240.0
 30
0.0
 11
543.5
 21
366.5
 31
0.0
  0
LINE
  5
13C
100
AcDbEntity
  8
1
100
AcDbLine
 10
530.0
 20
240.0
 30
0.0
 11
530.0
 21
384.5
 31
0.0
  0
ARC
  5
13D
100
AcDbEntity
  8
0
100
AcDbCircle
 10
530.0
 20
366.5
 30
0.0
 40
13.5
100
AcDbArc
 50
0.0
 51
180.0
  0
LINE
  5
13E
100
AcDbEntity
  8
2
100
AcDbLine
 10
539.5
 20
266.5
 30
0.0
 11
539.5
 21
240.0
 31
0.0
  0
LINE
  5
13F
100
AcDbEntity
  8
2
100
AcDbLine
 10
539.5
 20
213.5
 30
0.0
 11
539.5
 21
240.0
 31
0.0
  0
LINE
  5
140
100
AcDbEntity
  8
1
100
AcDbLine
 10
530.0
 20
240.0
 30
0.0
 11
530.0
 21
95.5
 31
0.0
  0
LINE
  5
141
100
AcDbEntity
  8
0
100
AcDbLine
 10
543.5
 20
240.0
 30
0.0
 11
543.5
 21
113.5
 31
0.0
  0
LINE
  5
142
100
AcDbEntity
  8
0
100
AcDbLine
 10
516.5
 20
240.0
 30
0.0
 11
516.5
 21
113.5
 31
0.0
  0
LINE
  5
143
100
AcDbEntity
  8
0
100
AcDbLine
 10
565.5
 20
240.0
 30
0.0
 11
565.5
 21
212.0
 31
0.0
  0
LINE
  5
144
100
AcDbEntity
  8
0
100
AcDbLine
 10
584.496098
 20
240.068496
 30
0.0
 11
584.496098
 21
216.568496
 31
0.0
  0
LINE
  5
145
100
AcDbEntity
  8
2
100
AcDbLine
 10
540.5
 20
212.5
 30
0.0
 11
543.500348
 21
211.37487
 31
0.0
  0
LINE
  5
146
100
AcDbEntity
  8
2
100
AcDbLine
 10
539.5
 20
213.5
 30
0.0
 11
540.5
 21
212.5
 31
0.0
  0
LINE
  5
147
100
AcDbEntity
  8
0
100
AcDbLine
 10
581.5
 20
213.5
 30
0.0
 11
565.5
 21
213.5
 31
0.0
  0
ARC
  5
148
100
AcDbEntity
  8
0
100
AcDbCircle
 10
581.473396
 20
216.591198
 30
0.0
 40
3.022787
100
AcDbArc
 50
270.430311
 51
359.569689
  0
ARC
  5
149
100
AcDbEntity
  8
0
100
AcDbCircle
 10
530.0
 20
113.5
 30
0.0
 40
13.5
100
AcDbArc
 50
180.0
 51
0.0
  0
LINE
  5
14A
100
AcDbEntity
  8
1
100
AcDbLine
 10
595.5
 20
240.0
 30
0.0
 11
503.0
 21
240.0
 31
0.0
  0
LINE
  5
14B
100
AcDbEntity
  8
0
100
AcDbLine
 10
561.5
 20
269.5
 30
0.0
 11
543.0
 21
327.5
 31
0.0
  0
LINE
  5
14C
100
AcDbEntity
  8
0
100
AcDbLine
 10
559.5
 20
262.5
 30
0.0
 11
543.505073
 21
278.494927
 31
0.0
  0
LINE
  5
14D
100
AcDbEntity
  8
0
100
AcDbLine
 10
549.5
 20
225.0
 30
0.0
 11
543.493901
 21
209.753748
 31
0.0
  0
LINE
  5
14E
100
AcDbEntity
  8
0
100
AcDbLine
 10
559.5
 20
207.5
 30
0.0
 11
543.0
 21
163.0
 31
0.0
  0
LINE
  5
14F
100
AcDbEntity
  8
0
100
AcDbLine
 10
561.504855
 20
269.501525
 30
0.0
 11
561.660025
 21
269.036328
 31
0.0
  0
ARC
  5
150
100
AcDbEntity
  8
0
100
AcDbCircle
 10
557.602342
 20
268.59977
 30
0.0
 40
4.0811
100
AcDbArc
 50
302.548505
 51
6.140714
  0
ARC
  5
151
100
AcDbEntity
  8
0
100
AcDbCircle
 10
557.432776
 20
268.494149
 30
0.0
 40
4.091998
100
AcDbArc
 50
272.140767
 51
305.517773
  0
ARC
  5
152
100
AcDbEntity
  8
0
100
AcDbCircle
 10
554.131886
 20
246.786545
 30
0.0
 40
11.686295
100
AcDbArc
 50
204.517961
 51
235.129351
  0
ARC
  5
153
100
AcDbEntity
  8
0
100
AcDbCircle
 10
554.852568
 20
250.825812
 30
0.0
 40
15.507787
100
AcDbArc
 50
241.490078
 51
270.319366
  0
ARC
  5
154
100
AcDbEntity
  8
0
100
AcDbCircle
 10
555.860279
 20
241.052934
 30
0.0
 40
5.808198
100
AcDbArc
 50
260.873448
 51
321.335622
  0
ARC
  5
155
100
AcDbEntity
  8
0
100
AcDbCircle
 10
546.010728
 20
244.774701
 30
0.0
 40
16.163748
100
AcDbArc
 50
332.882574
 51
1.674327
  0
ARC
  5
156
100
AcDbEntity
  8
0
100
AcDbCircle
 10
529.551557
 20
249.152803
 30
0.0
 40
32.838915
100
AcDbArc
 50
353.121168
 51
23.993321
  0
ARC
  5
157
100
AcDbEntity
  8
0
100
AcDbCircle
 10
553.835947
 20
221.8399
 30
0.0
 40
5.389954
100
AcDbArc
 50
82.028497
 51
143.898856
  0
ARC
  5
158
100
AcDbEntity
  8
0
100
AcDbCircle
 10
554.8976
 20
218.431985
 30
0.0
 40
8.752989
100
AcDbArc
 50
48.77878
 51
92.324372
  0
ARC
  5
159
100
AcDbEntity
  8
0
100
AcDbCircle
 10
552.702824
 20
219.991339
 30
0.0
 40
9.368426
100
AcDbArc
 50
3.536696
 51
32.728925
  0
ARC
  5
15A
100
AcDbEntity
  8
0
100
AcDbCircle
 10
537.275782
 20
218.635438
 30
0.0
 40
24.852976
100
AcDbArc
 50
333.315672
 51
4.462714
  0
ARC
  5
15B
100
AcDbEntity
  8
0
100
AcDbCircle
 10
553.241803
 20
248.422131
 30
0.0
 40
38.429611
100
AcDbArc
 50
281.512858
 51
288.601124
  0
LINE
  5
15C
100
AcDbEntity
  8
0
100
AcDbLine
 10
543.493667
 20
211.389399
 30
0.0
 11
544.043932
 21
211.162964
 31
0.0
  0
LINE
  5
16A
100
AcDbEntity
  8
1
100
AcDbLine
 10
403.996098
 20
362.5
 30
0.0
 11
555.496098
 21
362.5
 31
0.0
  0
LINE
  5
1B2
100
AcDbEntity
  8
0
100
AcDbLine
 10
516.496098
 20
370.0
 30
0.0
 11
517.050502
 21
369.998287
 31
0.0
  0
CIRCLE
  5
21D
100
AcDbEntity
  8
0
100
AcDbCircle
 10
210.0
 20
362.0
 30
0.0
 40
8.0
  0
CIRCLE
  5
21E
100
AcDbEntity
  8
0
100
AcDbCircle
 10
210.0
 20
362.0
 30
0.0
 40
5.0
  0
CIRCLE
  5
21F
100
AcDbEntity
  8
0
100
AcDbCircle
 10
210.0
 20
362.0
 30
0.0
 40
4.0
  0
ENDSEC
  0
SECTION
  2
OBJECTS
  0
DICTIONARY
  5
1F5
100
AcDbDictionary
  3
ACAD_GROUP
350
1F6
  3
ACAD_MLINESTYLE
350
203
  3
ACDBVARIABLEDICTIONARY
350
218
  0
DICTIONARY
  5
1F6
102
{ACAD_REACTORS
330
1F5
102
}
100
AcDbDictionary
  0
DICTIONARY
  5
203
102
{ACAD_REACTORS
330
1F5
102
}
100
AcDbDictionary
  3
STANDARD
350
204
  0
DICTIONARY
  5
218
102
{ACAD_REACTORS
330
1F5
102
}
100
AcDbDictionary
  3
DIMADEC
350
219
  0
MLINESTYLE
  5
204
102
{ACAD_REACTORS
330
203
102
}
100
AcDbMlineStyle
  2
STANDARD
 70
     0
  3

 62
   256
 51
90.0
 52
90.0
 71
     2
 49
0.5
 62
   256
  6
BYLAYER
 49
-0.5
 62
   256
  6
BYLAYER
  0
DICTIONARYVAR
  5
219
102
{ACAD_REACTORS
330
218
102
}
100
DictionaryVariables
280
     0
  1
0
  0
ENDSEC
  0
EOF
