  0
SECTION
  2
HEADER
  9
$ACADVER
  1
AC1015
  9
$ACADMAINTVER
 70
    13
  9
$DWGCODEPAGE
  3
ANSI_932
  9
$INSBASE
 10
0.0
 20
0.0
 30
0.0
  9
$EXTMIN
 10
42.5
 20
72.47537300000001
 30
0.0
  9
$EXTMAX
 10
512.5839929999999
 20
342.9966661964978
 30
0.0
  9
$LIMMIN
 10
0.0
 20
0.0
  9
$LIMMAX
 10
560.0
 20
400.0
  9
$ORTHOMODE
 70
     1
  9
$REGENMODE
 70
     1
  9
$FILLMODE
 70
     1
  9
$QTEXTMODE
 70
     0
  9
$MIRRTEXT
 70
     1
  9
$LTSCALE
 40
30.0
  9
$ATTMODE
 70
     1
  9
$TEXTSIZE
 40
18.0
  9
$TRACEWID
 40
0.05
  9
$TEXTSTYLE
  7
BIGFONT
  9
$CLAYER
  8
0
  9
$CELTYPE
  6
BYLAYER
  9
$CECOLOR
 62
   256
  9
$CELTSCALE
 40
1.0
  9
$DISPSILH
 70
     0
  9
$DIMSCALE
 40
3.0
  9
$DIMASZ
 40
3.0
  9
$DIMEXO
 40
2.0
  9
$DIMDLI
 40
0.38
  9
$DIMRND
 40
0.0
  9
$DIMDLE
 40
0.0
  9
$DIMEXE
 40
2.0
  9
$DIMTP
 40
0.0
  9
$DIMTM
 40
0.0
  9
$DIMTXT
 40
3.2
  9
$DIMCEN
 40
0.09
  9
$DIMTSZ
 40
0.0
  9
$DIMTOL
 70
     0
  9
$DIMLIM
 70
     0
  9
$DIMTIH
 70
     0
  9
$DIMTOH
 70
     0
  9
$DIMSE1
 70
     0
  9
$DIMSE2
 70
     0
  9
$DIMTAD
 70
     1
  9
$DIMZIN
 70
     0
  9
$DIMBLK
  1

  9
$DIMASO
 70
     0
  9
$DIMSHO
 70
     0
  9
$DIMPOST
  1

  9
$DIMAPOST
  1

  9
$DIMALT
 70
     0
  9
$DIMALTD
 70
     2
  9
$DIMALTF
 40
25.4
  9
$DIMLFAC
 40
1.0
  9
$DIMTOFL
 70
     0
  9
$DIMTVP
 40
1.6
  9
$DIMTIX
 70
     1
  9
$DIMSOXD
 70
     0
  9
$DIMSAH
 70
     0
  9
$DIMBLK1
  1

  9
$DIMBLK2
  1

  9
$DIMSTYLE
  2
STANDARD
  9
$DIMCLRD
 70
     0
  9
$DIMCLRE
 70
     0
  9
$DIMCLRT
 70
     0
  9
$DIMTFAC
 40
1.0
  9
$DIMGAP
 40
0.09
  9
$DIMJUST
 70
     0
  9
$DIMSD1
 70
     0
  9
$DIMSD2
 70
     0
  9
$DIMTOLJ
 70
     1
  9
$DIMTZIN
 70
     0
  9
$DIMALTZ
 70
     0
  9
$DIMALTTZ
 70
     0
  9
$DIMUPT
 70
     0
  9
$DIMDEC
 70
     4
  9
$DIMTDEC
 70
     4
  9
$DIMALTU
 70
     2
  9
$DIMALTTD
 70
     2
  9
$DIMTXSTY
  7
BIGFONT
  9
$DIMAUNIT
 70
     0
  9
$DIMADEC
 70
     0
  9
$DIMALTRND
 40
0.0
  9
$DIMAZIN
 70
     0
  9
$DIMDSEP
 70
    46
  9
$DIMATFIT
 70
     3
  9
$DIMFRAC
 70
     0
  9
$DIMLDRBLK
  1

  9
$DIMLUNIT
 70
     2
  9
$DIMLWD
 70
    -2
  9
$DIMLWE
 70
    -2
  9
$DIMTMOVE
 70
     0
  9
$LUNITS
 70
     2
  9
$LUPREC
 70
     4
  9
$SKETCHINC
 40
0.1
  9
$FILLETRAD
 40
0.0
  9
$AUNITS
 70
     0
  9
$AUPREC
 70
     0
  9
$MENU
  1
ACAD
  9
$ELEVATION
 40
0.0
  9
$PELEVATION
 40
0.0
  9
$THICKNESS
 40
0.0
  9
$LIMCHECK
 70
     0
  9
$CHAMFERA
 40
0.0
  9
$CHAMFERB
 40
0.0
  9
$CHAMFERC
 40
0.0
  9
$CHAMFERD
 40
0.0
  9
$SKPOLY
 70
     0
  9
$TDCREATE
 40
2450863.966461227
  9
$TDUCREATE
 40
2450863.591461227
  9
$TDUPDATE
 40
2456448.430152268
  9
$TDUUPDATE
 40
2456448.055152268
  9
$TDINDWG
 40
0.0037405903
  9
$TDUSRTIMER
 40
0.0037405903
  9
$USRTIMER
 70
     1
  9
$ANGBASE
 50
0.0
  9
$ANGDIR
 70
     0
  9
$PDMODE
 70
     0
  9
$PDSIZE
 40
0.0
  9
$PLINEWID
 40
0.0
  9
$SPLFRAME
 70
     0
  9
$SPLINETYPE
 70
     6
  9
$SPLINESEGS
 70
     8
  9
$HANDSEED
  5
5D7
  9
$SURFTAB1
 70
     6
  9
$SURFTAB2
 70
     6
  9
$SURFTYPE
 70
     6
  9
$SURFU
 70
     6
  9
$SURFV
 70
     6
  9
$UCSBASE
  2

  9
$UCSNAME
  2

  9
$UCSORG
 10
0.0
 20
0.0
 30
0.0
  9
$UCSXDIR
 10
1.0
 20
0.0
 30
0.0
  9
$UCSYDIR
 10
0.0
 20
1.0
 30
0.0
  9
$UCSORTHOREF
  2

  9
$UCSORTHOVIEW
 70
     0
  9
$UCSORGTOP
 10
0.0
 20
0.0
 30
0.0
  9
$UCSORGBOTTOM
 10
0.0
 20
0.0
 30
0.0
  9
$UCSORGLEFT
 10
0.0
 20
0.0
 30
0.0
  9
$UCSORGRIGHT
 10
0.0
 20
0.0
 30
0.0
  9
$UCSORGFRONT
 10
0.0
 20
0.0
 30
0.0
  9
$UCSORGBACK
 10
0.0
 20
0.0
 30
0.0
  9
$PUCSBASE
  2

  9
$PUCSNAME
  2

  9
$PUCSORG
 10
0.0
 20
0.0
 30
0.0
  9
$PUCSXDIR
 10
1.0
 20
0.0
 30
0.0
  9
$PUCSYDIR
 10
0.0
 20
1.0
 30
0.0
  9
$PUCSORTHOREF
  2

  9
$PUCSORTHOVIEW
 70
     0
  9
$PUCSORGTOP
 10
0.0
 20
0.0
 30
0.0
  9
$PUCSORGBOTTOM
 10
0.0
 20
0.0
 30
0.0
  9
$PUCSORGLEFT
 10
0.0
 20
0.0
 30
0.0
  9
$PUCSORGRIGHT
 10
0.0
 20
0.0
 30
0.0
  9
$PUCSORGFRONT
 10
0.0
 20
0.0
 30
0.0
  9
$PUCSORGBACK
 10
0.0
 20
0.0
 30
0.0
  9
$USERI1
 70
     0
  9
$USERI2
 70
     0
  9
$USERI3
 70
     0
  9
$USERI4
 70
     0
  9
$USERI5
 70
     0
  9
$USERR1
 40
0.0
  9
$USERR2
 40
0.0
  9
$USERR3
 40
0.0
  9
$USERR4
 40
0.0
  9
$USERR5
 40
0.0
  9
$WORLDVIEW
 70
     1
  9
$SHADEDGE
 70
     3
  9
$SHADEDIF
 70
    70
  9
$TILEMODE
 70
     1
  9
$MAXACTVP
 70
    16
  9
$PINSBASE
 10
0.0
 20
0.0
 30
0.0
  9
$PLIMCHECK
 70
     0
  9
$PEXTMIN
 10
1.000000000000000E+20
 20
1.000000000000000E+20
 30
1.000000000000000E+20
  9
$PEXTMAX
 10
-1.000000000000000E+20
 20
-1.000000000000000E+20
 30
-1.000000000000000E+20
  9
$PLIMMIN
 10
0.0
 20
0.0
  9
$PLIMMAX
 10
12.0
 20
9.0
  9
$UNITMODE
 70
     0
  9
$VISRETAIN
 70
     0
  9
$PLINEGEN
 70
     1
  9
$PSLTSCALE
 70
     0
  9
$TREEDEPTH
 70
  3020
  9
$CMLSTYLE
  2
STANDARD
  9
$CMLJUST
 70
     0
  9
$CMLSCALE
 40
1.0
  9
$PROXYGRAPHICS
 70
     1
  9
$MEASUREMENT
 70
     0
  9
$CELWEIGHT
370
    -1
  9
$ENDCAPS
280
     0
  9
$JOINSTYLE
280
     0
  9
$LWDISPLAY
290
     0
  9
$INSUNITS
 70
     0
  9
$HYPERLINKBASE
  1

  9
$STYLESHEET
  1

  9
$XEDIT
290
     1
  9
$CEPSNTYPE
380
     0
  9
$PSTYLEMODE
290
     1
  9
$FINGERPRINTGUID
  2
{0A9D4B7C-E47E-4C9D-9D91-A2521FE2C9CF}
  9
$VERSIONGUID
  2
{655E99AF-D330-4BD1-8A26-1BD1415155AC}
  9
$EXTNAMES
290
     1
  9
$PSVPSCALE
 40
0.0
  9
$OLESTARTUP
290
     0
  0
ENDSEC
  0
SECTION
  2
CLASSES
  0
CLASS
  1
DICTIONARYVAR
  2
AcDbDictionaryVar
  3
AutoCAD 2000
 90
        0
280
     0
281
     0
  0
CLASS
  1
ACDBDICTIONARYWDFLT
  2
AcDbDictionaryWithDefault
  3
AutoCAD 2000
 90
        0
280
     0
281
     0
  0
CLASS
  1
ACDBPLACEHOLDER
  2
AcDbPlaceHolder
  3
AutoCAD 2000
 90
        0
280
     0
281
     0
  0
CLASS
  1
LAYOUT
  2
AcDbLayout
  3
AutoCAD 2000
 90
        0
280
     0
281
     0
  0
CLASS
  1
AMGSETTINGSOBJ
  2
AmgSettingsObj
  3
"AcadM|Product Description: AutoCAD Mechanical 2000|Company: Autodesk"
 90
        0
280
     0
281
     0
  0
CLASS
  1
ACME_DOCUMENT
  2
AcMeDbDoc
  3
AcMeServices
 90
        0
280
     0
281
     0
  0
CLASS
  1
ACMESCOPE
  2
AcMeScope
  3
AcMeServices
 90
        0
280
     0
281
     0
  0
CLASS
  1
ACMECOMMANDHISTORY
  2
AcMeCommandHistory
  3
AcMeServices
 90
        0
280
     0
281
     0
  0
CLASS
  1
ACIMSYSVARMAN
  2
AcImSysVarManager
  3
AcMeServices
 90
        0
280
     0
281
     0
  0
CLASS
  1
ACIMREALSYSVAR
  2
AcImRealSysVar
  3
AcMeServices
 90
        0
280
     0
281
     0
  0
CLASS
  1
ACIMINTSYSVAR
  2
AcImIntSysVar
  3
AcMeServices
 90
        0
280
     0
281
     0
  0
CLASS
  1
ACMEDRAWINGMAN
  2
AcMeDrawingMan
  3
AcMeServices
 90
        0
280
     0
281
     0
  0
CLASS
  1
ACMEVIEW
  2
AcMeView
  3
AcMeServices
 90
        0
280
     0
281
     0
  0
CLASS
  1
ACDBENTITYCACHE
  2
AcMeEntityCache
  3
AcMeServices
 90
        0
280
     0
281
     0
  0
CLASS
  1
GSMANAGER
  2
AcMeGSManager
  3
AcMeServices
 90
        0
280
     0
281
     0
  0
CLASS
  1
AMDTINTERNALREACTOR
  2
AmdtInternalReactor
  3
AcMeServices
 90
        0
280
     0
281
     0
  0
CLASS
  1
ACMESTATEMGR
  2
AcMeStateMgr
  3
AcMeServices
 90
        0
280
     0
281
     0
  0
CLASS
  1
ACGREFMASTER
  2
AcGrefMaster
  3
AcAttribServices
 90
        0
280
     0
281
     0
  0
CLASS
  1
AM_DRAWING_MGR
  2
AcDmDwgMgr
  3
AcMechDwgViewMgmt
 90
        0
280
     0
281
     0
  0
CLASS
  1
AM_DWG_DOCUMENT
  2
AcDmDwgDocument
  3
AcMechDwgViewMgmt
 90
        0
280
     0
281
     0
  0
CLASS
  1
AM_DWG_SHEET
  2
AcDmSheet
  3
AcMechDwgViewMgmt
 90
        0
280
     0
281
     0
  0
CLASS
  1
AM_VIEWDIMPARMAP
  2
AcDmViewDimParMap
  3
AcMechDwgViewMgmt
 90
        0
280
     0
281
     0
  0
CLASS
  1
AM_DWGMGR_NAME
  2
AcDmDwgMgrName
  3
AcMechDwgViewMgmt
 90
        0
280
     0
281
     0
  0
CLASS
  1
ACME_DATABASE
  2
AcMeDbDatabase
  3
AcMeServices
 90
        0
280
     0
281
     0
  0
CLASS
  1
ACRFINSADJUSTERMGR
  2
AcRfInsAdjusterMgr
  3
AcMeServices
 90
        0
280
     0
281
     0
  0
CLASS
  1
ACGREFACADMASTER
  2
AcGrefacadMaster
  3
AcGrefServices
 90
        0
280
     0
281
     0
  0
CLASS
  1
AMDTMENUSTATEMGR
  2
AmdtMenuStateMgr
  3
McadcomServices
 90
        0
280
     0
281
     0
  0
CLASS
  1
AMDTMCOMMENUSTATE
  2
AmdtMcomMenuState
  3
McadcomServices
 90
        0
280
     0
281
     0
  0
CLASS
  1
AMIMASTER
  2
AmiMaster
  3
AmiServices
 90
        0
280
     0
281
     0
  0
CLASS
  1
ASAPP
  2
AcAsAppObject
  3
AutoSurfServices
 90
        0
280
     0
281
     0
  0
CLASS
  1
IM_STATIC_MAN
  2
AcImStaticVarManager
  3
AcMeServices
 90
        0
280
     0
281
     0
  0
CLASS
  1
ACIMSTRSYSVAR
  2
AcImStrSysVar
  3
AcMeServices
 90
        0
280
     0
281
     0
  0
CLASS
  1
ACIMDBLSTATICVAR
  2
AcImDblStaticVar
  3
AcMeServices
 90
        0
280
     0
281
     0
  0
CLASS
  1
ACIMSTRSTATICVAR
  2
AcImStrStaticVar
  3
AcMeServices
 90
        0
280
     0
281
     0
  0
CLASS
  1
ACIMINTSTATICVAR
  2
AcImIntStaticVar
  3
AcMeServices
 90
        0
280
     0
281
     0
  0
CLASS
  1
ACASGREFMASTER
  2
AcAsGrefMaster
  3
AutoSurfResolverServices
 90
        0
280
     0
281
     0
  0
CLASS
  1
ACADGREFMODULE
  2
AcAdGrefModule
  3
AdGrefServices
 90
        0
280
     0
281
     0
  0
CLASS
  1
AMDTMAPISURFMOUDULE
  2
AmdtMApiSurfModule
  3
MApiSurfServices
 90
        0
280
     0
281
     0
  0
CLASS
  1
MAPIAMMOUDLE
  2
MApiAmModule
  3
MApiAmServices
 90
        0
280
     0
281
     0
  0
CLASS
  1
AMDTADMENUSTATE
  2
AmdtAdMenuState
  3
DesignerServices
 90
        0
280
     0
281
     0
  0
CLASS
  1
ADAPPL
  2
AcAdAppl
  3
DesignerServices
 90
        0
280
     0
281
     0
  0
CLASS
  1
DEPMGR
  2
AcAdDepMgr
  3
DesignerServices
 90
        0
280
     0
281
     0
  0
CLASS
  1
PARAMMGR
  2
AcAdParamMgr
  3
DesignerServices
 90
        0
280
     0
281
     0
  0
CLASS
  1
PARAMSCOPE
  2
AcAdParamScope
  3
DesignerServices
 90
        0
280
     0
281
     0
  0
CLASS
  1
NAMEDAPPL
  2
AcAdNamedAppl
  3
DesignerServices
 90
        0
280
     0
281
     0
  0
CLASS
  1
AMDTDMMENUSTATE
  2
AmdtDmMenuState
  3
AcMechDwgViewMgmt
 90
        0
280
     0
281
     0
  0
CLASS
  1
MAPIADMODULE
  2
MApiAdModule
  3
MApiAdServices
 90
        0
280
     0
281
     0
  0
CLASS
  1
AMDTAMMENUSTATE
  2
AmdtAmMenuState
  3
DesignerAssemblies
 90
        0
280
     0
281
     0
  0
CLASS
  1
ACAMPROJECT
  2
AcAmProject
  3
DesignerAssemblies
 90
        0
280
     0
281
     0
  0
CLASS
  1
ACAMGRCOMPDEF
  2
AcAmGrCompDef
  3
DesignerAssemblies
 90
        0
280
     0
281
     0
  0
CLASS
  1
ACCMCONTEXT
  2
AcCmContext
  3
DesignerAssemblies
 90
        0
280
     0
281
     0
  0
CLASS
  1
ACAMCOMPDEF
  2
AcAmCompDef
  3
DesignerAssemblies
 90
        0
280
     0
281
     0
  0
CLASS
  1
ACAMCOMPDEFMGR
  2
AcAmCompDefMgr
  3
DesignerAssemblies
 90
        0
280
     0
281
     0
  0
CLASS
  1
AMCONTEXTMGR
  2
AcAmContextMgr
  3
DesignerAssemblies
 90
        0
280
     0
281
     0
  0
CLASS
  1
ACAMCONTEXTMODELER
  2
AcAmContextModeler
  3
DesignerAssemblies
 90
        0
280
     0
281
     0
  0
CLASS
  1
ACMDATADICTIONARY
  2
AcmDataDictionary
  3
"AcmSymBB|Product Description: AutoCAD Mechanical 2000|Company: Autodesk"
 90
        0
280
     0
281
     0
  0
CLASS
  1
ACMDATAENTRYBLOCK
  2
AcmDataEntryBlock
  3
"AcmSymBB|Product Description: AutoCAD Mechanical 2000|Company: Autodesk"
 90
        0
280
     0
281
     0
  0
CLASS
  1
CATALOGSTATE
  2
AcAmCatalogState
  3
DesignerAssemblies
 90
        0
280
     0
281
     0
  0
CLASS
  1
ACAMGRCOMPDEFSET
  2
AcAmGrCompDefSet
  3
DesignerAssemblies
 90
        0
280
     0
281
     0
  0
CLASS
  1
AMDTBROWSERDBTAB
  2
AmdtBrowserDbTab
  3
McadcomServices
 90
        0
280
     0
281
     0
  0
CLASS
  1
CBROWSERAPPOBJECT
  2
CBrowserAppObject
  3
McadcomServices
 90
        0
280
     0
281
     0
  0
CLASS
  1
DM_PLACEHOLDER
  2
AcDmSelsetPlaceholder
  3
AcMechDwgViewMgmt
 90
        0
280
     0
281
     0
  0
CLASS
  1
AMGOBJPROPCFG
  2
AmgObjPropCfg
  3
"AmgLay|Product Description: AutoCAD Mechanical 2000|Company: Autodesk"
 90
        1
280
     0
281
     0
  0
CLASS
  1
ACAMGFILTERDAT
  2
AcAmgFilterDat
  3
"AcadM|Product Description: AutoCAD Mechanical 2000|Company: Autodesk"
 90
        0
280
     0
281
     0
  0
CLASS
  1
ACMSTANDARDISO
  2
AcmStandardISO
  3
"Amdt_StdImp|Product Description: AutoCAD Mechanical 2000|Company: Autodesk"
 90
        0
280
     0
281
     0
  0
CLASS
  1
AMDTEDGESTANDARDISO
  2
AmdtEdgeStdISO
  3
"Amdt_StdImp|Product Description: AutoCAD Mechanical 2000|Company: Autodesk"
 90
        0
280
     0
281
     0
  0
CLASS
  1
ACMSURFSTANDARDISO
  2
AcmSurfTextStdISO
  3
"Amdt_StdImp|Product Description: AutoCAD Mechanical 2000|Company: Autodesk"
 90
        0
280
     0
281
     0
  0
CLASS
  1
ACMFCFSTANDARDISO
  2
AcmFCFStdISO
  3
"Amdt_StdImp|Product Description: AutoCAD Mechanical 2000|Company: Autodesk"
 90
        0
280
     0
281
     0
  0
CLASS
  1
ACMWELDSTANDARDISO
  2
AcmWeldingStdISO
  3
"Amdt_StdImp|Product Description: AutoCAD Mechanical 2000|Company: Autodesk"
 90
        0
280
     0
281
     0
  0
CLASS
  1
ACMIDSTANDARDISO
  2
AcmIdStdISO
  3
"Amdt_StdImp|Product Description: AutoCAD Mechanical 2000|Company: Autodesk"
 90
        0
280
     0
281
     0
  0
CLASS
  1
ACMDATUMSTANDARDISO
  2
AcmDatumStdISO
  3
"Amdt_StdImp|Product Description: AutoCAD Mechanical 2000|Company: Autodesk"
 90
        0
280
     0
281
     0
  0
CLASS
  1
ACMBOMSTANDARDISO
  2
AcmBOMStdISO
  3
"Amdt_StdImp|Product Description: AutoCAD Mechanical 2000|Company: Autodesk"
 90
        0
280
     0
281
     0
  0
CLASS
  1
ACMDETAILSTANDARDISO
  2
AmdtDetailSymStdISO
  3
"Amdt_StdImp|Product Description: AutoCAD Mechanical 2000|Company: Autodesk"
 90
        0
280
     0
281
     0
  0
CLASS
  1
ACMSECTIONSTANDARDISO
  2
AmdtSectionSymStdISO
  3
"Amdt_StdImp|Product Description: AutoCAD Mechanical 2000|Company: Autodesk"
 90
        0
280
     0
281
     0
  0
CLASS
  1
ACMCENTERLINESTANDARDISO
  2
AmdtCenterLineStdISO
  3
"Amdt_StdImp|Product Description: AutoCAD Mechanical 2000|Company: Autodesk"
 90
        0
280
     0
281
     0
  0
CLASS
  1
ACMTHREADLINESTANDARDISO
  2
AmdtThreadLineStdISO
  3
"Amdt_StdImp|Product Description: AutoCAD Mechanical 2000|Company: Autodesk"
 90
        0
280
     0
281
     0
  0
CLASS
  1
ACMNOTESTANDARDISO
  2
AmdtNoteStdISO
  3
"Amdt_StdImp|Product Description: AutoCAD Mechanical 2000|Company: Autodesk"
 90
        0
280
     0
281
     0
  0
CLASS
  1
ACAMGLAYSTD
  2
AcAmgLayStd
  3
"AcAmgLayStd|Product Description: AutoCAD Mechanical 2000|Company: Autodesk"
 90
        0
280
     0
281
     0
  0
CLASS
  1
ACAMGDIMSTD
  2
AcAmgDimStd
  3
"AcAmgDimStd|Product Description: AutoCAD Mechanical 2000|Company: Autodesk"
 90
        0
280
     0
281
     0
  0
CLASS
  1
ACAMGHOLECHARTSTDISO
  2
AcAmgHoleChartStdISO
  3
ACMSYMBB_MODULE_NAME
 90
        0
280
     0
281
     0
  0
CLASS
  1
ACAMGTITLESTD
  2
AcAmgTitleStd
  3
"TITLEAPP"
 90
        0
280
     0
281
     0
  0
CLASS
  1
AMDTFORMULAUPDATEDISPATCHER
  2
AmdtFormulaUpdateDispatcher
  3
AcMeServices
 90
        0
280
     0
281
     0
  0
CLASS
  1
LAYER_INDEX
  2
AcDbLayerIndex
  3
AutoCAD 2000
 90
        0
280
     0
281
     0
  0
CLASS
  1
IDBUFFER
  2
AcDbIdBuffer
  3
AutoCAD 2000
 90
        0
280
     0
281
     0
  0
ENDSEC
  0
SECTION
  2
TABLES
  0
TABLE
  2
VPORT
  5
180
330
0
100
AcDbSymbolTable
 70
     3
  0
VPORT
  5
5D6
330
180
100
AcDbSymbolTableRecord
100
AcDbViewportTableRecord
  2
*Active
 70
     0
 10
0.0
 20
0.0
 11
1.0
 21
1.0
 12
0.0
 22
0.0
 13
0.0
 23
0.0
 14
5.0
 24
5.0
 15
10.0
 25
10.0
 16
0.0
 26
0.0
 36
1.0
 17
368.2657389510438
 27
247.204316
 37
0.0
 40
494.4297442387094
 41
1.489721886336154
 42
50.0
 43
0.0
 44
0.0
 50
0.0
 51
0.0
 71
     0
 72
   500
 73
     1
 74
     1
 75
     0
 76
     0
 77
     0
 78
     1
281
     0
 65
     0
110
0.0
120
0.0
130
0.0
111
1.0
121
0.0
131
0.0
112
0.0
122
1.0
132
0.0
 79
     0
146
0.0
  0
ENDTAB
  0
TABLE
  2
LTYPE
  5
17D
330
0
100
AcDbSymbolTable
 70
    22
  0
LTYPE
  5
189
330
17D
100
AcDbSymbolTableRecord
100
AcDbLinetypeTableRecord
  2
BYBLOCK
 70
     0
  3

 72
    65
 73
     0
 40
0.0
  0
LTYPE
  5
18A
330
17D
100
AcDbSymbolTableRecord
100
AcDbLinetypeTableRecord
  2
BYLAYER
 70
     0
  3

 72
    65
 73
     0
 40
0.0
  0
LTYPE
  5
18B
330
17D
100
AcDbSymbolTableRecord
100
AcDbLinetypeTableRecord
  2
CONTINUOUS
 70
     0
  3
実線
 72
    65
 73
     0
 40
0.0
  0
LTYPE
  5
199
330
17D
100
AcDbSymbolTableRecord
100
AcDbLinetypeTableRecord
  2
CENTER
 70
     0
  3
____ _ ____ _ ____ _ ____ _ ____ _ ____ _ ____
 72
    65
 73
     4
 40
2.0
 49
1.25
 74
     0
 49
-0.25
 74
     0
 49
0.25
 74
     0
 49
-0.25
 74
     0
  0
LTYPE
  5
19A
330
17D
100
AcDbSymbolTableRecord
100
AcDbLinetypeTableRecord
  2
TENSEN1
 70
     0
  3

 72
    65
 73
     2
 40
0.4
 49
0.3
 74
     0
 49
-0.1
 74
     0
  0
LTYPE
  5
1DF
330
17D
100
AcDbSymbolTableRecord
100
AcDbLinetypeTableRecord
  2
HIDDEN
 70
     0
  3
Hidden __ __ __ __ __ __ __ __ __ __ __ __ __ _
 72
    65
 73
     2
 40
0.375
 49
0.25
 74
     0
 49
-0.125
 74
     0
  0
LTYPE
  5
1E0
330
17D
100
AcDbSymbolTableRecord
100
AcDbLinetypeTableRecord
  2
PHANTOM2
 70
     0
  3
Phantom (.5x) ___ _ _ ___ _ _ ___ _ _ ___ _ _
 72
    65
 73
     6
 40
1.25
 49
0.625
 74
     0
 49
-0.125
 74
     0
 49
0.125
 74
     0
 49
-0.125
 74
     0
 49
0.125
 74
     0
 49
-0.125
 74
     0
  0
LTYPE
  5
242
330
17D
100
AcDbSymbolTableRecord
100
AcDbLinetypeTableRecord
  2
ASULTYPE
 70
     0
  3
実線
 72
    65
 73
     2
 40
3.0
 49
2.5
 74
     0
 49
0.5
 74
     0
  0
LTYPE
  5
243
330
17D
100
AcDbSymbolTableRecord
100
AcDbLinetypeTableRecord
  2
ASVLTYPE
 70
     0
  3
__ __ __ __ __ __ __ __ __ __ __ __ __ __ __ __ __ __ __ __ __
 72
    65
 73
     2
 40
0.75
 49
0.5
 74
     0
 49
-0.25
 74
     0
  0
LTYPE
  5
284
330
17D
100
AcDbSymbolTableRecord
100
AcDbLinetypeTableRecord
  2
AM_ISO02W050
 70
     0
  3
__ __ __ __ __ __ __ __ __ __ __ __ __ __ __
 72
    65
 73
     2
 40
7.5
 49
6.0
 74
     0
 49
-1.5
 74
     0
  0
LTYPE
  5
285
330
17D
100
AcDbSymbolTableRecord
100
AcDbLinetypeTableRecord
  2
AM_ISO08W050
 70
     0
  3
____ . ____ . ____ . ____ . ____ . ____ . ____
 72
    65
 73
     4
 40
18.0
 49
12.0
 74
     0
 49
-1.5
 74
     0
 49
3.0
 74
     0
 49
-1.5
 74
     0
  0
LTYPE
  5
286
330
17D
100
AcDbSymbolTableRecord
100
AcDbLinetypeTableRecord
  2
AM_ISO09W050
 70
     0
  3
_____ . . _____ . . _____ . . ____ .. ____
 72
    65
 73
     6
 40
22.5
 49
12.0
 74
     0
 49
-1.5
 74
     0
 49
3.0
 74
     0
 49
-1.5
 74
     0
 49
3.0
 74
     0
 49
-1.5
 74
     0
  0
LTYPE
  5
287
330
17D
100
AcDbSymbolTableRecord
100
AcDbLinetypeTableRecord
  2
Amconstr
 70
     0
  3
_______________________
 72
    65
 73
     2
 40
9999.0
 49
9999.0
 74
     0
 49
0.0
 74
     0
  0
LTYPE
  5
288
330
17D
100
AcDbSymbolTableRecord
100
AcDbLinetypeTableRecord
  2
AM_ISO08W050x2
 70
     0
  3
__ . __ . __ . __ . __ . __
 72
    65
 73
     4
 40
9.0
 49
6.0
 74
     0
 49
-0.75
 74
     0
 49
1.5
 74
     0
 49
-0.75
 74
     0
  0
LTYPE
  5
289
330
17D
100
AcDbSymbolTableRecord
100
AcDbLinetypeTableRecord
  2
AM_ISO02W050x2
 70
     0
  3
 _ _ _ _ _ _ _ _ _ _ _ _
 72
    65
 73
     2
 40
3.75
 49
3.0
 74
     0
 49
-0.75
 74
     0
  0
LTYPE
  5
28C
330
17D
100
AcDbSymbolTableRecord
100
AcDbLinetypeTableRecord
  2
Amzigzag
 70
     0
  3
/\/-/\/-/\/-/\/-/\/-/\/
 72
    65
 73
     2
 40
11.00009999999999
 49
0.0001
 74
     4
 75
   135
340
28B
 46
0.04
 50
0.0
 44
0.0
 45
0.0
 49
-11.0
 74
     0
  0
LTYPE
  5
28D
330
17D
100
AcDbSymbolTableRecord
100
AcDbLinetypeTableRecord
  2
CENTER2
 70
     0
  3
Center (.5x) ___ _ ___ _ ___ _ ___ _ ___ _ ___
 72
    65
 73
     4
 40
1.125
 49
0.75
 74
     0
 49
-0.125
 74
     0
 49
0.125
 74
     0
 49
-0.125
 74
     0
  0
LTYPE
  5
28E
330
17D
100
AcDbSymbolTableRecord
100
AcDbLinetypeTableRecord
  2
HIDDEN2
 70
     0
  3
Hidden (.5x) _ _ _ _ _ _ _ _ _ _ _ _ _ _ _ _ _
 72
    65
 73
     2
 40
0.1875
 49
0.125
 74
     0
 49
-0.0625
 74
     0
  0
LTYPE
  5
28F
330
17D
100
AcDbSymbolTableRecord
100
AcDbLinetypeTableRecord
  2
Amzigzag2
 70
     0
  3
/\/-/\/-/\/-/\/-/\/-/\/
 72
    65
 73
     2
 40
0.4401
 49
0.0001
 74
     4
 75
   135
340
28B
 46
0.0016
 50
0.0
 44
0.0
 45
0.0
 49
-0.4400000000000001
 74
     0
  0
LTYPE
  5
31E
330
17D
100
AcDbSymbolTableRecord
100
AcDbLinetypeTableRecord
  2
TENSEN
 70
     0
  3

 72
    65
 73
     2
 40
4.0
 49
3.0
 74
     0
 49
-1.0
 74
     0
  0
LTYPE
  5
31F
330
17D
100
AcDbSymbolTableRecord
100
AcDbLinetypeTableRecord
  2
ITTEN1
 70
     0
  3

 72
    65
 73
     4
 40
8.199999999999999
 49
5.0
 74
     0
 49
-1.0
 74
     0
 49
1.199999999999999
 74
     0
 49
-1.0
 74
     0
  0
LTYPE
  5
320
330
17D
100
AcDbSymbolTableRecord
100
AcDbLinetypeTableRecord
  2
ACISOWELD
 70
     0
  3
_ _ _ _ _
 72
    65
 73
     2
 40
2.0
 49
2.0
 74
     0
 49
-1.0
 74
     0
  0
LTYPE
  5
321
330
17D
100
AcDbSymbolTableRecord
100
AcDbLinetypeTableRecord
  2
ACISOTGB
 70
     0
  3
__ . . __ . .
 72
    65
 73
     6
 40
9.0
 49
4.0
 74
     0
 49
-1.0
 74
     0
 49
1.0
 74
     0
 49
-1.0
 74
     0
 49
1.0
 74
     0
 49
-1.0
 74
     0
  0
LTYPE
  5
322
330
17D
100
AcDbSymbolTableRecord
100
AcDbLinetypeTableRecord
  2
ACISOTGL
 70
     0
  3
_ _ _ _ _
 72
    65
 73
     2
 40
3.0
 49
2.0
 74
     0
 49
-1.0
 74
     0
  0
ENDTAB
  0
TABLE
  2
LAYER
  5
17A
330
0
100
AcDbSymbolTable
 70
     8
  0
LAYER
  5
186
330
17A
100
AcDbSymbolTableRecord
100
AcDbLayerTableRecord
  2
0
 70
     0
 62
     7
  6
CONTINUOUS
370
    -3
390
1B5
  0
LAYER
  5
19F
330
17A
100
AcDbSymbolTableRecord
100
AcDbLayerTableRecord
  2
1
 70
     0
 62
     1
  6
CENTER
370
    -3
390
1B5
  0
LAYER
  5
1A0
330
17A
100
AcDbSymbolTableRecord
100
AcDbLayerTableRecord
  2
10
 70
     0
 62
     7
  6
CONTINUOUS
370
    -3
390
1B5
  0
LAYER
  5
1A1
330
17A
100
AcDbSymbolTableRecord
100
AcDbLayerTableRecord
  2
11
 70
     0
 62
     3
  6
CONTINUOUS
370
    -3
390
1B5
  0
LAYER
  5
1A2
330
17A
100
AcDbSymbolTableRecord
100
AcDbLayerTableRecord
  2
2
 70
     0
 62
     2
  6
TENSEN1
370
    -3
390
1B5
  0
LAYER
  5
323
330
17A
100
AcDbSymbolTableRecord
100
AcDbLayerTableRecord
  2
3
 70
     0
 62
     5
  6
CONTINUOUS
370
    50
390
1B5
  0
LAYER
  5
324
330
17A
100
AcDbSymbolTableRecord
100
AcDbLayerTableRecord
  2
DEFPOINTS
 70
     0
 62
     7
  6
CONTINUOUS
290
     0
370
    -3
390
1B5
  0
LAYER
  5
325
330
17A
100
AcDbSymbolTableRecord
100
AcDbLayerTableRecord
  2
5
 70
     0
 62
     7
  6
CONTINUOUS
370
    -3
390
1B5
  0
ENDTAB
  0
TABLE
  2
STYLE
  5
17B
330
0
100
AcDbSymbolTable
 70
     7
  0
STYLE
  5
187
330
17B
100
AcDbSymbolTableRecord
100
AcDbTextStyleTableRecord
  2
STANDARD
 70
     0
 40
0.0
 41
1.0
 50
0.0
 71
     0
 42
0.2
  3
TXT
  4
BIGFONT
  0
STYLE
  5
196
330
17B
100
AcDbSymbolTableRecord
100
AcDbTextStyleTableRecord
  2
K80
 70
     0
 40
0.0
 41
0.8
 50
0.0
 71
     0
 42
0.2
  3
TXT
  4
BIGFONT
  0
STYLE
  5
197
330
17B
100
AcDbSymbolTableRecord
100
AcDbTextStyleTableRecord
  2
07500
 70
     0
 40
0.0
 41
0.75
 50
0.0
 71
     0
 42
0.2
  3
TXT
  4
BIGFONT
  0
STYLE
  5
198
330
17B
100
AcDbSymbolTableRecord
100
AcDbTextStyleTableRecord
  2
BIGFONT
 70
     0
 40
18.0
 41
0.7
 50
0.0
 71
     0
 42
18.0
  3

  4
bigfont
  0
STYLE
  5
28B
330
17B
100
AcDbSymbolTableRecord
100
AcDbTextStyleTableRecord
  2

 70
     1
 40
0.0
 41
1.0
 50
0.0
 71
     0
 42
18.0
  3
ltypeshp.shx
  4

  0
STYLE
  5
326
330
17B
100
AcDbSymbolTableRecord
100
AcDbTextStyleTableRecord
  2
ACISOTS
 70
     0
 40
1.0
 41
1.0
 50
0.0
 71
     0
 42
5.0
  3
isocp.shx
  4
extfont.shx
  0
STYLE
  5
327
330
17B
100
AcDbSymbolTableRecord
100
AcDbTextStyleTableRecord
  2
ACISOGDT
 70
     0
 40
0.0
 41
1.0
 50
0.0
 71
     0
 42
5.0
  3
amgdt.shx
  4

  0
ENDTAB
  0
TABLE
  2
VIEW
  5
17E
330
0
100
AcDbSymbolTable
 70
     1
  0
VIEW
  5
19B
330
17E
100
AcDbSymbolTableRecord
100
AcDbViewTableRecord
  2
ALL
 70
     0
 40
810.0
 10
662.9747899999999
 20
405.0
 41
0.0
 11
0.0
 21
0.0
 31
1.0
 12
0.0
 22
0.0
 32
0.0
 42
50.0
 43
0.0
 44
0.0
 50
0.0
 71
     0
281
     0
 72
     0
  0
ENDTAB
  0
TABLE
  2
UCS
  5
17F
330
0
100
AcDbSymbolTable
 70
     0
  0
ENDTAB
  0
TABLE
  2
APPID
  5
181
330
0
100
AcDbSymbolTable
 70
    12
  0
APPID
  5
188
330
181
100
AcDbSymbolTableRecord
100
AcDbRegAppTableRecord
  2
ACAD
 70
     0
  0
APPID
  5
1BE
330
181
100
AcDbSymbolTableRecord
100
AcDbRegAppTableRecord
  2
GENIUS_GENDIM_13
 70
     0
  0
APPID
  5
1BF
330
181
100
AcDbSymbolTableRecord
100
AcDbRegAppTableRecord
  2
GENIUS_GENDTOL_13
 70
     0
  0
APPID
  5
1C0
330
181
100
AcDbSymbolTableRecord
100
AcDbRegAppTableRecord
  2
GENIUS_GE3DTOL_13
 70
     0
  0
APPID
  5
1C2
330
181
100
AcDbSymbolTableRecord
100
AcDbRegAppTableRecord
  2
MCAD_NO_VIS
 70
     0
  0
APPID
  5
1C3
330
181
100
AcDbSymbolTableRecord
100
AcDbRegAppTableRecord
  2
ACAD_TEMP_GRAPHIC
 70
     0
  0
APPID
  5
1F5
330
181
100
AcDbSymbolTableRecord
100
AcDbRegAppTableRecord
  2
AD_DRAW
 70
     0
  0
APPID
  5
1F8
330
181
100
AcDbSymbolTableRecord
100
AcDbRegAppTableRecord
  2
ACATTRIBSERVICES
 70
     0
  0
APPID
  5
244
330
181
100
AcDbSymbolTableRecord
100
AcDbRegAppTableRecord
  2
ASURF_PCURVE_APPNAME
 70
     0
  0
APPID
  5
273
330
181
100
AcDbSymbolTableRecord
100
AcDbRegAppTableRecord
  2
DESIGNERASSEMBLIES
 70
     0
  0
APPID
  5
27B
330
181
100
AcDbSymbolTableRecord
100
AcDbRegAppTableRecord
  2
ACADM_DIM_EDIT
 70
     0
  0
APPID
  5
27C
330
181
100
AcDbSymbolTableRecord
100
AcDbRegAppTableRecord
  2
AMDT_DM_ADJ
 70
     0
  0
ENDTAB
  0
TABLE
  2
DIMSTYLE
  5
182
330
0
100
AcDbSymbolTable
 70
     8
100
AcDbDimStyleTable
 71
     0
  0
DIMSTYLE
105
19E
330
182
100
AcDbSymbolTableRecord
100
AcDbDimStyleTableRecord
  2
STANDARD
 70
     0
340
198
  0
DIMSTYLE
105
328
330
182
100
AcDbSymbolTableRecord
100
AcDbDimStyleTableRecord
  2
AM_ISO
 70
     0
  4
"
 41
2.5
 42
1.0
 43
10.0
 44
1.0
 47
0.1
 48
0.1
 73
     0
 74
     0
 77
     1
 78
     8
 79
     2
140
3.5
141
0.0
143
0.0393701
146
0.71
147
1.5
172
     1
176
   256
177
   256
178
     2
271
     2
272
     3
274
     4
283
     0
284
     8
340
187
371
    -1
372
    -1
  0
DIMSTYLE
105
329
330
182
100
AcDbSymbolTableRecord
100
AcDbDimStyleTableRecord
  2
AM_ISO$3
 70
     0
  4
"
 41
2.5
 42
1.0
 43
10.0
 44
1.0
 47
0.1
 48
0.1
 73
     0
 77
     1
 78
     8
 79
     2
140
3.5
141
0.0
143
0.0393701
146
0.71
147
1.5
176
   256
177
   256
178
     2
271
     2
272
     3
274
     4
283
     0
284
     8
288
     1
289
     0
340
187
371
    -1
372
    -1
  0
DIMSTYLE
105
32A
330
182
100
AcDbSymbolTableRecord
100
AcDbDimStyleTableRecord
  2
AM_ISO$4
 70
     0
  4
"
 41
2.5
 42
1.0
 43
10.0
 44
1.0
 47
0.1
 48
0.1
 73
     0
 77
     1
 78
     8
 79
     2
140
3.5
141
0.0
143
0.0393701
146
0.71
147
1.5
176
   256
177
   256
178
     2
271
     2
272
     3
274
     4
283
     0
284
     8
288
     1
289
     0
340
187
371
    -1
372
    -1
  0
DIMSTYLE
105
32B
330
182
100
AcDbSymbolTableRecord
100
AcDbDimStyleTableRecord
  2
AM_ISO$6
 70
     0
  4
"
 41
2.5
 42
1.0
 43
10.0
 44
1.0
 47
0.1
 48
0.1
 73
     0
 74
     0
 78
     8
 79
     2
140
3.5
141
0.0
143
0.0393701
146
0.71
147
1.5
172
     1
176
   256
177
   256
178
     2
271
     2
272
     3
274
     4
283
     0
284
     8
340
187
371
    -1
372
    -1
  0
DIMSTYLE
105
32C
330
182
100
AcDbSymbolTableRecord
100
AcDbDimStyleTableRecord
  2
AM_ISO$7
 70
     0
  4
"
 41
2.5
 42
1.0
 43
10.0
 44
1.0
 47
0.1
 48
0.1
 73
     0
 74
     0
 77
     1
 78
     8
 79
     2
140
5.0
141
0.0
143
0.0393701
146
0.71
147
1.5
172
     1
176
   256
177
   256
178
     2
271
     2
272
     3
274
     4
283
     0
284
     8
340
187
371
    -1
372
    -1
  0
DIMSTYLE
105
32D
330
182
100
AcDbSymbolTableRecord
100
AcDbDimStyleTableRecord
  2
AM_ISO$SF
 70
     0
  4
"
 41
2.5
 42
1.0
 43
10.0
 44
1.0
 47
0.1
 48
0.1
 73
     0
 74
     0
 75
     1
 76
     1
 77
     1
 78
     8
 79
     2
140
3.5
141
0.0
143
0.0393701
146
0.71
147
1.5
172
     1
176
   256
177
   256
178
     2
271
     2
272
     3
274
     4
283
     0
284
     8
340
187
371
    -1
372
    -1
  0
DIMSTYLE
105
32E
330
182
100
AcDbSymbolTableRecord
100
AcDbDimStyleTableRecord
  2
AM_ISO$SH
 70
     0
  4
"
 41
2.5
 42
1.0
 43
10.0
 44
1.0
 47
0.1
 48
0.1
 73
     0
 74
     0
 75
     1
 76
     1
 77
     1
 78
     8
 79
     2
140
3.5
141
0.0
143
0.0393701
144
2.0
146
0.71
147
1.5
172
     1
173
     1
176
   256
177
   256
178
     2
271
     2
272
     3
274
     4
283
     0
284
     8
340
187
343
2F3
371
    -1
372
    -1
  0
ENDTAB
  0
TABLE
  2
BLOCK_RECORD
  5
179
330
0
100
AcDbSymbolTable
 70
    24
  0
BLOCK_RECORD
  5
18F
102
{ACAD_XDICTIONARY
360
5C9
102
}
330
179
100
AcDbSymbolTableRecord
100
AcDbBlockTableRecord
  2
*MODEL_SPACE
340
1B8
  0
BLOCK_RECORD
  5
18C
330
179
100
AcDbSymbolTableRecord
100
AcDbBlockTableRecord
  2
*PAPER_SPACE
340
1B9
  0
BLOCK_RECORD
  5
194
330
179
100
AcDbSymbolTableRecord
100
AcDbBlockTableRecord
  2
WAKU
340
0
  0
BLOCK_RECORD
  5
195
330
179
100
AcDbSymbolTableRecord
100
AcDbBlockTableRecord
  2
QQ
340
0
  0
BLOCK_RECORD
  5
26A
330
179
100
AcDbSymbolTableRecord
100
AcDbBlockTableRecord
  2
*U2
340
0
  0
BLOCK_RECORD
  5
29A
330
179
100
AcDbSymbolTableRecord
100
AcDbBlockTableRecord
  2
A$C48191F28
340
0
102
{BLKREFS
331
34E
331
40E
102
}
  0
BLOCK_RECORD
  5
2A0
330
179
100
AcDbSymbolTableRecord
100
AcDbBlockTableRecord
  2
*D4
340
0
  0
BLOCK_RECORD
  5
2AD
330
179
100
AcDbSymbolTableRecord
100
AcDbBlockTableRecord
  2
*D5
340
0
  0
BLOCK_RECORD
  5
2BA
330
179
100
AcDbSymbolTableRecord
100
AcDbBlockTableRecord
  2
A$C40DA09EE
340
0
102
{BLKREFS
331
3AC
331
3B9
331
3D4
331
46C
331
479
331
494
102
}
  0
BLOCK_RECORD
  5
2C2
330
179
100
AcDbSymbolTableRecord
100
AcDbBlockTableRecord
  2
A$C51F96177
340
0
102
{BLKREFS
331
3A3
331
463
102
}
  0
BLOCK_RECORD
  5
2CC
330
179
100
AcDbSymbolTableRecord
100
AcDbBlockTableRecord
  2
*D8
340
0
  0
BLOCK_RECORD
  5
2D9
330
179
100
AcDbSymbolTableRecord
100
AcDbBlockTableRecord
  2
*D9
340
0
  0
BLOCK_RECORD
  5
2E6
330
179
100
AcDbSymbolTableRecord
100
AcDbBlockTableRecord
  2
*D10
340
0
  0
BLOCK_RECORD
  5
2F3
330
179
100
AcDbSymbolTableRecord
100
AcDbBlockTableRecord
  2
GENAXEH
340
0
  0
BLOCK_RECORD
  5
2F7
330
179
100
AcDbSymbolTableRecord
100
AcDbBlockTableRecord
  2
*D12
340
0
  0
BLOCK_RECORD
  5
304
330
179
100
AcDbSymbolTableRecord
100
AcDbBlockTableRecord
  2
*D13
340
0
  0
BLOCK_RECORD
  5
311
330
179
100
AcDbSymbolTableRecord
100
AcDbBlockTableRecord
  2
*D14
340
0
  0
BLOCK_RECORD
  5
497
330
179
100
AcDbSymbolTableRecord
100
AcDbBlockTableRecord
  2
*D16
340
0
  0
BLOCK_RECORD
  5
4A4
330
179
100
AcDbSymbolTableRecord
100
AcDbBlockTableRecord
  2
*D17
340
0
  0
BLOCK_RECORD
  5
4B1
330
179
100
AcDbSymbolTableRecord
100
AcDbBlockTableRecord
  2
*D18
340
0
  0
BLOCK_RECORD
  5
4BE
330
179
100
AcDbSymbolTableRecord
100
AcDbBlockTableRecord
  2
*D19
340
0
  0
BLOCK_RECORD
  5
4CB
330
179
100
AcDbSymbolTableRecord
100
AcDbBlockTableRecord
  2
*D20
340
0
  0
BLOCK_RECORD
  5
4D8
330
179
100
AcDbSymbolTableRecord
100
AcDbBlockTableRecord
  2
*D21
340
0
  0
BLOCK_RECORD
  5
4E4
330
179
100
AcDbSymbolTableRecord
100
AcDbBlockTableRecord
  2
*D22
340
0
  0
BLOCK_RECORD
  5
4F0
330
179
100
AcDbSymbolTableRecord
100
AcDbBlockTableRecord
  2
*D23
340
0
  0
ENDTAB
  0
ENDSEC
  0
SECTION
  2
BLOCKS
  0
BLOCK
  5
1A5
330
18F
100
AcDbEntity
  8
0
100
AcDbBlockBegin
  2
*MODEL_SPACE
 70
     0
 10
0.0
 20
0.0
 30
0.0
  3
*MODEL_SPACE
  1

  0
ENDBLK
  5
1A6
330
18F
100
AcDbEntity
  8
0
100
AcDbBlockEnd
  0
BLOCK
  5
1A3
330
18C
100
AcDbEntity
 67
     1
  8
0
100
AcDbBlockBegin
  2
*PAPER_SPACE
 70
     0
 10
0.0
 20
0.0
 30
0.0
  3
*PAPER_SPACE
  1

  0
ENDBLK
  5
1A4
330
18C
100
AcDbEntity
 67
     1
  8
0
100
AcDbBlockEnd
  0
BLOCK
  5
2E
330
194
100
AcDbEntity
  8
0
100
AcDbBlockBegin
  2
WAKU
 70
     0
 10
549.0
 20
0.0
 30
0.0
  3
WAKU
  1

  0
LINE
  5
2F
330
194
100
AcDbEntity
  8
11
100
AcDbLine
 10
452.0
 20
12.0
 30
0.0
 11
549.0
 21
12.0
 31
0.0
  0
LINE
  5
30
330
194
100
AcDbEntity
  8
11
100
AcDbLine
 10
477.0
 20
0.0
 30
0.0
 11
477.0
 21
12.0
 31
0.0
  0
LINE
  5
31
330
194
100
AcDbEntity
  8
11
100
AcDbLine
 10
452.0
 20
12.0
 30
0.0
 11
452.0
 21
0.0
 31
0.0
  0
TEXT
  5
32
330
194
100
AcDbEntity
  8
11
100
AcDbText
 10
454.0
 20
8.5
 30
0.0
 40
2.5
  1
尺度
100
AcDbText
  0
TEXT
  5
33
330
194
100
AcDbEntity
  8
11
100
AcDbText
 10
479.0
 20
8.5
 30
0.0
 40
2.5
  1
図番
100
AcDbText
  0
ENDBLK
  5
34
330
194
100
AcDbEntity
  8
0
100
AcDbBlockEnd
  0
BLOCK
  5
35
330
195
100
AcDbEntity
  8
0
100
AcDbBlockBegin
  2
QQ
 70
     0
 10
270.0
 20
0.0
 30
0.0
  3
QQ
  1

  0
LINE
  5
36
330
195
100
AcDbEntity
  8
11
100
AcDbLine
 10
173.0
 20
36.0
 30
0.0
 11
270.0
 21
36.0
 31
0.0
  0
TEXT
  5
37
330
195
100
AcDbEntity
  8
11
100
AcDbText
 10
175.0
 20
32.5
 30
0.0
 40
2.5
  1
部品名称
100
AcDbText
  0
LINE
  5
38
330
195
100
AcDbEntity
  8
11
100
AcDbLine
 10
173.0
 20
36.0
 30
0.0
 11
173.0
 21
0.0
 31
0.0
  0
LINE
  5
39
330
195
100
AcDbEntity
  8
11
100
AcDbLine
 10
173.0
 20
24.0
 30
0.0
 11
270.0
 21
24.0
 31
0.0
  0
TEXT
  5
3A
330
195
100
AcDbEntity
  8
11
100
AcDbText
 10
175.0
 20
20.5
 30
0.0
 40
2.5
  1
品番
100
AcDbText
  0
LINE
  5
3B
330
195
100
AcDbEntity
  8
11
100
AcDbLine
 10
173.0
 20
12.0
 30
0.0
 11
270.0
 21
12.0
 31
0.0
  0
TEXT
  5
3C
330
195
100
AcDbEntity
  8
11
100
AcDbText
 10
175.0
 20
8.5
 30
0.0
 40
2.5
  1
尺度
100
AcDbText
  0
TEXT
  5
3D
330
195
100
AcDbEntity
  8
11
100
AcDbText
 10
200.0
 20
8.5
 30
0.0
 40
2.5
  1
図番
100
AcDbText
  0
LINE
  5
3E
330
195
100
AcDbEntity
  8
11
100
AcDbLine
 10
198.0
 20
0.0
 30
0.0
 11
198.0
 21
12.0
 31
0.0
  0
ENDBLK
  5
3F
330
195
100
AcDbEntity
  8
0
100
AcDbBlockEnd
  0
BLOCK
  5
26B
330
26A
100
AcDbEntity
  8
0
100
AcDbBlockBegin
  2
*U2
 70
     1
 10
0.0
 20
0.0
 30
0.0
  3
*U2
  1

  0
ENDBLK
  5
26C
330
26A
100
AcDbEntity
  8
0
100
AcDbBlockEnd
  0
BLOCK
  5
29E
330
29A
100
AcDbEntity
  8
0
100
AcDbBlockBegin
  2
A$C48191F28
 70
     0
 10
0.0
 20
0.0
 30
0.0
  3
A$C48191F28
  1

  0
LWPOLYLINE
  5
29B
330
29A
100
AcDbEntity
  8
0
100
AcDbPolyline
 90
        4
 70
     1
 43
0.0
 10
-0.0000003070085768
 20
13.49999982131407
 10
52.99999969299142
 20
13.49999982131407
 10
52.99999969299142
 20
-0.0000001786859229
 10
-0.0000003070085768
 20
-0.0000001786859229
  0
TEXT
  5
29C
330
29A
100
AcDbEntity
  8
0
100
AcDbText
 10
1.999999692991423
 20
0.999999821314077
 30
0.0
 40
5.0
  1
にて完全除去のこと。
 41
0.8
  7
BIGFONT
100
AcDbText
  0
TEXT
  5
29D
330
29A
100
AcDbEntity
  8
0
100
AcDbText
 10
1.999999692991423
 20
6.999999821314077
 30
0.0
 40
5.0
  1
内側鋳バリはｸﾞﾗｲﾝﾀﾞｰ等
 41
0.8
  7
BIGFONT
100
AcDbText
  0
ENDBLK
  5
29F
330
29A
100
AcDbEntity
  8
0
100
AcDbBlockEnd
  0
BLOCK
  5
2AB
330
2A0
100
AcDbEntity
  8
0
100
AcDbBlockBegin
  2
*D4
 70
     1
 10
0.0
 20
0.0
 30
0.0
  3
*D4
  1

  0
LINE
  5
2A1
330
2A0
100
AcDbEntity
  8
0
 62
     0
370
    -2
100
AcDbLine
 10
286.6693027768208
 20
171.9099199094461
 30
0.0
 11
286.6693027768208
 21
208.6922073571394
 31
0.0
  0
LINE
  5
2A2
330
2A0
100
AcDbEntity
  8
0
 62
     0
370
    -2
100
AcDbLine
 10
326.6693027768208
 20
168.9099199094461
 30
0.0
 11
326.6693027768208
 21
208.6922073571394
 31
0.0
  0
LINE
  5
2A3
330
2A0
100
AcDbEntity
  8
0
 62
     0
370
    -2
100
AcDbLine
 10
289.1693027768208
 20
207.6922073571394
 30
0.0
 11
304.743333705518
 21
207.6922073571394
 31
0.0
  0
LINE
  5
2A4
330
2A0
100
AcDbEntity
  8
0
 62
     0
370
    -2
100
AcDbLine
 10
324.1693027768208
 20
207.6922073571394
 30
0.0
 11
313.493333705518
 21
207.6922073571394
 31
0.0
  0
SOLID
  5
2A5
330
2A0
100
AcDbEntity
  8
0
 62
     0
100
AcDbTrace
 10
289.1693027768208
 20
208.108874023806
 30
0.0
 11
289.1693027768208
 21
207.2755406904727
 31
0.0
 12
286.6693027768208
 22
207.6922073571394
 32
0.0
 13
286.6693027768208
 23
207.6922073571394
 33
0.0
  0
SOLID
  5
2A6
330
2A0
100
AcDbEntity
  8
0
 62
     0
100
AcDbTrace
 10
324.1693027768208
 20
208.108874023806
 30
0.0
 11
324.1693027768208
 21
207.2755406904727
 31
0.0
 12
326.6693027768208
 22
207.6922073571394
 32
0.0
 13
326.6693027768208
 23
207.6922073571394
 33
0.0
  0
MTEXT
  5
2A7
330
2A0
100
AcDbEntity
  8
0
 62
     0
100
AcDbMText
 10
309.118333705518
 20
207.6922073571394
 30
0.0
 40
5.0
 41
0.0
 71
     5
 72
     1
  1
\A1;40
 73
     1
 44
1.0
  0
POINT
  5
2A8
330
2A0
100
AcDbEntity
  8
DEFPOINTS
 62
     0
100
AcDbPoint
 10
286.6693027768208
 20
170.9099199094461
 30
0.0
  0
POINT
  5
2A9
330
2A0
100
AcDbEntity
  8
DEFPOINTS
 62
     0
100
AcDbPoint
 10
326.6693027768208
 20
167.909919909446
 30
0.0
  0
POINT
  5
2AA
330
2A0
100
AcDbEntity
  8
DEFPOINTS
 62
     0
100
AcDbPoint
 10
326.6693027768208
 20
207.6922073571394
 30
0.0
  0
ENDBLK
  5
2AC
330
2A0
100
AcDbEntity
  8
0
100
AcDbBlockEnd
  0
BLOCK
  5
2B8
330
2AD
100
AcDbEntity
  8
0
100
AcDbBlockBegin
  2
*D5
 70
     1
 10
0.0
 20
0.0
 30
0.0
  3
*D5
  1

  0
LINE
  5
2AE
330
2AD
100
AcDbEntity
  8
0
 62
     0
370
    -2
100
AcDbLine
 10
308.6693027768208
 20
174.4099199094461
 30
0.0
 11
308.6693027768208
 21
195.7152140185666
 31
0.0
  0
LINE
  5
2AF
330
2AD
100
AcDbEntity
  8
0
 62
     0
370
    -2
100
AcDbLine
 10
326.6693027768208
 20
168.9099199094461
 30
0.0
 11
326.6693027768208
 21
195.7152140185666
 31
0.0
  0
LINE
  5
2B0
330
2AD
100
AcDbEntity
  8
0
 62
     0
370
    -2
100
AcDbLine
 10
311.1693027768207
 20
194.7152140185665
 30
0.0
 11
314.4159832616579
 21
194.7152140185665
 31
0.0
  0
LINE
  5
2B1
330
2AD
100
AcDbEntity
  8
0
 62
     0
370
    -2
100
AcDbLine
 10
324.1693027768208
 20
194.7152140185665
 30
0.0
 11
322.3326499283245
 21
194.7152140185665
 31
0.0
  0
SOLID
  5
2B2
330
2AD
100
AcDbEntity
  8
0
 62
     0
100
AcDbTrace
 10
311.1693027768207
 20
195.1318806852332
 30
0.0
 11
311.1693027768207
 21
194.2985473518999
 31
0.0
 12
308.6693027768208
 22
194.7152140185665
 32
0.0
 13
308.6693027768208
 23
194.7152140185665
 33
0.0
  0
SOLID
  5
2B3
330
2AD
100
AcDbEntity
  8
0
 62
     0
100
AcDbTrace
 10
324.1693027768208
 20
195.1318806852332
 30
0.0
 11
324.1693027768208
 21
194.2985473518999
 31
0.0
 12
326.6693027768208
 22
194.7152140185665
 32
0.0
 13
326.6693027768208
 23
194.7152140185665
 33
0.0
  0
MTEXT
  5
2B4
330
2AD
100
AcDbEntity
  8
0
 62
     0
100
AcDbMText
 10
318.3743165949912
 20
194.7152140185665
 30
0.0
 40
5.0
 41
0.0
 71
     5
 72
     1
  1
\A1;18
 73
     1
 44
1.0
  0
POINT
  5
2B5
330
2AD
100
AcDbEntity
  8
DEFPOINTS
 62
     0
100
AcDbPoint
 10
308.6693027768208
 20
173.409919909446
 30
0.0
  0
POINT
  5
2B6
330
2AD
100
AcDbEntity
  8
DEFPOINTS
 62
     0
100
AcDbPoint
 10
326.6693027768208
 20
167.909919909446
 30
0.0
  0
POINT
  5
2B7
330
2AD
100
AcDbEntity
  8
DEFPOINTS
 62
     0
100
AcDbPoint
 10
326.6693027768208
 20
194.7152140185665
 30
0.0
  0
ENDBLK
  5
2B9
330
2AD
100
AcDbEntity
  8
0
100
AcDbBlockEnd
  0
BLOCK
  5
2C0
330
2BA
100
AcDbEntity
  8
0
100
AcDbBlockBegin
  2
A$C40DA09EE
 70
     0
 10
0.0
 20
0.0
 30
0.0
  3
A$C40DA09EE
  1

  0
LINE
  5
2BB
330
2BA
100
AcDbEntity
  8
5
100
AcDbLine
 10
5.499999905862296
 20
0.0000003178982979
 30
0.0
 11
3.499999905862296
 21
2.500000317898297
 31
0.0
  0
LINE
  5
2BC
330
2BA
100
AcDbEntity
  8
5
100
AcDbLine
 10
-0.0000000941377039
 20
2.500000317898297
 30
0.0
 11
6.999999905862296
 21
2.500000317898297
 31
0.0
  0
LINE
  5
2BD
330
2BA
100
AcDbEntity
  8
5
100
AcDbLine
 10
3.499999905862296
 20
2.500000317898297
 30
0.0
 11
1.999999905862296
 21
0.0000003178982979
 31
0.0
  0
LINE
  5
2BE
330
2BA
100
AcDbEntity
  8
5
100
AcDbLine
 10
1.999999905862296
 20
0.0000003178982979
 30
0.0
 11
-0.0000000941377039
 21
2.500000317898297
 31
0.0
  0
LINE
  5
2BF
330
2BA
100
AcDbEntity
  8
5
100
AcDbLine
 10
6.999999905862296
 20
2.500000317898297
 30
0.0
 11
5.499999905862296
 21
0.0000003178982979
 31
0.0
  0
ENDBLK
  5
2C1
330
2BA
100
AcDbEntity
  8
0
100
AcDbBlockEnd
  0
BLOCK
  5
2CA
330
2C2
100
AcDbEntity
  8
0
100
AcDbBlockBegin
  2
A$C51F96177
 70
     0
 10
0.0
 20
0.0
 30
0.0
  3
A$C51F96177
  1

  0
TEXT
  5
2C3
330
2C2
100
AcDbEntity
  8
0
100
AcDbText
 10
-0.0000003475778101
 20
23.70000031789828
 30
0.0
 40
4.0
  1
面取り
 41
0.8
  7
BIGFONT
100
AcDbText
  0
LINE
  5
2C4
330
2C2
100
AcDbEntity
  8
0
100
AcDbLine
 10
13.09999965242218
 20
26.50000031789829
 30
0.0
 11
16.09999965242218
 21
32.0000003178983
 31
0.0
  0
LINE
  5
2C5
330
2C2
100
AcDbEntity
  8
0
100
AcDbLine
 10
13.09999965242218
 20
32.0000003178983
 30
0.0
 11
13.09999965242218
 21
26.50000031789829
 31
0.0
  0
LINE
  5
2C6
330
2C2
100
AcDbEntity
  8
0
100
AcDbLine
 10
16.09999965242218
 20
32.0000003178983
 30
0.0
 11
13.09999965242218
 21
32.0000003178983
 31
0.0
  0
TEXT
  5
2C7
330
2C2
100
AcDbEntity
  8
0
100
AcDbText
 10
11.53999965242218
 20
28.92000031789831
 30
0.0
 40
1.6
  1
2
 41
0.8
  7
BIGFONT
100
AcDbText
  0
TEXT
  5
2C8
330
2C2
100
AcDbEntity
  8
0
100
AcDbText
 10
14.53999965242218
 20
32.3400003178983
 30
0.0
 40
1.6
  1
1
 41
0.8
  7
BIGFONT
100
AcDbText
  0
LEADER
  5
2C9
330
2C2
100
AcDbEntity
  8
0
100
AcDbLeader
  3
STANDARD
 76
     3
 10
48.59999965242218
 20
0.0000003178982979
 30
0.0
 10
18.59999965242218
 20
25.5000003178983
 30
0.0
 10
15.59999965242218
 20
25.5000003178983
 30
0.0
1001
ACAD
1000
DSTYLE
1002
{
1070
    40
1040
1.0
1070
    41
1040
2.0
1070
    42
1040
2.0
1070
   140
1040
4.0
1002
}
  0
ENDBLK
  5
2CB
330
2C2
100
AcDbEntity
  8
0
100
AcDbBlockEnd
  0
BLOCK
  5
2D7
330
2CC
100
AcDbEntity
  8
0
100
AcDbBlockBegin
  2
*D8
 70
     1
 10
0.0
 20
0.0
 30
0.0
  3
*D8
  1

  0
LINE
  5
2CD
330
2CC
100
AcDbEntity
  8
0
 62
     0
370
    -2
100
AcDbLine
 10
260.1693027768208
 20
243.9099199094461
 30
0.0
 11
257.1442651435605
 21
243.9099199094461
 31
0.0
  0
LINE
  5
2CE
330
2CC
100
AcDbEntity
  8
0
 62
     0
370
    -2
100
AcDbLine
 10
258.6693027768208
 20
148.9099199094461
 30
0.0
 11
259.1442651435605
 21
148.9099199094461
 31
0.0
  0
LINE
  5
2CF
330
2CC
100
AcDbEntity
  8
0
 62
     0
370
    -2
100
AcDbLine
 10
258.1442651435605
 20
241.4099199094461
 30
0.0
 11
258.1442651435605
 21
226.8509350740257
 31
0.0
  0
LINE
  5
2D0
330
2CC
100
AcDbEntity
  8
0
 62
     0
370
    -2
100
AcDbLine
 10
258.1442651435605
 20
151.409919909446
 30
0.0
 11
258.1442651435605
 21
217.2676017406924
 31
0.0
  0
SOLID
  5
2D1
330
2CC
100
AcDbEntity
  8
0
 62
     0
100
AcDbTrace
 10
257.7275984768938
 20
241.4099199094461
 30
0.0
 11
258.5609318102271
 21
241.4099199094461
 31
0.0
 12
258.1442651435605
 22
243.9099199094461
 32
0.0
 13
258.1442651435605
 23
243.9099199094461
 33
0.0
  0
SOLID
  5
2D2
330
2CC
100
AcDbEntity
  8
0
 62
     0
100
AcDbTrace
 10
257.7275984768938
 20
151.409919909446
 30
0.0
 11
258.5609318102271
 21
151.409919909446
 31
0.0
 12
258.1442651435605
 22
148.9099199094461
 32
0.0
 13
258.1442651435605
 23
148.9099199094461
 33
0.0
  0
MTEXT
  5
2D3
330
2CC
100
AcDbEntity
  8
0
 62
     0
100
AcDbMText
 10
258.1442651435604
 20
222.0592684073591
 30
0.0
 40
5.0
 41
0.0
 71
     5
 72
     1
  1
\A1;95
 11
0.0000000000000001
 21
1.0
 31
0.0
 73
     1
 44
1.0
  0
POINT
  5
2D4
330
2CC
100
AcDbEntity
  8
DEFPOINTS
 62
     0
100
AcDbPoint
 10
261.1693027768207
 20
243.9099199094461
 30
0.0
  0
POINT
  5
2D5
330
2CC
100
AcDbEntity
  8
DEFPOINTS
 62
     0
100
AcDbPoint
 10
257.6693027768208
 20
148.9099199094461
 30
0.0
  0
POINT
  5
2D6
330
2CC
100
AcDbEntity
  8
DEFPOINTS
 62
     0
100
AcDbPoint
 10
258.1442651435605
 20
148.9099199094461
 30
0.0
  0
ENDBLK
  5
2D8
330
2CC
100
AcDbEntity
  8
0
100
AcDbBlockEnd
  0
BLOCK
  5
2E4
330
2D9
100
AcDbEntity
  8
0
100
AcDbBlockBegin
  2
*D9
 70
     1
 10
0.0
 20
0.0
 30
0.0
  3
*D9
  1

  0
LINE
  5
2DA
330
2D9
100
AcDbEntity
  8
0
 62
     0
370
    -2
100
AcDbLine
 10
324.6693027768208
 20
170.9099199094461
 30
0.0
 11
348.9539798003452
 21
170.9099199094461
 31
0.0
  0
LINE
  5
2DB
330
2D9
100
AcDbEntity
  8
0
 62
     0
370
    -2
100
AcDbLine
 10
324.6693027768208
 20
126.9099199094461
 30
0.0
 11
348.9539798003452
 21
126.9099199094461
 31
0.0
  0
LINE
  5
2DC
330
2D9
100
AcDbEntity
  8
0
 62
     0
370
    -2
100
AcDbLine
 10
347.9539798003453
 20
168.4099199094461
 30
0.0
 11
347.9539798003453
 21
156.2121823709679
 31
0.0
  0
LINE
  5
2DD
330
2D9
100
AcDbEntity
  8
0
 62
     0
370
    -2
100
AcDbLine
 10
347.9539798003453
 20
129.409919909446
 30
0.0
 11
347.9539798003453
 21
141.6288490376346
 31
0.0
  0
SOLID
  5
2DE
330
2D9
100
AcDbEntity
  8
0
 62
     0
100
AcDbTrace
 10
347.5373131336786
 20
168.4099199094461
 30
0.0
 11
348.3706464670119
 21
168.4099199094461
 31
0.0
 12
347.9539798003453
 22
170.9099199094461
 32
0.0
 13
347.9539798003453
 23
170.9099199094461
 33
0.0
  0
SOLID
  5
2DF
330
2D9
100
AcDbEntity
  8
0
 62
     0
100
AcDbTrace
 10
347.5373131336786
 20
129.409919909446
 30
0.0
 11
348.3706464670119
 21
129.409919909446
 31
0.0
 12
347.9539798003452
 22
126.9099199094461
 32
0.0
 13
347.9539798003452
 23
126.9099199094461
 33
0.0
  0
MTEXT
  5
2E0
330
2D9
100
AcDbEntity
  8
0
 62
     0
100
AcDbMText
 10
347.9539798003452
 20
148.9205157043013
 30
0.0
 40
5.0
 41
0.0
 71
     5
 72
     1
  1
\A1;%%C45
 11
0.0000000000000001
 21
1.0
 31
0.0
 73
     1
 44
1.0
  0
POINT
  5
2E1
330
2D9
100
AcDbEntity
  8
DEFPOINTS
 62
     0
100
AcDbPoint
 10
323.6693027768207
 20
170.9099199094461
 30
0.0
  0
POINT
  5
2E2
330
2D9
100
AcDbEntity
  8
DEFPOINTS
 62
     0
100
AcDbPoint
 10
323.6693027768207
 20
126.9099199094461
 30
0.0
  0
POINT
  5
2E3
330
2D9
100
AcDbEntity
  8
DEFPOINTS
 62
     0
100
AcDbPoint
 10
347.9539798003452
 20
126.9099199094461
 30
0.0
  0
ENDBLK
  5
2E5
330
2D9
100
AcDbEntity
  8
0
100
AcDbBlockEnd
  0
BLOCK
  5
2F1
330
2E6
100
AcDbEntity
  8
0
100
AcDbBlockBegin
  2
*D10
 70
     1
 10
0.0
 20
0.0
 30
0.0
  3
*D10
  1

  0
LINE
  5
2E7
330
2E6
100
AcDbEntity
  8
0
 62
     0
370
    -2
100
AcDbLine
 10
285.6693027768208
 20
170.9099199094461
 30
0.0
 11
248.9490545101233
 21
170.9099199094461
 31
0.0
  0
LINE
  5
2E8
330
2E6
100
AcDbEntity
  8
0
 62
     0
370
    -2
100
AcDbLine
 10
285.6693027768208
 20
126.9099199094461
 30
0.0
 11
248.9490545101233
 21
126.9099199094461
 31
0.0
  0
LINE
  5
2E9
330
2E6
100
AcDbEntity
  8
0
 62
     0
370
    -2
100
AcDbLine
 10
249.9490545101233
 20
168.4099199094461
 30
0.0
 11
249.9490545101233
 21
154.2255789473083
 31
0.0
  0
LINE
  5
2EA
330
2E6
100
AcDbEntity
  8
0
 62
     0
370
    -2
100
AcDbLine
 10
249.9490545101233
 20
129.4099199094461
 30
0.0
 11
249.9490545101233
 21
139.642245613975
 31
0.0
  0
SOLID
  5
2EB
330
2E6
100
AcDbEntity
  8
0
 62
     0
100
AcDbTrace
 10
249.5323878434567
 20
168.4099199094461
 30
0.0
 11
250.36572117679
 21
168.4099199094461
 31
0.0
 12
249.9490545101233
 22
170.9099199094461
 32
0.0
 13
249.9490545101233
 23
170.9099199094461
 33
0.0
  0
SOLID
  5
2EC
330
2E6
100
AcDbEntity
  8
0
 62
     0
100
AcDbTrace
 10
249.5323878434567
 20
129.4099199094461
 30
0.0
 11
250.36572117679
 21
129.4099199094461
 31
0.0
 12
249.9490545101233
 22
126.9099199094461
 32
0.0
 13
249.9490545101233
 23
126.9099199094461
 33
0.0
  0
MTEXT
  5
2ED
330
2E6
100
AcDbEntity
  8
0
 62
     0
100
AcDbMText
 10
249.9490545101233
 20
146.9339122806417
 30
0.0
 40
5.0
 41
0.0
 71
     5
 72
     1
  1
\A1;%%C44
 11
0.0000000000000001
 21
1.0
 31
0.0
 73
     1
 44
1.0
  0
POINT
  5
2EE
330
2E6
100
AcDbEntity
  8
DEFPOINTS
 62
     0
100
AcDbPoint
 10
286.6693027768208
 20
170.9099199094461
 30
0.0
  0
POINT
  5
2EF
330
2E6
100
AcDbEntity
  8
DEFPOINTS
 62
     0
100
AcDbPoint
 10
286.6693027768208
 20
126.9099199094461
 30
0.0
  0
POINT
  5
2F0
330
2E6
100
AcDbEntity
  8
DEFPOINTS
 62
     0
100
AcDbPoint
 10
249.9490545101233
 20
126.9099199094461
 30
0.0
  0
ENDBLK
  5
2F2
330
2E6
100
AcDbEntity
  8
0
100
AcDbBlockEnd
  0
BLOCK
  5
2F5
330
2F3
100
AcDbEntity
  8
0
100
AcDbBlockBegin
  2
GENAXEH
 70
     0
 10
0.0
 20
0.0
 30
0.0
  3
GENAXEH
  1

  0
LINE
  5
2F4
330
2F3
100
AcDbEntity
  8
0
100
AcDbLine
 10
-1.0
 20
0.0
 30
0.0
 11
1.0
 21
0.0
 31
0.0
  0
ENDBLK
  5
2F6
330
2F3
100
AcDbEntity
  8
0
100
AcDbBlockEnd
  0
BLOCK
  5
302
330
2F7
100
AcDbEntity
  8
0
100
AcDbBlockBegin
  2
*D12
 70
     1
 10
0.0
 20
0.0
 30
0.0
  3
*D12
  1

  0
LINE
  5
2F8
330
2F7
100
AcDbEntity
  8
0
 62
     0
370
    -2
100
AcDbLine
 10
277.6693027768208
 20
260.909919909446
 30
0.0
 11
225.1553624015506
 21
260.909919909446
 31
0.0
  0
LINE
  5
2F9
330
2F7
100
AcDbEntity
  8
0
 62
     0
370
    -2
100
AcDbLine
 10
277.6693027768208
 20
36.9099199094461
 30
0.0
 11
225.1553624015506
 21
36.90991990944612
 31
0.0
  0
LINE
  5
2FA
330
2F7
100
AcDbEntity
  8
0
 62
     0
370
    -2
100
AcDbLine
 10
226.1553624015506
 20
258.4099199094461
 30
0.0
 11
226.1553624015506
 21
162.0351953544782
 31
0.0
  0
LINE
  5
2FB
330
2F7
100
AcDbEntity
  8
0
 62
     0
370
    -2
100
AcDbLine
 10
226.1553624015506
 20
39.40991990944612
 30
0.0
 11
226.1553624015506
 21
142.4518620211449
 31
0.0
  0
SOLID
  5
2FC
330
2F7
100
AcDbEntity
  8
0
 62
     0
100
AcDbTrace
 10
225.738695734884
 20
258.4099199094461
 30
0.0
 11
226.5720290682173
 21
258.4099199094461
 31
0.0
 12
226.1553624015506
 22
260.909919909446
 32
0.0
 13
226.1553624015506
 23
260.909919909446
 33
0.0
  0
SOLID
  5
2FD
330
2F7
100
AcDbEntity
  8
0
 62
     0
100
AcDbTrace
 10
225.7386957348839
 20
39.40991990944612
 30
0.0
 11
226.5720290682172
 21
39.40991990944612
 31
0.0
 12
226.1553624015506
 22
36.90991990944612
 32
0.0
 13
226.1553624015506
 23
36.90991990944612
 33
0.0
  0
MTEXT
  5
2FE
330
2F7
100
AcDbEntity
  8
0
 62
     0
100
AcDbMText
 10
226.1553624015506
 20
152.2435286878116
 30
0.0
 40
5.0
 41
0.0
 71
     5
 72
     1
  1
\A1;%%C224
 11
0.0000000000000001
 21
1.0
 31
0.0
 73
     1
 44
1.0
  0
POINT
  5
2FF
330
2F7
100
AcDbEntity
  8
DEFPOINTS
 62
     0
100
AcDbPoint
 10
278.6693027768208
 20
260.909919909446
 30
0.0
  0
POINT
  5
300
330
2F7
100
AcDbEntity
  8
DEFPOINTS
 62
     0
100
AcDbPoint
 10
278.6693027768208
 20
36.9099199094461
 30
0.0
  0
POINT
  5
301
330
2F7
100
AcDbEntity
  8
DEFPOINTS
 62
     0
100
AcDbPoint
 10
226.1553624015506
 20
36.90991990944612
 30
0.0
  0
ENDBLK
  5
303
330
2F7
100
AcDbEntity
  8
0
100
AcDbBlockEnd
  0
BLOCK
  5
30F
330
304
100
AcDbEntity
  8
0
100
AcDbBlockBegin
  2
*D13
 70
     1
 10
0.0
 20
0.0
 30
0.0
  3
*D13
  1

  0
LINE
  5
305
330
304
100
AcDbEntity
  8
0
 62
     0
370
    -2
100
AcDbLine
 10
107.9999994513339
 20
243.9099199094461
 30
0.0
 11
201.8753271366901
 21
243.909919909446
 31
0.0
  0
LINE
  5
306
330
304
100
AcDbEntity
  8
0
 62
     0
370
    -2
100
AcDbLine
 10
196.0
 20
148.9099199094461
 30
0.0
 11
201.8753271366901
 21
148.9099199094461
 31
0.0
  0
LINE
  5
307
330
304
100
AcDbEntity
  8
0
 62
     0
370
    -2
100
AcDbLine
 10
200.8753271366901
 20
241.409919909446
 30
0.0
 11
200.8753271366901
 21
200.5544240908005
 31
0.0
  0
LINE
  5
308
330
304
100
AcDbEntity
  8
0
 62
     0
370
    -2
100
AcDbLine
 10
200.8753271366901
 20
151.409919909446
 30
0.0
 11
200.8753271366901
 21
190.9710907574672
 31
0.0
  0
SOLID
  5
309
330
304
100
AcDbEntity
  8
0
 62
     0
100
AcDbTrace
 10
200.4586604700234
 20
241.409919909446
 30
0.0
 11
201.2919938033568
 21
241.409919909446
 31
0.0
 12
200.8753271366901
 22
243.909919909446
 32
0.0
 13
200.8753271366901
 23
243.909919909446
 33
0.0
  0
SOLID
  5
30A
330
304
100
AcDbEntity
  8
0
 62
     0
100
AcDbTrace
 10
200.4586604700234
 20
151.409919909446
 30
0.0
 11
201.2919938033567
 21
151.409919909446
 31
0.0
 12
200.8753271366901
 22
148.9099199094461
 32
0.0
 13
200.8753271366901
 23
148.9099199094461
 33
0.0
  0
MTEXT
  5
30B
330
304
100
AcDbEntity
  8
0
 62
     0
100
AcDbMText
 10
200.87532713669
 20
195.7627574241339
 30
0.0
 40
5.0
 41
0.0
 71
     5
 72
     1
  1
\A1;95
 11
0.0000000000000001
 21
1.0
 31
0.0
 73
     1
 44
1.0
  0
POINT
  5
30C
330
304
100
AcDbEntity
  8
DEFPOINTS
 62
     0
100
AcDbPoint
 10
106.9999994513339
 20
243.9099199094461
 30
0.0
  0
POINT
  5
30D
330
304
100
AcDbEntity
  8
DEFPOINTS
 62
     0
100
AcDbPoint
 10
195.0
 20
148.9099199094461
 30
0.0
  0
POINT
  5
30E
330
304
100
AcDbEntity
  8
DEFPOINTS
 62
     0
100
AcDbPoint
 10
200.8753271366901
 20
148.9099199094461
 30
0.0
  0
ENDBLK
  5
310
330
304
100
AcDbEntity
  8
0
100
AcDbBlockEnd
  0
BLOCK
  5
31C
330
311
100
AcDbEntity
  8
0
100
AcDbBlockBegin
  2
*D14
 70
     1
 10
0.0
 20
0.0
 30
0.0
  3
*D14
  1

  0
LINE
  5
312
330
311
100
AcDbEntity
  8
0
 62
     0
370
    -2
100
AcDbLine
 10
266.063377565964
 20
251.9599199094461
 30
0.0
 11
238.6795505555006
 21
251.9599199094461
 31
0.0
  0
LINE
  5
313
330
311
100
AcDbEntity
  8
0
 62
     0
370
    -2
100
AcDbLine
 10
265.6693027768208
 20
235.859919909446
 30
0.0
 11
238.6795505555006
 21
235.859919909446
 31
0.0
  0
LINE
  5
314
330
311
100
AcDbEntity
  8
0
 62
     0
370
    -2
100
AcDbLine
 10
239.6795505555007
 20
254.4599199094461
 30
0.0
 11
239.6795505555007
 21
256.9599199094461
 31
0.0
  0
LINE
  5
315
330
311
100
AcDbEntity
  8
0
 62
     0
370
    -2
100
AcDbLine
 10
239.6795505555007
 20
233.359919909446
 30
0.0
 11
239.6795505555007
 21
230.859919909446
 31
0.0
  0
SOLID
  5
316
330
311
100
AcDbEntity
  8
0
 62
     0
100
AcDbTrace
 10
239.262883888834
 20
254.4599199094461
 30
0.0
 11
240.0962172221673
 21
254.4599199094461
 31
0.0
 12
239.6795505555007
 22
251.9599199094461
 32
0.0
 13
239.6795505555007
 23
251.9599199094461
 33
0.0
  0
SOLID
  5
317
330
311
100
AcDbEntity
  8
0
 62
     0
100
AcDbTrace
 10
239.262883888834
 20
233.359919909446
 30
0.0
 11
240.0962172221673
 21
233.359919909446
 31
0.0
 12
239.6795505555007
 22
235.859919909446
 32
0.0
 13
239.6795505555007
 23
235.859919909446
 33
0.0
  0
MTEXT
  5
318
330
311
100
AcDbEntity
  8
0
 62
     0
100
AcDbMText
 10
239.6795505555006
 20
245.1455166117847
 30
0.0
 40
5.0
 41
0.0
 71
     5
 72
     1
  1
\A1;16.1
 11
0.0000000000000001
 21
1.0
 31
0.0
 73
     1
 44
1.0
  0
POINT
  5
319
330
311
100
AcDbEntity
  8
DEFPOINTS
 62
     0
100
AcDbPoint
 10
267.063377565964
 20
251.9599199094461
 30
0.0
  0
POINT
  5
31A
330
311
100
AcDbEntity
  8
DEFPOINTS
 62
     0
100
AcDbPoint
 10
266.6693027768208
 20
235.859919909446
 30
0.0
  0
POINT
  5
31B
330
311
100
AcDbEntity
  8
DEFPOINTS
 62
     0
100
AcDbPoint
 10
239.6795505555007
 20
235.859919909446
 30
0.0
  0
ENDBLK
  5
31D
330
311
100
AcDbEntity
  8
0
100
AcDbBlockEnd
  0
BLOCK
  5
4A2
330
497
100
AcDbEntity
  8
0
100
AcDbBlockBegin
  2
*D16
 70
     1
 10
0.0
 20
0.0
 30
0.0
  3
*D16
  1

  0
LINE
  5
507
330
497
100
AcDbEntity
  8
0
 62
     0
370
    -2
100
AcDbLine
 10
423.0387096369183
 20
336.8510327581177
 30
0.0
 11
370.4072692616481
 21
336.8510327581178
 31
0.0
  0
LINE
  5
508
330
497
100
AcDbEntity
  8
0
 62
     0
370
    -2
100
AcDbLine
 10
423.0387096369183
 20
112.8510327581177
 30
0.0
 11
370.4072692616481
 21
112.8510327581177
 31
0.0
  0
LINE
  5
509
330
497
100
AcDbEntity
  8
0
 62
     0
370
    -2
100
AcDbLine
 10
370.5872692616482
 20
336.6710327581178
 30
0.0
 11
370.5872692616482
 21
237.2746415364832
 31
0.0
  0
LINE
  5
50A
330
497
100
AcDbEntity
  8
0
 62
     0
370
    -2
100
AcDbLine
 10
370.5872692616481
 20
113.0310327581177
 30
0.0
 11
370.5872692616482
 21
219.0946415364832
 31
0.0
  0
SOLID
  5
50B
330
497
100
AcDbEntity
  8
0
 62
     0
100
AcDbTrace
 10
370.5572692616482
 20
336.6710327581178
 30
0.0
 11
370.6172692616481
 21
336.6710327581178
 31
0.0
 12
370.5872692616482
 22
336.8510327581178
 32
0.0
 13
370.5872692616482
 23
336.8510327581178
 33
0.0
  0
SOLID
  5
50C
330
497
100
AcDbEntity
  8
0
 62
     0
100
AcDbTrace
 10
370.5572692616481
 20
113.0310327581177
 30
0.0
 11
370.6172692616481
 21
113.0310327581177
 31
0.0
 12
370.5872692616481
 22
112.8510327581177
 32
0.0
 13
370.5872692616481
 23
112.8510327581177
 33
0.0
  0
MTEXT
  5
50D
330
497
100
AcDbEntity
  8
0
 62
     0
100
AcDbMText
 10
370.5872692616481
 20
228.1846415364833
 30
0.0
 40
18.0
 41
0.0
 71
     5
 72
     1
  1
\A1;%%C224
  7
BIGFONT
 73
     1
 44
1.0
  0
POINT
  5
50E
330
497
100
AcDbEntity
  8
DEFPOINTS
 62
     0
100
AcDbPoint
 10
423.1012096369183
 20
336.8510327581177
 30
0.0
  0
POINT
  5
50F
330
497
100
AcDbEntity
  8
DEFPOINTS
 62
     0
100
AcDbPoint
 10
423.1012096369183
 20
112.8510327581177
 30
0.0
  0
POINT
  5
510
330
497
100
AcDbEntity
  8
DEFPOINTS
 62
     0
100
AcDbPoint
 10
370.5872692616481
 20
112.8510327581177
 30
0.0
  0
ENDBLK
  5
4A3
330
497
100
AcDbEntity
  8
0
100
AcDbBlockEnd
  0
BLOCK
  5
4AF
330
4A4
100
AcDbEntity
  8
0
100
AcDbBlockBegin
  2
*D17
 70
     1
 10
0.0
 20
0.0
 30
0.0
  3
*D17
  1

  0
LINE
  5
51B
330
4A4
100
AcDbEntity
  8
0
 62
     0
370
    -2
100
AcDbLine
 10
431.0387096369183
 20
246.8510327581177
 30
0.0
 11
394.2009613702209
 21
246.8510327581177
 31
0.0
  0
LINE
  5
51C
330
4A4
100
AcDbEntity
  8
0
 62
     0
370
    -2
100
AcDbLine
 10
431.0387096369183
 20
202.8510327581177
 30
0.0
 11
394.2009613702209
 21
202.8510327581177
 31
0.0
  0
LINE
  5
51D
330
4A4
100
AcDbEntity
  8
0
 62
     0
370
    -2
100
AcDbLine
 10
394.3809613702209
 20
246.6710327581177
 30
0.0
 11
394.3809613702209
 21
231.9650251293132
 31
0.0
  0
LINE
  5
51E
330
4A4
100
AcDbEntity
  8
0
 62
     0
370
    -2
100
AcDbLine
 10
394.3809613702209
 20
203.0310327581177
 30
0.0
 11
394.3809613702209
 21
213.7850251293132
 31
0.0
  0
SOLID
  5
51F
330
4A4
100
AcDbEntity
  8
0
 62
     0
100
AcDbTrace
 10
394.3509613702209
 20
246.6710327581177
 30
0.0
 11
394.4109613702209
 21
246.6710327581177
 31
0.0
 12
394.3809613702209
 22
246.8510327581177
 32
0.0
 13
394.3809613702209
 23
246.8510327581177
 33
0.0
  0
SOLID
  5
520
330
4A4
100
AcDbEntity
  8
0
 62
     0
100
AcDbTrace
 10
394.3509613702209
 20
203.0310327581177
 30
0.0
 11
394.4109613702209
 21
203.0310327581177
 31
0.0
 12
394.3809613702209
 22
202.8510327581177
 32
0.0
 13
394.3809613702209
 23
202.8510327581177
 33
0.0
  0
MTEXT
  5
521
330
4A4
100
AcDbEntity
  8
0
 62
     0
100
AcDbMText
 10
394.3809613702208
 20
222.8750251293133
 30
0.0
 40
18.0
 41
0.0
 71
     5
 72
     1
  1
\A1;%%C44
  7
BIGFONT
 73
     1
 44
1.0
  0
POINT
  5
522
330
4A4
100
AcDbEntity
  8
DEFPOINTS
 62
     0
100
AcDbPoint
 10
431.1012096369183
 20
246.8510327581177
 30
0.0
  0
POINT
  5
523
330
4A4
100
AcDbEntity
  8
DEFPOINTS
 62
     0
100
AcDbPoint
 10
431.1012096369183
 20
202.8510327581177
 30
0.0
  0
POINT
  5
524
330
4A4
100
AcDbEntity
  8
DEFPOINTS
 62
     0
100
AcDbPoint
 10
394.3809613702209
 20
202.8510327581177
 30
0.0
  0
ENDBLK
  5
4B0
330
4A4
100
AcDbEntity
  8
0
100
AcDbBlockEnd
  0
BLOCK
  5
4BC
330
4B1
100
AcDbEntity
  8
0
100
AcDbBlockBegin
  2
*D18
 70
     1
 10
0.0
 20
0.0
 30
0.0
  3
*D18
  1

  0
LINE
  5
52F
330
4B1
100
AcDbEntity
  8
0
 62
     0
370
    -2
100
AcDbLine
 10
468.1637096369183
 20
246.8510327581177
 30
0.0
 11
492.5658866604428
 21
246.8510327581177
 31
0.0
  0
LINE
  5
530
330
4B1
100
AcDbEntity
  8
0
 62
     0
370
    -2
100
AcDbLine
 10
468.1637096369183
 20
202.8510327581177
 30
0.0
 11
492.5658866604428
 21
202.8510327581177
 31
0.0
  0
LINE
  5
531
330
4B1
100
AcDbEntity
  8
0
 62
     0
370
    -2
100
AcDbLine
 10
492.3858866604428
 20
246.6710327581177
 30
0.0
 11
492.3858866604428
 21
233.9516285529728
 31
0.0
  0
LINE
  5
532
330
4B1
100
AcDbEntity
  8
0
 62
     0
370
    -2
100
AcDbLine
 10
492.3858866604428
 20
203.0310327581177
 30
0.0
 11
492.3858866604428
 21
215.7716285529728
 31
0.0
  0
SOLID
  5
533
330
4B1
100
AcDbEntity
  8
0
 62
     0
100
AcDbTrace
 10
492.3558866604428
 20
246.6710327581177
 30
0.0
 11
492.4158866604427
 21
246.6710327581177
 31
0.0
 12
492.3858866604428
 22
246.8510327581177
 32
0.0
 13
492.3858866604428
 23
246.8510327581177
 33
0.0
  0
SOLID
  5
534
330
4B1
100
AcDbEntity
  8
0
 62
     0
100
AcDbTrace
 10
492.3558866604428
 20
203.0310327581177
 30
0.0
 11
492.4158866604427
 21
203.0310327581177
 31
0.0
 12
492.3858866604428
 22
202.8510327581177
 32
0.0
 13
492.3858866604428
 23
202.8510327581177
 33
0.0
  0
MTEXT
  5
535
330
4B1
100
AcDbEntity
  8
0
 62
     0
100
AcDbMText
 10
492.3858866604427
 20
224.8616285529729
 30
0.0
 40
18.0
 41
0.0
 71
     5
 72
     1
  1
\A1;%%C45
  7
BIGFONT
 73
     1
 44
1.0
  0
POINT
  5
536
330
4B1
100
AcDbEntity
  8
DEFPOINTS
 62
     0
100
AcDbPoint
 10
468.1012096369183
 20
246.8510327581177
 30
0.0
  0
POINT
  5
537
330
4B1
100
AcDbEntity
  8
DEFPOINTS
 62
     0
100
AcDbPoint
 10
468.1012096369183
 20
202.8510327581177
 30
0.0
  0
POINT
  5
538
330
4B1
100
AcDbEntity
  8
DEFPOINTS
 62
     0
100
AcDbPoint
 10
492.3858866604428
 20
202.8510327581177
 30
0.0
  0
ENDBLK
  5
4BD
330
4B1
100
AcDbEntity
  8
0
100
AcDbBlockEnd
  0
BLOCK
  5
4C9
330
4BE
100
AcDbEntity
  8
0
100
AcDbBlockBegin
  2
*D19
 70
     1
 10
0.0
 20
0.0
 30
0.0
  3
*D19
  1

  0
LINE
  5
543
330
4BE
100
AcDbEntity
  8
0
 62
     0
370
    -2
100
AcDbLine
 10
411.4327844260615
 20
327.9010327581177
 30
0.0
 11
383.9314574155982
 21
327.9010327581177
 31
0.0
  0
LINE
  5
544
330
4BE
100
AcDbEntity
  8
0
 62
     0
370
    -2
100
AcDbLine
 10
411.0387096369183
 20
311.8010327581176
 30
0.0
 11
383.9314574155982
 21
311.8010327581177
 31
0.0
  0
LINE
  5
545
330
4BE
100
AcDbEntity
  8
0
 62
     0
370
    -2
100
AcDbLine
 10
384.1114574155982
 20
328.0810327581177
 30
0.0
 11
384.1114574155982
 21
328.2610327581177
 31
0.0
  0
LINE
  5
546
330
4BE
100
AcDbEntity
  8
0
 62
     0
370
    -2
100
AcDbLine
 10
384.1114574155982
 20
311.6210327581176
 30
0.0
 11
384.1114574155982
 21
311.4410327581176
 31
0.0
  0
SOLID
  5
547
330
4BE
100
AcDbEntity
  8
0
 62
     0
100
AcDbTrace
 10
384.0814574155982
 20
328.0810327581177
 30
0.0
 11
384.1414574155982
 21
328.0810327581177
 31
0.0
 12
384.1114574155982
 22
327.9010327581177
 32
0.0
 13
384.1114574155982
 23
327.9010327581177
 33
0.0
  0
SOLID
  5
548
330
4BE
100
AcDbEntity
  8
0
 62
     0
100
AcDbTrace
 10
384.0814574155982
 20
311.6210327581176
 30
0.0
 11
384.1414574155982
 21
311.6210327581176
 31
0.0
 12
384.1114574155982
 22
311.8010327581176
 32
0.0
 13
384.1114574155982
 23
311.8010327581176
 33
0.0
  0
MTEXT
  5
549
330
4BE
100
AcDbEntity
  8
0
 62
     0
100
AcDbMText
 10
384.1114574155982
 20
321.0866294604563
 30
0.0
 40
18.0
 41
0.0
 71
     5
 72
     1
  1
\A1;16.1000
  7
BIGFONT
 73
     1
 44
1.0
  0
POINT
  5
54A
330
4BE
100
AcDbEntity
  8
DEFPOINTS
 62
     0
100
AcDbPoint
 10
411.4952844260615
 20
327.9010327581177
 30
0.0
  0
POINT
  5
54B
330
4BE
100
AcDbEntity
  8
DEFPOINTS
 62
     0
100
AcDbPoint
 10
411.1012096369183
 20
311.8010327581176
 30
0.0
  0
POINT
  5
54C
330
4BE
100
AcDbEntity
  8
DEFPOINTS
 62
     0
100
AcDbPoint
 10
384.1114574155982
 20
311.8010327581176
 30
0.0
  0
ENDBLK
  5
4CA
330
4BE
100
AcDbEntity
  8
0
100
AcDbBlockEnd
  0
BLOCK
  5
4D6
330
4CB
100
AcDbEntity
  8
0
100
AcDbBlockBegin
  2
*D20
 70
     1
 10
0.0
 20
0.0
 30
0.0
  3
*D20
  1

  0
LINE
  5
557
330
4CB
100
AcDbEntity
  8
0
 62
     0
370
    -2
100
AcDbLine
 10
405.5387096369183
 20
319.8510327581177
 30
0.0
 11
402.396172003658
 21
319.8510327581177
 31
0.0
  0
LINE
  5
558
330
4CB
100
AcDbEntity
  8
0
 62
     0
370
    -2
100
AcDbLine
 10
402.1637096369182
 20
224.8510327581177
 30
0.0
 11
402.756172003658
 21
224.8510327581177
 31
0.0
  0
LINE
  5
559
330
4CB
100
AcDbEntity
  8
0
 62
     0
370
    -2
100
AcDbLine
 10
402.576172003658
 20
319.6710327581177
 30
0.0
 11
402.576172003658
 21
307.0903812560306
 31
0.0
  0
LINE
  5
55A
330
4CB
100
AcDbEntity
  8
0
 62
     0
370
    -2
100
AcDbLine
 10
402.576172003658
 20
225.0310327581177
 30
0.0
 11
402.576172003658
 21
288.9103812560307
 31
0.0
  0
SOLID
  5
55B
330
4CB
100
AcDbEntity
  8
0
 62
     0
100
AcDbTrace
 10
402.546172003658
 20
319.6710327581177
 30
0.0
 11
402.606172003658
 21
319.6710327581177
 31
0.0
 12
402.576172003658
 22
319.8510327581177
 32
0.0
 13
402.576172003658
 23
319.8510327581177
 33
0.0
  0
SOLID
  5
55C
330
4CB
100
AcDbEntity
  8
0
 62
     0
100
AcDbTrace
 10
402.546172003658
 20
225.0310327581177
 30
0.0
 11
402.606172003658
 21
225.0310327581177
 31
0.0
 12
402.576172003658
 22
224.8510327581177
 32
0.0
 13
402.576172003658
 23
224.8510327581177
 33
0.0
  0
MTEXT
  5
55D
330
4CB
100
AcDbEntity
  8
0
 62
     0
100
AcDbMText
 10
402.5761720036579
 20
298.0003812560307
 30
0.0
 40
18.0
 41
0.0
 71
     5
 72
     1
  1
\A1;95.0000
  7
BIGFONT
 73
     1
 44
1.0
  0
POINT
  5
55E
330
4CB
100
AcDbEntity
  8
DEFPOINTS
 62
     0
100
AcDbPoint
 10
405.6012096369183
 20
319.8510327581177
 30
0.0
  0
POINT
  5
55F
330
4CB
100
AcDbEntity
  8
DEFPOINTS
 62
     0
100
AcDbPoint
 10
402.1012096369183
 20
224.8510327581177
 30
0.0
  0
POINT
  5
560
330
4CB
100
AcDbEntity
  8
DEFPOINTS
 62
     0
100
AcDbPoint
 10
402.576172003658
 20
224.8510327581177
 30
0.0
  0
ENDBLK
  5
4D7
330
4CB
100
AcDbEntity
  8
0
100
AcDbBlockEnd
  0
BLOCK
  5
4E2
330
4D8
100
AcDbEntity
  8
0
100
AcDbBlockBegin
  2
*D21
 70
     1
 10
0.0
 20
0.0
 30
0.0
  3
*D21
  1

  0
LINE
  5
56A
330
4D8
100
AcDbEntity
  8
0
 62
     0
370
    -2
100
AcDbLine
 10
453.1012096369183
 20
249.4135327581177
 30
0.0
 11
453.1012096369183
 21
270.8363268672382
 31
0.0
  0
LINE
  5
56B
330
4D8
100
AcDbEntity
  8
0
 62
     0
370
    -2
100
AcDbLine
 10
471.1012096369183
 20
243.9135327581177
 30
0.0
 11
471.1012096369183
 21
270.8363268672382
 31
0.0
  0
LINE
  5
56C
330
4D8
100
AcDbEntity
  8
0
 62
     0
370
    -2
100
AcDbLine
 10
453.2812096369183
 20
270.6563268672382
 30
0.0
 11
470.9212096369183
 21
270.6563268672382
 31
0.0
  0
SOLID
  5
56D
330
4D8
100
AcDbEntity
  8
0
 62
     0
100
AcDbTrace
 10
453.2812096369183
 20
270.6863268672382
 30
0.0
 11
453.2812096369183
 21
270.6263268672382
 31
0.0
 12
453.1012096369183
 22
270.6563268672382
 32
0.0
 13
453.1012096369183
 23
270.6563268672382
 33
0.0
  0
SOLID
  5
56E
330
4D8
100
AcDbEntity
  8
0
 62
     0
100
AcDbTrace
 10
470.9212096369183
 20
270.6863268672382
 30
0.0
 11
470.9212096369183
 21
270.6263268672382
 31
0.0
 12
471.1012096369183
 22
270.6563268672382
 32
0.0
 13
471.1012096369183
 23
270.6563268672382
 33
0.0
  0
MTEXT
  5
56F
330
4D8
100
AcDbEntity
  8
0
 62
     0
100
AcDbMText
 10
462.1012096369183
 20
270.6563268672382
 30
0.0
 40
18.0
 41
0.0
 71
     5
 72
     1
  1
\A1;18.0000
  7
BIGFONT
 73
     1
 44
1.0
  0
POINT
  5
570
330
4D8
100
AcDbEntity
  8
DEFPOINTS
 62
     0
100
AcDbPoint
 10
453.1012096369183
 20
249.3510327581177
 30
0.0
  0
POINT
  5
571
330
4D8
100
AcDbEntity
  8
DEFPOINTS
 62
     0
100
AcDbPoint
 10
471.1012096369183
 20
243.8510327581177
 30
0.0
  0
POINT
  5
572
330
4D8
100
AcDbEntity
  8
DEFPOINTS
 62
     0
100
AcDbPoint
 10
471.1012096369183
 20
270.6563268672382
 30
0.0
  0
ENDBLK
  5
4E3
330
4D8
100
AcDbEntity
  8
0
100
AcDbBlockEnd
  0
BLOCK
  5
4EE
330
4E4
100
AcDbEntity
  8
0
100
AcDbBlockBegin
  2
*D22
 70
     1
 10
0.0
 20
0.0
 30
0.0
  3
*D22
  1

  0
LINE
  5
57C
330
4E4
100
AcDbEntity
  8
0
 62
     0
370
    -2
100
AcDbLine
 10
431.1012096369183
 20
246.9135327581177
 30
0.0
 11
431.1012096369183
 21
283.813320205811
 31
0.0
  0
LINE
  5
57D
330
4E4
100
AcDbEntity
  8
0
 62
     0
370
    -2
100
AcDbLine
 10
471.1012096369183
 20
243.9135327581177
 30
0.0
 11
471.1012096369183
 21
283.813320205811
 31
0.0
  0
LINE
  5
57E
330
4E4
100
AcDbEntity
  8
0
 62
     0
370
    -2
100
AcDbLine
 10
431.2812096369183
 20
283.633320205811
 30
0.0
 11
470.9212096369183
 21
283.633320205811
 31
0.0
  0
SOLID
  5
57F
330
4E4
100
AcDbEntity
  8
0
 62
     0
100
AcDbTrace
 10
431.2812096369183
 20
283.663320205811
 30
0.0
 11
431.2812096369183
 21
283.603320205811
 31
0.0
 12
431.1012096369183
 22
283.633320205811
 32
0.0
 13
431.1012096369183
 23
283.633320205811
 33
0.0
  0
SOLID
  5
580
330
4E4
100
AcDbEntity
  8
0
 62
     0
100
AcDbTrace
 10
470.9212096369183
 20
283.663320205811
 30
0.0
 11
470.9212096369183
 21
283.603320205811
 31
0.0
 12
471.1012096369183
 22
283.633320205811
 32
0.0
 13
471.1012096369183
 23
283.633320205811
 33
0.0
  0
MTEXT
  5
581
330
4E4
100
AcDbEntity
  8
0
 62
     0
100
AcDbMText
 10
451.1012096369183
 20
283.633320205811
 30
0.0
 40
18.0
 41
0.0
 71
     5
 72
     1
  1
\A1;40.0000
  7
BIGFONT
 73
     1
 44
1.0
  0
POINT
  5
582
330
4E4
100
AcDbEntity
  8
DEFPOINTS
 62
     0
100
AcDbPoint
 10
431.1012096369183
 20
246.8510327581177
 30
0.0
  0
POINT
  5
583
330
4E4
100
AcDbEntity
  8
DEFPOINTS
 62
     0
100
AcDbPoint
 10
471.1012096369183
 20
243.8510327581177
 30
0.0
  0
POINT
  5
584
330
4E4
100
AcDbEntity
  8
DEFPOINTS
 62
     0
100
AcDbPoint
 10
471.1012096369183
 20
283.633320205811
 30
0.0
  0
ENDBLK
  5
4EF
330
4E4
100
AcDbEntity
  8
0
100
AcDbBlockEnd
  0
BLOCK
  5
4FB
330
4F0
100
AcDbEntity
  8
0
100
AcDbBlockBegin
  2
*D23
 70
     1
 10
0.0
 20
0.0
 30
0.0
  3
*D23
  1

  0
LINE
  5
58F
330
4F0
100
AcDbEntity
  8
0
 62
     0
370
    -2
100
AcDbLine
 10
251.4944063114314
 20
319.8510327581177
 30
0.0
 11
345.4872339967876
 21
319.8510327581177
 31
0.0
  0
LINE
  5
590
330
4F0
100
AcDbEntity
  8
0
 62
     0
370
    -2
100
AcDbLine
 10
339.4944068600975
 20
224.8510327581177
 30
0.0
 11
345.4872339967876
 21
224.8510327581177
 31
0.0
  0
LINE
  5
591
330
4F0
100
AcDbEntity
  8
0
 62
     0
370
    -2
100
AcDbLine
 10
345.3072339967876
 20
319.6710327581177
 30
0.0
 11
345.3072339967876
 21
280.7938702728054
 31
0.0
  0
LINE
  5
592
330
4F0
100
AcDbEntity
  8
0
 62
     0
370
    -2
100
AcDbLine
 10
345.3072339967876
 20
225.0310327581177
 30
0.0
 11
345.3072339967876
 21
262.6138702728055
 31
0.0
  0
SOLID
  5
593
330
4F0
100
AcDbEntity
  8
0
 62
     0
100
AcDbTrace
 10
345.2772339967876
 20
319.6710327581177
 30
0.0
 11
345.3372339967876
 21
319.6710327581177
 31
0.0
 12
345.3072339967876
 22
319.8510327581177
 32
0.0
 13
345.3072339967876
 23
319.8510327581177
 33
0.0
  0
SOLID
  5
594
330
4F0
100
AcDbEntity
  8
0
 62
     0
100
AcDbTrace
 10
345.2772339967876
 20
225.0310327581177
 30
0.0
 11
345.3372339967876
 21
225.0310327581177
 31
0.0
 12
345.3072339967876
 22
224.8510327581177
 32
0.0
 13
345.3072339967876
 23
224.8510327581177
 33
0.0
  0
MTEXT
  5
595
330
4F0
100
AcDbEntity
  8
0
 62
     0
100
AcDbMText
 10
345.3072339967876
 20
271.7038702728055
 30
0.0
 40
18.0
 41
0.0
 71
     5
 72
     1
  1
\A1;95.0000
  7
BIGFONT
 73
     1
 44
1.0
  0
POINT
  5
596
330
4F0
100
AcDbEntity
  8
DEFPOINTS
 62
     0
100
AcDbPoint
 10
251.4319063114314
 20
319.8510327581177
 30
0.0
  0
POINT
  5
597
330
4F0
100
AcDbEntity
  8
DEFPOINTS
 62
     0
100
AcDbPoint
 10
339.4319068600974
 20
224.8510327581177
 30
0.0
  0
POINT
  5
598
330
4F0
100
AcDbEntity
  8
DEFPOINTS
 62
     0
100
AcDbPoint
 10
345.3072339967876
 20
224.8510327581177
 30
0.0
  0
ENDBLK
  5
4FC
330
4F0
100
AcDbEntity
  8
0
100
AcDbBlockEnd
  0
ENDSEC
  0
SECTION
  2
ENTITIES
  0
LINE
  5
3F2
330
18F
100
AcDbEntity
  8
1
100
AcDbLine
 10
221.4319063114314
 20
224.8510327581176
 30
0.0
 11
290.3269862820022
 21
130.0250902772084
 31
0.0
  0
ARC
  5
3F3
330
18F
100
AcDbEntity
  8
3
100
AcDbCircle
 10
221.4319063114314
 20
224.8510327581176
 30
0.0
 40
22.00000000000002
100
AcDbArc
 50
270.0
 51
90.0
  0
ARC
  5
3F6
330
18F
100
AcDbEntity
  8
3
100
AcDbCircle
 10
220.4808497951363
 20
224.5420157637428
 30
0.0
 40
26.0
100
AcDbArc
 50
355.3801350519597
 51
40.61986494804014
  0
LINE
  5
3F7
330
18F
100
AcDbEntity
  8
3
100
AcDbLine
 10
308.3469070151949
 20
241.5253439182464
 30
0.0
 11
248.143098546642
 21
220.9124785343419
 31
0.0
  0
ARC
  5
3FA
330
18F
100
AcDbEntity
  8
3
100
AcDbCircle
 10
221.4319063114314
 20
224.8510327581177
 30
0.0
 40
24.0
100
AcDbArc
 50
270.0
 51
90.0
  0
LINE
  5
3FB
330
18F
100
AcDbEntity
  8
1
100
AcDbLine
 10
221.4319063114314
 20
341.5784642860683
 30
0.0
 11
221.4319063114314
 21
106.5784642860682
 31
0.0
  0
ARC
  5
3FC
330
18F
100
AcDbEntity
  8
3
100
AcDbCircle
 10
221.4319063114314
 20
224.8510327581177
 30
0.0
 40
88.49999999999999
100
AcDbArc
 50
313.1399746138484
 51
10.86002538615223
  0
ARC
  5
400
330
18F
100
AcDbEntity
  8
3
100
AcDbCircle
 10
221.4319063114314
 20
224.8510327581177
 30
0.0
 40
88.49999999999999
100
AcDbArc
 50
270.0
 51
298.8600253861516
  0
ARC
  5
407
330
18F
100
AcDbEntity
  8
3
100
AcDbCircle
 10
265.844745126545
 20
148.569229549025
 30
0.0
 40
2.093427844907798
100
AcDbArc
 50
215.8696252696806
 51
294.9283069621955
  0
LINE
  5
408
330
18F
100
AcDbEntity
  8
3
100
AcDbLine
 10
281.9467047548271
 20
160.2738760434155
 30
0.0
 11
245.3567388578226
 21
212.3369451914134
 31
0.0
  0
LINE
  5
40C
330
18F
100
AcDbEntity
  8
3
100
AcDbLine
 10
264.1483308785783
 20
147.3426004929811
 30
0.0
 11
225.9403309928238
 21
198.2300991363941
 31
0.0
  0
ARC
  5
40F
330
18F
100
AcDbEntity
  8
3
100
AcDbCircle
 10
220.8441210591389
 20
225.6600497524927
 30
0.0
 40
26.0
100
AcDbArc
 50
283.3801350519591
 51
328.6198649480398
  0
ARC
  5
411
330
18F
100
AcDbEntity
  8
3
100
AcDbCircle
 10
221.4319063114314
 20
224.8510327581177
 30
0.0
 40
27.0
100
AcDbArc
 50
270.0
 51
279.6122000387577
  0
ARC
  5
413
330
18F
100
AcDbEntity
  8
3
100
AcDbCircle
 10
227.4164740791524
 20
198.8600948002824
 30
0.0
 40
1.604958861726269
100
AcDbArc
 50
110.2565932856363
 51
203.1120603632394
  0
ARC
  5
415
330
18F
100
AcDbEntity
  8
3
100
AcDbCircle
 10
248.000090365068
 20
222.5110534021027
 30
0.0
 40
1.604958861726269
100
AcDbArc
 50
182.256593285637
 51
275.1120603632396
  0
ARC
  5
416
330
18F
100
AcDbEntity
  8
3
100
AcDbCircle
 10
221.4319063114314
 20
224.8510327581177
 30
0.0
 40
27.0
100
AcDbArc
 50
332.3877999612431
 51
351.6122000387566
  0
ARC
  5
417
330
18F
100
AcDbEntity
  8
3
100
AcDbCircle
 10
244.3014240766394
 20
211.1277290567007
 30
0.0
 40
1.604958861726269
100
AcDbArc
 50
48.88793963676073
 51
141.7434067143633
  0
ARC
  5
418
330
18F
100
AcDbEntity
  8
3
100
AcDbCircle
 10
251.99404426958
 20
182.7858586215761
 30
0.0
 40
39.00458528186851
100
AcDbArc
 50
292.1928983680613
 51
319.8071016319377
  0
ARC
  5
419
330
18F
100
AcDbEntity
  8
3
100
AcDbCircle
 10
280.2558903658782
 20
159.0395394426626
 30
0.0
 40
2.093427844907798
100
AcDbArc
 50
317.071693037805
 51
36.13037473031918
  0
ARC
  5
41E
330
18F
100
AcDbEntity
  8
3
100
AcDbCircle
 10
221.4319063114314
 20
319.8510327581177
 30
0.0
 40
4.099999999999999
100
AcDbArc
 50
270.0
 51
90.0
  0
ARC
  5
420
330
18F
100
AcDbEntity
  8
0
100
AcDbCircle
 10
221.4319063114314
 20
319.8510327581177
 30
0.0
 40
5.0
100
AcDbArc
 50
270.0
 51
90.0
  0
ARC
  5
422
330
18F
100
AcDbEntity
  8
3
100
AcDbCircle
 10
221.4319063114314
 20
224.8510327581177
 30
0.0
 40
88.49999999999999
100
AcDbArc
 50
25.13997461384836
 51
82.86002538615246
  0
LINE
  5
424
330
18F
100
AcDbEntity
  8
3
100
AcDbLine
 10
301.548533138946
 20
262.4485872767398
 30
0.0
 11
240.7266906816433
 21
243.7378349254256
 31
0.0
  0
LINE
  5
425
330
18F
100
AcDbEntity
  8
3
100
AcDbLine
 10
232.4319063114314
 20
312.6647560592055
 30
0.0
 11
233.4319063114314
 21
249.0378060030133
 31
0.0
  0
ARC
  5
427
330
18F
100
AcDbEntity
  8
3
100
AcDbCircle
 10
221.4319063114314
 20
223.8510327581177
 30
0.0
 40
26.0
100
AcDbArc
 50
67.3801350519594
 51
90.0
  0
ARC
  5
42B
330
18F
100
AcDbEntity
  8
3
100
AcDbCircle
 10
231.8673793082207
 20
249.3957839409627
 30
0.0
 40
1.604958861726269
100
AcDbArc
 50
254.2565932856374
 51
347.1120603632389
  0
ARC
  5
42C
330
18F
100
AcDbEntity
  8
3
100
AcDbCircle
 10
221.4319063114314
 20
224.8510327581177
 30
0.0
 40
27.0
100
AcDbArc
 50
44.3877999612427
 51
63.61220003875623
  0
ARC
  5
42D
330
18F
100
AcDbEntity
  8
3
100
AcDbCircle
 10
241.5506133643706
 20
242.3605025905401
 30
0.0
 40
1.604958861726269
100
AcDbArc
 50
120.8879396367601
 51
213.7434067143626
  0
ARC
  5
42F
330
18F
100
AcDbEntity
  8
3
100
AcDbCircle
 10
230.3384838861505
 20
312.6695195838056
 30
0.0
 40
2.093427844907798
100
AcDbArc
 50
359.8696252696802
 51
25.163934163019
  0
ARC
  5
430
330
18F
100
AcDbEntity
  8
3
100
AcDbCircle
 10
270.8824842965793
 20
240.9184995355935
 30
0.0
 40
39.00458528186851
100
AcDbArc
 50
4.192898368062175
 51
31.80710163193831
  0
ARC
  5
431
330
18F
100
AcDbEntity
  8
3
100
AcDbCircle
 10
307.7045342904889
 20
243.5177789672227
 30
0.0
 40
2.093427844907798
100
AcDbArc
 50
287.8696252696798
 51
6.928306962194855
  0
ARC
  5
432
330
18F
100
AcDbEntity
  8
3
100
AcDbCircle
 10
302.1999666258749
 20
260.4590962478727
 30
0.0
 40
2.093427844907798
100
AcDbArc
 50
29.07169303780505
 51
108.1303747303192
  0
LINE
  5
439
330
18F
100
AcDbEntity
  8
3
100
AcDbLine
 10
471.1012096369183
 20
205.8510327581177
 30
0.0
 11
471.1012096369183
 21
224.8510327581177
 31
0.0
  0
LINE
  5
43A
330
18F
100
AcDbEntity
  8
3
100
AcDbLine
 10
453.1012096369183
 20
224.8510327581177
 30
0.0
 11
453.1012096369183
 21
200.3510327581177
 31
0.0
  0
LINE
  5
43B
330
18F
100
AcDbEntity
  8
3
100
AcDbLine
 10
453.1012096369183
 20
202.8510327581177
 30
0.0
 11
453.1012096369183
 21
224.8510327581177
 31
0.0
  0
LINE
  5
43D
330
18F
100
AcDbEntity
  8
3
100
AcDbLine
 10
431.1012096369183
 20
202.6367470438319
 30
0.0
 11
431.1012096369183
 21
224.8510327581177
 31
0.0
  0
LINE
  5
43E
330
18F
100
AcDbEntity
  8
1
100
AcDbLine
 10
423.1012096369183
 20
109.0784642860682
 30
0.0
 11
423.1012096369183
 21
340.0784642860683
 31
0.0
  0
LINE
  5
43F
330
18F
100
AcDbEntity
  8
3
100
AcDbLine
 10
411.1012096369183
 20
124.8510327581177
 30
0.0
 11
411.1012096369183
 21
224.8510327581177
 31
0.0
  0
MTEXT
  5
441
102
{ACAD_REACTORS
330
440
102
}
330
18F
100
AcDbEntity
  8
0
100
AcDbMText
 10
447.8681021967537
 20
141.7937640464372
 30
0.0
 40
5.0
 41
0.0
 71
     1
 72
     1
  1
 
 73
     1
 44
1.0
  0
MTEXT
  5
443
102
{ACAD_REACTORS
330
442
102
}
330
18F
100
AcDbEntity
  8
0
100
AcDbMText
 10
442.3576628443782
 20
145.298909133375
 30
0.0
 40
5.0
 41
0.0
 71
     1
 72
     1
  1
 
 73
     1
 44
1.0
  0
LINE
  5
444
330
18F
100
AcDbEntity
  8
3
100
AcDbLine
 10
435.1012096369183
 20
170.409376865427
 30
0.0
 11
435.1012096369183
 21
124.8510327581177
 31
0.0
  0
ARC
  5
445
330
18F
100
AcDbEntity
  8
3
100
AcDbCircle
 10
423.1012096369183
 20
127.8510327581177
 30
0.0
 40
9.0
100
AcDbArc
 50
4.63603001981816
 51
175.3639699801818
  0
LINE
  5
446
330
18F
100
AcDbEntity
  8
1
100
AcDbLine
 10
423.1012096369183
 20
127.8510327581177
 30
0.0
 11
428.1012096369183
 21
127.8510327581177
 31
0.0
  0
ARC
  5
447
330
18F
100
AcDbEntity
  8
3
100
AcDbCircle
 10
423.1012096369183
 20
124.8510327581177
 30
0.0
 40
12.0
100
AcDbArc
 50
180.0
 51
0.0
  0
ARC
  5
448
330
18F
100
AcDbEntity
  8
3
100
AcDbCircle
 10
407.9906242926189
 20
130.4739377342741
 30
0.0
 40
6.425947521965434
100
AcDbArc
 50
298.9513241899789
 51
342.8441523002577
  0
LINE
  5
449
330
18F
100
AcDbEntity
  8
1
100
AcDbLine
 10
423.1012096369183
 20
127.8510327581177
 30
0.0
 11
417.6012096369182
 21
127.8510327581177
 31
0.0
  0
ARC
  5
44A
330
18F
100
AcDbEntity
  8
3
100
AcDbCircle
 10
438.2117949812176
 20
130.4739377342741
 30
0.0
 40
6.425947521965434
100
AcDbArc
 50
197.1558476997422
 51
241.048675810021
  0
LINE
  5
44B
330
18F
100
AcDbEntity
  8
3
100
AcDbLine
 10
430.1569382755852
 20
159.6899204660699
 30
0.0
 11
448.0081477334309
 21
198.3923393817613
 31
0.0
  0
LINE
  5
44C
330
18F
100
AcDbEntity
  8
3
100
AcDbLine
 10
418.1124461406406
 20
160.652794450286
 30
0.0
 11
435.1012101855844
 21
198.5784642860682
 31
0.0
  0
ARC
  5
44D
330
18F
100
AcDbEntity
  8
2
100
AcDbCircle
 10
421.9760861328595
 20
153.6230484769246
 30
0.0
 40
7.175844942646797
100
AcDbArc
 50
8.143409767094571
 51
38.38121159339888
  0
ARC
  5
44E
330
18F
100
AcDbEntity
  8
2
100
AcDbCircle
 10
422.7512101855843
 20
154.2284642860682
 30
0.0
 40
5.660830327787611
100
AcDbArc
 50
137.1475854282984
 51
176.455233544405
  0
LINE
  5
44F
330
18F
100
AcDbEntity
  8
3
100
AcDbLine
 10
429.1012101855844
 20
153.0784642860682
 30
0.0
 11
429.1012101855844
 21
155.2177845110704
 31
0.0
  0
LINE
  5
450
330
18F
100
AcDbEntity
  8
3
100
AcDbLine
 10
417.1012101855843
 20
154.0784642860682
 30
0.0
 11
417.1012101855843
 21
156.270771978376
 31
0.0
  0
ARC
  5
451
330
18F
100
AcDbEntity
  8
3
100
AcDbCircle
 10
423.1012101855844
 20
152.988983555157
 30
0.0
 40
5.646383062175814
100
AcDbArc
 50
217.158239797349
 51
322.8417602026503
  0
ARC
  5
452
330
18F
100
AcDbEntity
  8
3
100
AcDbCircle
 10
423.8512101855844
 20
153.8284642860682
 30
0.0
 40
6.754628043053148
100
AcDbArc
 50
177.8789036033387
 51
218.9909940425055
  0
ARC
  5
453
330
18F
100
AcDbEntity
  8
3
100
AcDbCircle
 10
422.3512101855844
 20
153.8284642860682
 30
0.0
 40
6.754628043053148
100
AcDbArc
 50
321.0090059574944
 51
2.121096396661212
  0
ARC
  5
454
330
18F
100
AcDbEntity
  8
2
100
AcDbCircle
 10
423.1012101855844
 20
154.5642790394936
 30
0.0
 40
5.709597003926202
100
AcDbArc
 50
37.98734713013977
 51
142.0126528698602
  0
ARC
  5
455
330
18F
100
AcDbEntity
  8
3
100
AcDbCircle
 10
427.1012101855844
 20
156.270771978376
 30
0.0
 40
10.0
100
AcDbArc
 50
154.0107664161669
 51
180.0
  0
ARC
  5
456
330
18F
100
AcDbEntity
  8
3
100
AcDbCircle
 10
439.1012101855844
 20
155.2177845110704
 30
0.0
 40
10.0
100
AcDbArc
 50
153.4349488229219
 51
180.0
  0
ARC
  5
458
330
18F
100
AcDbEntity
  8
3
100
AcDbCircle
 10
442.1012096369183
 20
223.3010327581177
 30
0.0
 40
25.45000000000001
100
AcDbArc
 50
246.9248849958709
 51
295.6085321305735
  0
LINE
  5
459
330
18F
100
AcDbEntity
  8
3
100
AcDbLine
 10
431.1012096369183
 20
202.8510327581177
 30
0.0
 11
432.1263982758996
 21
199.8872411319822
 31
0.0
  0
LINE
  5
45B
330
18F
100
AcDbEntity
  8
3
100
AcDbLine
 10
468.1012096369183
 20
202.8510327581177
 30
0.0
 11
453.1012096369183
 21
202.8510327581177
 31
0.0
  0
ARC
  5
45C
330
18F
100
AcDbEntity
  8
3
100
AcDbCircle
 10
468.1012096369183
 20
205.8510327581177
 30
0.0
 40
3.0
100
AcDbArc
 50
270.0
 51
0.0
  0
LINE
  5
45E
330
18F
100
AcDbEntity
  8
3
100
AcDbLine
 10
413.1012096369182
 20
311.8010327581176
 30
0.0
 11
413.1012096369182
 21
327.9010327581177
 31
0.0
  0
LINE
  5
460
330
18F
100
AcDbEntity
  8
3
100
AcDbLine
 10
435.1012096369183
 20
295.6829508845262
 30
0.0
 11
435.1012096369183
 21
324.8510327581177
 31
0.0
  0
LINE
  5
461
330
18F
100
AcDbEntity
  8
3
100
AcDbLine
 10
432.0717638768827
 20
321.123601230167
 30
0.0
 11
432.0717638768827
 21
311.6007160433592
 31
0.0
  0
LINE
  5
462
330
18F
100
AcDbEntity
  8
3
100
AcDbLine
 10
411.1012096369183
 20
324.8510327581177
 30
0.0
 11
411.1012096369183
 21
224.8510327581177
 31
0.0
  0
LINE
  5
464
330
18F
100
AcDbEntity
  8
1
100
AcDbLine
 10
402.1012096369183
 20
224.8510327581177
 30
0.0
 11
476.6012101855844
 21
224.8510327581177
 31
0.0
  0
LINE
  5
468
330
18F
100
AcDbEntity
  8
3
100
AcDbLine
 10
435.0943436353201
 20
254.8802614145654
 30
0.0
 11
417.7190958157801
 21
308.3510327581177
 31
0.0
  0
LINE
  5
469
330
18F
100
AcDbEntity
  8
3
100
AcDbLine
 10
429.7902664440654
 20
310.1105094961436
 30
0.0
 11
448.0331714470091
 21
257.5523478629451
 31
0.0
  0
LINE
  5
46A
330
18F
100
AcDbEntity
  8
3
100
AcDbLine
 10
431.1012096369183
 20
246.8510327581177
 30
0.0
 11
432.1263982758996
 21
249.8148243842532
 31
0.0
  0
LINE
  5
46B
330
18F
100
AcDbEntity
  8
3
100
AcDbLine
 10
431.1012096369183
 20
247.0653184724034
 30
0.0
 11
431.1012096369183
 21
224.8510327581177
 31
0.0
  0
ARC
  5
46D
330
18F
100
AcDbEntity
  8
3
100
AcDbCircle
 10
442.1012096369183
 20
226.4010327581177
 30
0.0
 40
25.44999999999999
100
AcDbArc
 50
104.8932829603771
 51
113.0751150041291
  0
ARC
  5
46E
330
18F
100
AcDbEntity
  8
3
100
AcDbCircle
 10
427.6012096369183
 20
252.0779511387403
 30
0.0
 40
8.0
100
AcDbArc
 50
359.9999999999983
 51
20.50497947596328
  0
LINE
  5
46F
330
18F
100
AcDbEntity
  8
3
100
AcDbLine
 10
435.1012096369183
 20
250.8694307440914
 30
0.0
 11
435.1012096369183
 21
254.8618333201553
 31
0.0
  0
LINE
  5
470
330
18F
100
AcDbEntity
  8
3
100
AcDbLine
 10
435.6012096369183
 20
252.0779511387401
 30
0.0
 11
435.6012096369182
 21
251.1943994142991
 31
0.0
  0
LINE
  5
471
330
18F
100
AcDbEntity
  8
3
100
AcDbLine
 10
453.1012096369183
 20
224.8510327581177
 30
0.0
 11
453.1012096369183
 21
249.3510327581177
 31
0.0
  0
LINE
  5
472
330
18F
100
AcDbEntity
  8
3
100
AcDbLine
 10
468.1012096369183
 20
246.8510327581177
 30
0.0
 11
453.1012096369183
 21
246.8510327581177
 31
0.0
  0
LINE
  5
473
330
18F
100
AcDbEntity
  8
3
100
AcDbLine
 10
453.1012096369183
 20
246.8510327581177
 30
0.0
 11
453.1012096369183
 21
224.8510327581177
 31
0.0
  0
LINE
  5
474
330
18F
100
AcDbEntity
  8
3
100
AcDbLine
 10
471.1012096369183
 20
243.8510327581177
 30
0.0
 11
471.1012096369183
 21
224.8510327581177
 31
0.0
  0
ARC
  5
475
330
18F
100
AcDbEntity
  8
3
100
AcDbCircle
 10
468.1012096369183
 20
243.8510327581177
 30
0.0
 40
3.0
100
AcDbArc
 50
0.0
 51
90.0
  0
ARC
  5
476
330
18F
100
AcDbEntity
  8
3
100
AcDbCircle
 10
442.1012096369183
 20
226.4010327581177
 30
0.0
 40
25.44999999999999
100
AcDbArc
 50
64.39146786942645
 51
75.06955074401715
  0
LINE
  5
477
330
18F
100
AcDbEntity
  8
3
100
AcDbLine
 10
448.6012096369183
 20
251.194399414299
 30
0.0
 11
448.6012096369183
 21
254.5916142286321
 31
0.0
  0
ARC
  5
478
330
18F
100
AcDbEntity
  8
3
100
AcDbCircle
 10
440.6012096369183
 20
254.5916142286321
 30
0.0
 40
8.0
100
AcDbArc
 50
0.0
 51
21.72127303399513
  0
LINE
  5
47A
330
18F
100
AcDbEntity
  8
3
100
AcDbLine
 10
413.1012096369182
 20
315.7510327581177
 30
0.0
 11
432.0717638768827
 21
315.7510327581177
 31
0.0
  0
LINE
  5
47B
330
18F
100
AcDbEntity
  8
0
100
AcDbLine
 10
413.1012096369182
 20
314.8510327581177
 30
0.0
 11
432.0717638768827
 21
314.8510327581177
 31
0.0
  0
LINE
  5
47C
330
18F
100
AcDbEntity
  8
3
100
AcDbLine
 10
411.1012096369183
 20
308.3510327581177
 30
0.0
 11
417.71909581578
 21
308.3510327581176
 31
0.0
  0
LINE
  5
47D
330
18F
100
AcDbEntity
  8
3
100
AcDbLine
 10
411.1012096369183
 20
311.8010327581176
 30
0.0
 11
413.1012096369182
 21
311.8010327581176
 31
0.0
  0
LINE
  5
47E
330
18F
100
AcDbEntity
  8
3
100
AcDbLine
 10
432.0717638768827
 20
311.6007160433592
 30
0.0
 11
429.7902664440654
 21
310.1105094961436
 31
0.0
  0
LINE
  5
481
330
18F
100
AcDbEntity
  8
1
100
AcDbLine
 10
405.6012096369183
 20
319.8510327581177
 30
0.0
 11
439.6012096369183
 21
319.8510327581177
 31
0.0
  0
LINE
  5
48B
330
18F
100
AcDbEntity
  8
3
100
AcDbLine
 10
433.8543909213155
 20
323.9510327581176
 30
0.0
 11
413.1012096369182
 21
323.9510327581177
 31
0.0
  0
LINE
  5
48C
330
18F
100
AcDbEntity
  8
0
100
AcDbLine
 10
435.1012096369184
 20
324.8510327581177
 30
0.0
 11
413.1012096369182
 21
324.8510327581177
 31
0.0
  0
ARC
  5
48D
330
18F
100
AcDbEntity
  8
3
100
AcDbCircle
 10
423.1012096369183
 20
324.8510327581177
 30
0.0
 40
12.0
100
AcDbArc
 50
0.0
 51
180.0
  0
LINE
  5
48E
330
18F
100
AcDbEntity
  8
3
100
AcDbLine
 10
413.1012096369182
 20
327.9010327581177
 30
0.0
 11
411.4952844260615
 21
327.9010327581177
 31
0.0
  0
ARC
  5
492
330
18F
100
AcDbEntity
  8
3
100
AcDbCircle
 10
438.2117949812176
 20
319.2281277819613
 30
0.0
 40
6.425947521965434
100
AcDbArc
 50
118.9513241899789
 51
162.8441523002577
  0
ARC
  5
59A
330
18F
100
AcDbEntity
  8
3
100
AcDbCircle
 10
221.4319063114314
 20
319.8510327581177
 30
0.0
 40
8.05
100
AcDbArc
 50
270.0
 51
90.0
  0
ARC
  5
59B
330
18F
100
AcDbEntity
  8
3
100
AcDbCircle
 10
221.4319063114314
 20
319.8510327581177
 30
0.0
 40
11.5
100
AcDbArc
 50
270.0
 51
352.5810077802506
  0
ARC
  5
59C
330
18F
100
AcDbEntity
  8
3
100
AcDbCircle
 10
238.2699984272204
 20
317.2988015691274
 30
0.0
 40
5.538181970043111
100
AcDbArc
 50
82.61109153958793
 51
168.8886136096083
  0
ARC
  5
59D
330
18F
100
AcDbEntity
  8
3
100
AcDbCircle
 10
221.4319063114314
 20
224.8510327581177
 30
0.0
 40
112.0
100
AcDbArc
 50
270.0
 51
90.0
  0
ARC
  5
59E
330
18F
100
AcDbEntity
  8
3
100
AcDbCircle
 10
221.4319063114314
 20
224.8510327581177
 30
0.0
 40
99.50000000000001
100
AcDbArc
 50
270.0
 51
79.84072466774363
  0
LINE
  5
5A1
330
18F
100
AcDbEntity
  8
1
100
AcDbLine
 10
221.4319063114314
 20
224.8510327581176
 30
0.0
 11
339.4319068600974
 21
224.8510327581177
 31
0.0
  0
LINE
  5
5A2
330
18F
100
AcDbEntity
  8
1
100
AcDbLine
 10
221.4319063114314
 20
319.8510327581177
 30
0.0
 11
251.4319063114314
 21
319.8510327581177
 31
0.0
  0
ARC
  5
5A3
330
18F
100
AcDbEntity
  8
3
100
AcDbCircle
 10
221.4319063114314
 20
224.8510327581177
 30
0.0
 40
99.50000000000001
100
AcDbArc
 50
100.1592753322563
 51
270.0
  0
ARC
  5
5A4
330
18F
100
AcDbEntity
  8
3
100
AcDbCircle
 10
221.4319063114314
 20
224.8510327581177
 30
0.0
 40
112.0
100
AcDbArc
 50
90.0
 51
270.0
  0
LINE
  5
5A5
330
18F
100
AcDbEntity
  8
1
100
AcDbLine
 10
221.4319063114313
 20
224.8510327581176
 30
0.0
 11
103.4319057627653
 21
224.8510327581177
 31
0.0
  0
LINE
  5
5A6
330
18F
100
AcDbEntity
  8
1
100
AcDbLine
 10
221.4319063114314
 20
224.8510327581176
 30
0.0
 11
152.5368263408606
 21
130.0250902772084
 31
0.0
  0
LINE
  5
5A7
330
18F
100
AcDbEntity
  8
3
100
AcDbLine
 10
141.3152794839167
 20
262.4485872767398
 30
0.0
 11
202.1371219412194
 21
243.7378349254256
 31
0.0
  0
ARC
  5
5A8
330
18F
100
AcDbEntity
  8
3
100
AcDbCircle
 10
221.4319063114314
 20
224.8510327581177
 30
0.0
 40
88.49999999999999
100
AcDbArc
 50
97.13997461384755
 51
154.8600253861516
  0
ARC
  5
5A9
330
18F
100
AcDbEntity
  8
3
100
AcDbCircle
 10
190.8697683532827
 20
182.7858586215761
 30
0.0
 40
39.00458528186851
100
AcDbArc
 50
220.1928983680623
 51
247.8071016319386
  0
LINE
  5
5AA
330
18F
100
AcDbEntity
  8
3
100
AcDbLine
 10
160.9171078680357
 20
160.2738760434155
 30
0.0
 11
197.5070737650402
 21
212.3369451914134
 31
0.0
  0
LINE
  5
5AB
330
18F
100
AcDbEntity
  8
3
100
AcDbLine
 10
134.5169056076679
 20
241.5253439182464
 30
0.0
 11
194.7207140762207
 21
220.9124785343419
 31
0.0
  0
ARC
  5
5AC
330
18F
100
AcDbEntity
  8
3
100
AcDbCircle
 10
215.4473385437103
 20
198.8600948002824
 30
0.0
 40
1.604958861726269
100
AcDbArc
 50
336.8879396367606
 51
69.74340671436367
  0
ARC
  5
5AD
330
18F
100
AcDbEntity
  8
3
100
AcDbCircle
 10
222.0196915637238
 20
225.6600497524927
 30
0.0
 40
26.0
100
AcDbArc
 50
211.38013505196
 51
256.6198649480408
  0
ARC
  5
5AE
330
18F
100
AcDbEntity
  8
3
100
AcDbCircle
 10
221.4319063114314
 20
224.8510327581177
 30
0.0
 40
88.49999999999999
100
AcDbArc
 50
241.1399746138483
 51
270.0
  0
LINE
  5
5AF
330
18F
100
AcDbEntity
  8
3
100
AcDbLine
 10
178.7154817442845
 20
147.3426004929811
 30
0.0
 11
216.9234816300389
 21
198.2300991363941
 31
0.0
  0
ARC
  5
5B0
330
18F
100
AcDbEntity
  8
3
100
AcDbCircle
 10
221.4319063114314
 20
224.8510327581177
 30
0.0
 40
27.0
100
AcDbArc
 50
260.3877999612423
 51
270.0
  0
ARC
  5
5B1
330
18F
100
AcDbEntity
  8
3
100
AcDbCircle
 10
177.0190674963178
 20
148.569229549025
 30
0.0
 40
2.093427844907798
100
AcDbArc
 50
245.0716930378044
 51
324.1303747303193
  0
ARC
  5
5B2
330
18F
100
AcDbEntity
  8
3
100
AcDbCircle
 10
221.4319063114314
 20
319.8510327581177
 30
0.0
 40
8.05
100
AcDbArc
 50
90.0
 51
270.0
  0
LINE
  5
5B3
330
18F
100
AcDbEntity
  8
3
100
AcDbLine
 10
210.4319063114314
 20
312.6647560592055
 30
0.0
 11
209.4319063114314
 21
249.0378060030133
 31
0.0
  0
ARC
  5
5B4
330
18F
100
AcDbEntity
  8
3
100
AcDbCircle
 10
221.4319063114314
 20
224.8510327581176
 30
0.0
 40
22.00000000000002
100
AcDbArc
 50
90.0
 51
270.0
  0
ARC
  5
5B5
330
18F
100
AcDbEntity
  8
3
100
AcDbCircle
 10
221.4319063114314
 20
224.8510327581177
 30
0.0
 40
24.0
100
AcDbArc
 50
90.0
 51
270.0
  0
ARC
  5
5B6
330
18F
100
AcDbEntity
  8
3
100
AcDbCircle
 10
221.4319063114314
 20
224.8510327581177
 30
0.0
 40
27.0
100
AcDbArc
 50
116.3877999612437
 51
135.6122000387572
  0
ARC
  5
5B7
330
18F
100
AcDbEntity
  8
3
100
AcDbCircle
 10
221.4319063114314
 20
223.8510327581177
 30
0.0
 40
26.0
100
AcDbArc
 50
90.0
 51
112.6198649480405
  0
ARC
  5
5B8
330
18F
100
AcDbEntity
  8
3
100
AcDbCircle
 10
210.996433314642
 20
249.3957839409627
 30
0.0
 40
1.604958861726269
100
AcDbArc
 50
192.8879396367611
 51
285.7434067143625
  0
ARC
  5
5B9
330
18F
100
AcDbEntity
  8
3
100
AcDbCircle
 10
222.3829628277265
 20
224.5420157637428
 30
0.0
 40
26.0
100
AcDbArc
 50
139.3801350519598
 51
184.6198649480402
  0
ARC
  5
5BA
330
18F
100
AcDbEntity
  8
3
100
AcDbCircle
 10
221.4319063114314
 20
224.8510327581177
 30
0.0
 40
27.0
100
AcDbArc
 50
188.3877999612434
 51
207.6122000387568
  0
ARC
  5
5BB
330
18F
100
AcDbEntity
  8
3
100
AcDbCircle
 10
198.5623885462234
 20
211.1277290567007
 30
0.0
 40
1.604958861726269
100
AcDbArc
 50
38.2565932856367
 51
131.1120603632392
  0
ARC
  5
5BC
330
18F
100
AcDbEntity
  8
3
100
AcDbCircle
 10
194.8637222577947
 20
222.5110534021027
 30
0.0
 40
1.604958861726269
100
AcDbArc
 50
264.8879396367603
 51
357.7434067143629
  0
ARC
  5
5BD
330
18F
100
AcDbEntity
  8
3
100
AcDbCircle
 10
201.3131992584922
 20
242.3605025905401
 30
0.0
 40
1.604958861726269
100
AcDbArc
 50
326.2565932856373
 51
59.11206036323989
  0
LINE
  5
5BE
330
18F
100
AcDbEntity
  8
1
100
AcDbLine
 10
221.4319063114314
 20
319.8510327581177
 30
0.0
 11
191.4319063114314
 21
319.8510327581177
 31
0.0
  0
ARC
  5
5BF
330
18F
100
AcDbEntity
  8
3
100
AcDbCircle
 10
204.5938141956423
 20
317.2988015691274
 30
0.0
 40
5.538181970043111
100
AcDbArc
 50
11.11138639039167
 51
97.38890846041206
  0
ARC
  5
5C0
330
18F
100
AcDbEntity
  8
3
100
AcDbCircle
 10
221.4319063114314
 20
319.8510327581177
 30
0.0
 40
11.5
100
AcDbArc
 50
187.4189922197493
 51
270.0
  0
ARC
  5
5C1
330
18F
100
AcDbEntity
  8
0
100
AcDbCircle
 10
221.4319063114314
 20
319.8510327581177
 30
0.0
 40
5.0
100
AcDbArc
 50
90.0
 51
270.0
  0
ARC
  5
5C2
330
18F
100
AcDbEntity
  8
3
100
AcDbCircle
 10
221.4319063114314
 20
319.8510327581177
 30
0.0
 40
4.099999999999999
100
AcDbArc
 50
90.0
 51
270.0
  0
ARC
  5
5C3
330
18F
100
AcDbEntity
  8
3
100
AcDbCircle
 10
212.5253287367122
 20
312.6695195838056
 30
0.0
 40
2.093427844907798
100
AcDbArc
 50
154.8360658369809
 51
180.1303747303197
  0
ARC
  5
5C4
330
18F
100
AcDbEntity
  8
3
100
AcDbCircle
 10
221.4319063114314
 20
224.8510327581177
 30
0.0
 40
88.49999999999999
100
AcDbArc
 50
169.1399746138477
 51
226.8600253861515
  0
ARC
  5
5C5
330
18F
100
AcDbEntity
  8
3
100
AcDbCircle
 10
162.6079222569845
 20
159.0395394426626
 30
0.0
 40
2.093427844907798
100
AcDbArc
 50
143.8696252696807
 51
222.9283069621949
  0
ARC
  5
5C6
330
18F
100
AcDbEntity
  8
3
100
AcDbCircle
 10
140.6638459969879
 20
260.4590962478727
 30
0.0
 40
2.093427844907798
100
AcDbArc
 50
71.86962526968077
 51
150.9283069621949
  0
ARC
  5
5C7
330
18F
100
AcDbEntity
  8
3
100
AcDbCircle
 10
171.9813283262835
 20
240.9184995355935
 30
0.0
 40
39.00458528186851
100
AcDbArc
 50
148.1928983680616
 51
175.8071016319378
  0
ARC
  5
5C8
330
18F
100
AcDbEntity
  8
3
100
AcDbCircle
 10
135.1592783323738
 20
243.5177789672227
 30
0.0
 40
2.093427844907798
100
AcDbArc
 50
173.0716930378051
 51
252.1303747303201
  0
ENDSEC
  0
SECTION
  2
OBJECTS
  0
DICTIONARY
  5
184
330
0
100
AcDbDictionary
281
     1
  3
ACAD_GROUP
350
185
  3
ACAD_LAYOUT
350
1B6
  3
ACAD_MLINESTYLE
350
192
  3
ACAD_PLOTSETTINGS
350
1B7
  3
ACAD_PLOTSTYLENAME
350
1B4
  3
ACDBVARIABLEDICTIONARY
350
1A7
  3
AcmDictionary
350
274
  3
AMG
350
1BB
  3
AMGSNAPSETTINGS
350
291
  3
DWGPROPS
350
299
  3
MAPISURF_MODULE
350
247
  0
DICTIONARY
  5
5C9
330
18F
100
AcDbDictionary
280
     1
281
     1
  3
ACAD_INDEX
360
5CA
  0
DICTIONARY
  5
185
102
{ACAD_REACTORS
330
184
102
}
330
184
100
AcDbDictionary
281
     1
  0
DICTIONARY
  5
1B6
102
{ACAD_REACTORS
330
184
102
}
330
184
100
AcDbDictionary
281
     1
  3
Model
350
1B8
  3
ﾚｲｱｳﾄ1
350
1B9
  0
DICTIONARY
  5
192
102
{ACAD_REACTORS
330
184
102
}
330
184
100
AcDbDictionary
281
     1
  3
STANDARD
350
193
  0
DICTIONARY
  5
1B7
102
{ACAD_REACTORS
330
184
102
}
330
184
100
AcDbDictionary
281
     1
  0
ACDBDICTIONARYWDFLT
  5
1B4
102
{ACAD_REACTORS
330
184
102
}
330
184
100
AcDbDictionary
281
     1
  3
Normal
350
1B5
100
AcDbDictionaryWithDefault
340
1B5
  0
DICTIONARY
  5
1A7
102
{ACAD_REACTORS
330
184
102
}
330
184
100
AcDbDictionary
281
     1
  3
DIMADEC
350
1A8
  3
DIMASSOC
350
5D5
  3
INDEXCTL
350
5D4
  0
DICTIONARY
  5
274
102
{ACAD_REACTORS
330
184
102
}
330
184
100
AcDbDictionary
281
     1
  3
AcmBOMDATA
350
275
  3
AcmStdDictionary
350
3D9
  0
DICTIONARY
  5
1BB
102
{ACAD_REACTORS
330
184
102
}
330
184
100
AcDbDictionary
281
     1
  3
AcMgSettings
350
1BC
  3
AMGLAYCFG
350
281
  0
DICTIONARY
  5
291
102
{ACAD_REACTORS
330
184
102
}
330
184
100
AcDbDictionary
281
     1
  3
DIMENSION
350
296
  3
FEA
350
295
  3
HATCH (1)
350
292
  3
HATCH (2)
350
293
  3
SIMPLE WELD
350
297
  3
SYMBOLS
350
294
  0
XRECORD
  5
299
102
{ACAD_REACTORS
330
184
102
}
330
184
100
AcDbXrecord
280
     1
  1
DWGPROPS COOKIE
  2

  3

  4

  6

  7

  8

  9

300
AmdtFileType=84
301
=
302
=
303
=
304
=
305
=
306
=
307
=
308
=
309
=
 40
0.0012344444444444
 41
2450863.966461227
 42
2453551.649357812
  1

 90
        1
  0
DICTIONARY
  5
5CA
102
{ACAD_REACTORS
330
5C9
102
}
330
5C9
100
AcDbDictionary
281
     1
  3
*A1
350
5CB
  0
LAYOUT
  5
1B8
102
{ACAD_REACTORS
330
1B6
102
}
330
1B6
100
AcDbPlotSettings
  1

  2
\\KONISHIDENXP\SHARP MX-2700FG
  4

  6

 40
0.0
 41
0.0
 42
0.0
 43
0.0
 44
0.0
 45
0.0
 46
0.0
 47
0.0
 48
0.0
 49
0.0
140
0.0
141
0.0
142
1.0
143
1.0
 70
  1712
 72
     0
 73
     0
 74
     0
  7

 75
     0
147
1.0
148
0.0
149
0.0
100
AcDbLayout
  1
Model
 70
     1
 71
     0
 10
0.0
 20
0.0
 11
12.0
 21
9.0
 12
0.0
 22
0.0
 32
0.0
 14
0.0
 24
0.0
 34
0.0
 15
0.0
 25
0.0
 35
0.0
146
0.0
 13
0.0
 23
0.0
 33
0.0
 16
1.0
 26
0.0
 36
0.0
 17
0.0
 27
1.0
 37
0.0
 76
     0
330
18F
  0
LAYOUT
  5
1B9
102
{ACAD_REACTORS
330
1B6
102
}
330
1B6
100
AcDbPlotSettings
  1

  2
\\KONISHIDENXP\SHARP MX-2700FG
  4

  6

 40
0.0
 41
0.0
 42
0.0
 43
0.0
 44
0.0
 45
0.0
 46
0.0
 47
0.0
 48
0.0
 49
0.0
140
0.0
141
0.0
142
1.0
143
1.0
 70
   688
 72
     0
 73
     0
 74
     5
  7

 75
    16
147
1.0
148
0.0
149
0.0
100
AcDbLayout
  1
ﾚｲｱｳﾄ1
 70
     0
 71
     1
 10
0.0
 20
0.0
 11
12.0
 21
9.0
 12
0.0
 22
0.0
 32
0.0
 14
1.000000000000000E+20
 24
1.000000000000000E+20
 34
1.000000000000000E+20
 15
-1.000000000000000E+20
 25
-1.000000000000000E+20
 35
-1.000000000000000E+20
146
0.0
 13
0.0
 23
0.0
 33
0.0
 16
1.0
 26
0.0
 36
0.0
 17
0.0
 27
1.0
 37
0.0
 76
     0
330
18C
  0
MLINESTYLE
  5
193
102
{ACAD_REACTORS
330
192
102
}
330
192
100
AcDbMlineStyle
  2
STANDARD
 70
     0
  3

 62
   256
 51
90.0
 52
90.0
 71
     2
 49
0.5
 62
   256
  6
BYLAYER
 49
-0.5
 62
   256
  6
BYLAYER
  0
ACDBPLACEHOLDER
  5
1B5
102
{ACAD_REACTORS
330
1B4
102
}
330
1B4
  0
DICTIONARYVAR
  5
1A8
102
{ACAD_REACTORS
330
1A7
102
}
330
1A7
100
DictionaryVariables
280
     0
  1
0
  0
DICTIONARYVAR
  5
5D5
102
{ACAD_REACTORS
330
1A7
102
}
330
1A7
100
DictionaryVariables
280
     0
  1
0
  0
DICTIONARYVAR
  5
5D4
102
{ACAD_REACTORS
330
1A7
102
}
330
1A7
100
DictionaryVariables
280
     0
  1
1
  0
ACMDATADICTIONARY
  5
275
102
{ACAD_REACTORS
330
274
102
}
330
274
100
AcDbDictionary
281
     1
  3
*A1
350
276
100
AcmDataDictionary
  0
DICTIONARY
  5
3D9
102
{ACAD_REACTORS
330
274
102
}
330
274
100
AcDbDictionary
281
     1
  3
ISO
350
3DA
  0
DICTIONARY
  5
1BC
102
{ACAD_REACTORS
330
1BB
102
}
330
1BB
100
AcDbDictionary
281
     1
  3
DWGSETTINGS
350
1BD
  0
ACAMGFILTERDAT
  5
296
102
{ACAD_REACTORS
330
291
102
}
330
291
100
AcAmgFilterDat
 70
    15
  1
DIMENSION,AMDT_*_DIM
  2
*
  3
*
  4
*
  5
*
290
     1
  0
ACAMGFILTERDAT
  5
295
102
{ACAD_REACTORS
330
291
102
}
330
291
100
AcAmgFilterDat
 70
    15
  1
*
  2
AM_FEA-AM_*
  3
*
  4
*
  5
*
290
     1
  0
ACAMGFILTERDAT
  5
292
102
{ACAD_REACTORS
330
291
102
}
330
291
100
AcAmgFilterDat
 70
    15
  1
HATCH
  2
*
  3
*
  4
*
  5
*
290
     1
  0
ACAMGFILTERDAT
  5
293
102
{ACAD_REACTORS
330
291
102
}
330
291
100
AcAmgFilterDat
 70
    15
  1
LINE
  2
8,8N,*-8,*-8N,AM_8,AM_8N,*-AM_8,*-AM_8N
  3
*
  4
*
  5
INSERT,STDPART2D
290
     1
  0
ACAMGFILTERDAT
  5
297
102
{ACAD_REACTORS
330
291
102
}
330
291
100
AcAmgFilterDat
 70
    15
  1
ARC
  2
AM_5
  3
*
  4
2
  5
INSERT
290
     0
  0
ACAMGFILTERDAT
  5
294
102
{ACAD_REACTORS
330
291
102
}
330
291
100
AcAmgFilterDat
 70
    15
  1
ACMFCFRAME,ACMDATUMTARGET,ACMDATUMID,ACMWELDSYM,ACMSURFSYM,ACMFEATID,ACMPARTREF,ACMBALLOON,AMDTEDGESYM,AMGSCREWCALCTABLE
  2
*
  3
*
  4
*
  5
*
290
     1
  0
LAYER_INDEX
  5
5CB
102
{ACAD_REACTORS
330
5CA
102
}
330
5CA
100
AcDbIndex
 40
2456448.430152268
100
AcDbLayerIndex
  8
0
360
5CC
 90
        6
  8
1
360
5CD
 90
       12
  8
10
360
5CE
 90
        0
  8
11
360
5CF
 90
        0
  8
2
360
5D0
 90
        3
  8
3
360
5D1
 90
      119
  8
DEFPOINTS
360
5D2
 90
        0
  8
5
360
5D3
 90
        0
  0
ACMDATAENTRYBLOCK
  5
276
102
{ACAD_REACTORS
330
275
102
}
330
275
100
AcmDataEntry
100
AcmDataEntryBlock
  0
IDBUFFER
  5
5CC
330
0
100
AcDbIdBuffer
330
420
330
441
330
443
330
47B
330
48C
330
5C1
  0
IDBUFFER
  5
5CD
330
0
100
AcDbIdBuffer
330
3F2
330
3FB
330
43E
330
446
330
449
330
464
330
481
330
5A1
330
5A2
330
5A5
330
5A6
330
5BE
  0
IDBUFFER
  5
5CE
330
0
100
AcDbIdBuffer
  0
IDBUFFER
  5
5CF
330
0
100
AcDbIdBuffer
  0
IDBUFFER
  5
5D0
330
0
100
AcDbIdBuffer
330
44D
330
44E
330
454
  0
IDBUFFER
  5
5D1
330
0
100
AcDbIdBuffer
330
5C2
330
5C3
330
5C4
330
5C5
330
5C6
330
5C7
330
5C8
330
3F3
330
3F6
330
3F7
330
3FA
330
3FC
330
400
330
407
330
408
330
40C
330
40F
330
411
330
413
330
415
330
416
330
417
330
418
330
419
330
41E
330
422
330
424
330
425
330
427
330
42B
330
42C
330
42D
330
42F
330
430
330
431
330
432
330
439
330
43A
330
43B
330
43D
330
43F
330
444
330
445
330
447
330
448
330
44A
330
44B
330
44C
330
44F
330
450
330
451
330
452
330
453
330
455
330
456
330
458
330
459
330
45B
330
45C
330
45E
330
460
330
461
330
462
330
468
330
469
330
46A
330
46B
330
46D
330
46E
330
46F
330
470
330
471
330
472
330
473
330
474
330
475
330
476
330
477
330
478
330
47A
330
47C
330
47D
330
47E
330
48B
330
48D
330
48E
330
492
330
59A
330
59B
330
59C
330
59D
330
59E
330
5A3
330
5A4
330
5A7
330
5A8
330
5A9
330
5AA
330
5AB
330
5AC
330
5AD
330
5AE
330
5AF
330
5B0
330
5B1
330
5B2
330
5B3
330
5B4
330
5B5
330
5B6
330
5B7
330
5B8
330
5B9
330
5BA
330
5BB
330
5BC
330
5BD
330
5BF
330
5C0
  0
IDBUFFER
  5
5D2
330
0
100
AcDbIdBuffer
  0
IDBUFFER
  5
5D3
330
0
100
AcDbIdBuffer
  0
ENDSEC
  0
EOF
