  0
SECTION
  2
HEADER
  9
$ACADVER
  1
AC1015
  9
$ACADMAINTVER
 70
    13
  9
$DWGCODEPAGE
  3
ANSI_932
  9
$INSBASE
 10
0.0
 20
0.0
 30
0.0
  9
$EXTMIN
 10
79.80156912532027
 20
87.17361187152604
 30
-0.0000000000000016
  9
$EXTMAX
 10
418.1797275120143
 20
269.7383538923987
 30
0.0
  9
$LIMMIN
 10
0.0
 20
0.0
  9
$LIMMAX
 10
500.0
 20
320.0
  9
$ORTHOMODE
 70
     1
  9
$REGENMODE
 70
     1
  9
$FILLMODE
 70
     1
  9
$QTEXTMODE
 70
     0
  9
$MIRRTEXT
 70
     1
  9
$LTSCALE
 40
30.0
  9
$ATTMODE
 70
     1
  9
$TEXTSIZE
 40
16.0
  9
$TRACEWID
 40
0.05
  9
$TEXTSTYLE
  7
BIGFONT
  9
$CLAYER
  8
0
  9
$CELTYPE
  6
BYLAYER
  9
$CECOLOR
 62
   256
  9
$CELTSCALE
 40
1.0
  9
$DISPSILH
 70
     0
  9
$DIMSCALE
 40
3.0
  9
$DIMASZ
 40
3.0
  9
$DIMEXO
 40
2.0
  9
$DIMDLI
 40
0.38
  9
$DIMRND
 40
0.0
  9
$DIMDLE
 40
0.0
  9
$DIMEXE
 40
2.0
  9
$DIMTP
 40
0.0
  9
$DIMTM
 40
0.0
  9
$DIMTXT
 40
3.2
  9
$DIMCEN
 40
0.09
  9
$DIMTSZ
 40
0.0
  9
$DIMTOL
 70
     0
  9
$DIMLIM
 70
     0
  9
$DIMTIH
 70
     0
  9
$DIMTOH
 70
     0
  9
$DIMSE1
 70
     0
  9
$DIMSE2
 70
     0
  9
$DIMTAD
 70
     1
  9
$DIMZIN
 70
     0
  9
$DIMBLK
  1

  9
$DIMASO
 70
     0
  9
$DIMSHO
 70
     0
  9
$DIMPOST
  1

  9
$DIMAPOST
  1

  9
$DIMALT
 70
     0
  9
$DIMALTD
 70
     2
  9
$DIMALTF
 40
25.4
  9
$DIMLFAC
 40
1.0
  9
$DIMTOFL
 70
     0
  9
$DIMTVP
 40
1.6
  9
$DIMTIX
 70
     1
  9
$DIMSOXD
 70
     0
  9
$DIMSAH
 70
     0
  9
$DIMBLK1
  1

  9
$DIMBLK2
  1

  9
$DIMSTYLE
  2
STANDARD
  9
$DIMCLRD
 70
     0
  9
$DIMCLRE
 70
     0
  9
$DIMCLRT
 70
     0
  9
$DIMTFAC
 40
1.0
  9
$DIMGAP
 40
0.09
  9
$DIMJUST
 70
     0
  9
$DIMSD1
 70
     0
  9
$DIMSD2
 70
     0
  9
$DIMTOLJ
 70
     1
  9
$DIMTZIN
 70
     0
  9
$DIMALTZ
 70
     0
  9
$DIMALTTZ
 70
     0
  9
$DIMUPT
 70
     0
  9
$DIMDEC
 70
     4
  9
$DIMTDEC
 70
     4
  9
$DIMALTU
 70
     2
  9
$DIMALTTD
 70
     2
  9
$DIMTXSTY
  7
BIGFONT
  9
$DIMAUNIT
 70
     0
  9
$DIMADEC
 70
     0
  9
$DIMALTRND
 40
0.0
  9
$DIMAZIN
 70
     0
  9
$DIMDSEP
 70
    46
  9
$DIMATFIT
 70
     3
  9
$DIMFRAC
 70
     0
  9
$DIMLDRBLK
  1

  9
$DIMLUNIT
 70
     2
  9
$DIMLWD
 70
    -2
  9
$DIMLWE
 70
    -2
  9
$DIMTMOVE
 70
     0
  9
$LUNITS
 70
     2
  9
$LUPREC
 70
     4
  9
$SKETCHINC
 40
0.1
  9
$FILLETRAD
 40
0.0
  9
$AUNITS
 70
     0
  9
$AUPREC
 70
     0
  9
$MENU
  1
ACAD
  9
$ELEVATION
 40
0.0
  9
$PELEVATION
 40
0.0
  9
$THICKNESS
 40
0.0
  9
$LIMCHECK
 70
     0
  9
$CHAMFERA
 40
0.0
  9
$CHAMFERB
 40
0.0
  9
$CHAMFERC
 40
0.0
  9
$CHAMFERD
 40
0.0
  9
$SKPOLY
 70
     0
  9
$TDCREATE
 40
2450863.961183449
  9
$TDUCREATE
 40
2450863.586183449
  9
$TDUPDATE
 40
2456448.421052152
  9
$TDUUPDATE
 40
2456448.046052152
  9
$TDINDWG
 40
0.0031492361
  9
$TDUSRTIMER
 40
0.0031490509
  9
$USRTIMER
 70
     1
  9
$ANGBASE
 50
0.0
  9
$ANGDIR
 70
     0
  9
$PDMODE
 70
     0
  9
$PDSIZE
 40
0.0
  9
$PLINEWID
 40
0.0
  9
$SPLFRAME
 70
     0
  9
$SPLINETYPE
 70
     6
  9
$SPLINESEGS
 70
     8
  9
$HANDSEED
  5
50D
  9
$SURFTAB1
 70
     6
  9
$SURFTAB2
 70
     6
  9
$SURFTYPE
 70
     6
  9
$SURFU
 70
     6
  9
$SURFV
 70
     6
  9
$UCSBASE
  2

  9
$UCSNAME
  2

  9
$UCSORG
 10
0.0
 20
0.0
 30
0.0
  9
$UCSXDIR
 10
1.0
 20
0.0
 30
0.0
  9
$UCSYDIR
 10
0.0
 20
1.0
 30
0.0
  9
$UCSORTHOREF
  2

  9
$UCSORTHOVIEW
 70
     0
  9
$UCSORGTOP
 10
0.0
 20
0.0
 30
0.0
  9
$UCSORGBOTTOM
 10
0.0
 20
0.0
 30
0.0
  9
$UCSORGLEFT
 10
0.0
 20
0.0
 30
0.0
  9
$UCSORGRIGHT
 10
0.0
 20
0.0
 30
0.0
  9
$UCSORGFRONT
 10
0.0
 20
0.0
 30
0.0
  9
$UCSORGBACK
 10
0.0
 20
0.0
 30
0.0
  9
$PUCSBASE
  2

  9
$PUCSNAME
  2

  9
$PUCSORG
 10
0.0
 20
0.0
 30
0.0
  9
$PUCSXDIR
 10
1.0
 20
0.0
 30
0.0
  9
$PUCSYDIR
 10
0.0
 20
1.0
 30
0.0
  9
$PUCSORTHOREF
  2

  9
$PUCSORTHOVIEW
 70
     0
  9
$PUCSORGTOP
 10
0.0
 20
0.0
 30
0.0
  9
$PUCSORGBOTTOM
 10
0.0
 20
0.0
 30
0.0
  9
$PUCSORGLEFT
 10
0.0
 20
0.0
 30
0.0
  9
$PUCSORGRIGHT
 10
0.0
 20
0.0
 30
0.0
  9
$PUCSORGFRONT
 10
0.0
 20
0.0
 30
0.0
  9
$PUCSORGBACK
 10
0.0
 20
0.0
 30
0.0
  9
$USERI1
 70
     0
  9
$USERI2
 70
     0
  9
$USERI3
 70
     0
  9
$USERI4
 70
     0
  9
$USERI5
 70
     0
  9
$USERR1
 40
0.0
  9
$USERR2
 40
0.0
  9
$USERR3
 40
0.0
  9
$USERR4
 40
0.0
  9
$USERR5
 40
0.0
  9
$WORLDVIEW
 70
     1
  9
$SHADEDGE
 70
     3
  9
$SHADEDIF
 70
    70
  9
$TILEMODE
 70
     1
  9
$MAXACTVP
 70
    16
  9
$PINSBASE
 10
0.0
 20
0.0
 30
0.0
  9
$PLIMCHECK
 70
     0
  9
$PEXTMIN
 10
1.000000000000000E+20
 20
1.000000000000000E+20
 30
1.000000000000000E+20
  9
$PEXTMAX
 10
-1.000000000000000E+20
 20
-1.000000000000000E+20
 30
-1.000000000000000E+20
  9
$PLIMMIN
 10
0.0
 20
0.0
  9
$PLIMMAX
 10
12.0
 20
9.0
  9
$UNITMODE
 70
     0
  9
$VISRETAIN
 70
     0
  9
$PLINEGEN
 70
     1
  9
$PSLTSCALE
 70
     0
  9
$TREEDEPTH
 70
  3020
  9
$CMLSTYLE
  2
STANDARD
  9
$CMLJUST
 70
     0
  9
$CMLSCALE
 40
1.0
  9
$PROXYGRAPHICS
 70
     1
  9
$MEASUREMENT
 70
     0
  9
$CELWEIGHT
370
    -1
  9
$ENDCAPS
280
     0
  9
$JOINSTYLE
280
     0
  9
$LWDISPLAY
290
     0
  9
$INSUNITS
 70
     0
  9
$HYPERLINKBASE
  1

  9
$STYLESHEET
  1

  9
$XEDIT
290
     1
  9
$CEPSNTYPE
380
     0
  9
$PSTYLEMODE
290
     1
  9
$FINGERPRINTGUID
  2
{05E27C4C-30AC-4BD7-984D-F404DBBCE179}
  9
$VERSIONGUID
  2
{EC0DA3B0-34EA-4494-A48A-3D9656D919AD}
  9
$EXTNAMES
290
     1
  9
$PSVPSCALE
 40
0.0
  9
$OLESTARTUP
290
     0
  0
ENDSEC
  0
SECTION
  2
CLASSES
  0
CLASS
  1
DICTIONARYVAR
  2
AcDbDictionaryVar
  3
AutoCAD 2000
 90
        0
280
     0
281
     0
  0
CLASS
  1
ACDBDICTIONARYWDFLT
  2
AcDbDictionaryWithDefault
  3
AutoCAD 2000
 90
        0
280
     0
281
     0
  0
CLASS
  1
ACDBPLACEHOLDER
  2
AcDbPlaceHolder
  3
AutoCAD 2000
 90
        0
280
     0
281
     0
  0
CLASS
  1
LAYOUT
  2
AcDbLayout
  3
AutoCAD 2000
 90
        0
280
     0
281
     0
  0
CLASS
  1
AMGSETTINGSOBJ
  2
AmgSettingsObj
  3
"AcadM|Product Description: AutoCAD Mechanical 2000|Company: Autodesk"
 90
        0
280
     0
281
     0
  0
CLASS
  1
ACME_DOCUMENT
  2
AcMeDbDoc
  3
AcMeServices
 90
        0
280
     0
281
     0
  0
CLASS
  1
ACMESCOPE
  2
AcMeScope
  3
AcMeServices
 90
        0
280
     0
281
     0
  0
CLASS
  1
ACMECOMMANDHISTORY
  2
AcMeCommandHistory
  3
AcMeServices
 90
        0
280
     0
281
     0
  0
CLASS
  1
ACIMSYSVARMAN
  2
AcImSysVarManager
  3
AcMeServices
 90
        0
280
     0
281
     0
  0
CLASS
  1
ACIMREALSYSVAR
  2
AcImRealSysVar
  3
AcMeServices
 90
        0
280
     0
281
     0
  0
CLASS
  1
ACIMINTSYSVAR
  2
AcImIntSysVar
  3
AcMeServices
 90
        0
280
     0
281
     0
  0
CLASS
  1
ACMEDRAWINGMAN
  2
AcMeDrawingMan
  3
AcMeServices
 90
        0
280
     0
281
     0
  0
CLASS
  1
ACMEVIEW
  2
AcMeView
  3
AcMeServices
 90
        0
280
     0
281
     0
  0
CLASS
  1
ACDBENTITYCACHE
  2
AcMeEntityCache
  3
AcMeServices
 90
        0
280
     0
281
     0
  0
CLASS
  1
GSMANAGER
  2
AcMeGSManager
  3
AcMeServices
 90
        0
280
     0
281
     0
  0
CLASS
  1
AMDTINTERNALREACTOR
  2
AmdtInternalReactor
  3
AcMeServices
 90
        0
280
     0
281
     0
  0
CLASS
  1
ACMESTATEMGR
  2
AcMeStateMgr
  3
AcMeServices
 90
        0
280
     0
281
     0
  0
CLASS
  1
ACGREFMASTER
  2
AcGrefMaster
  3
AcAttribServices
 90
        0
280
     0
281
     0
  0
CLASS
  1
AM_DRAWING_MGR
  2
AcDmDwgMgr
  3
AcMechDwgViewMgmt
 90
        0
280
     0
281
     0
  0
CLASS
  1
AM_DWG_DOCUMENT
  2
AcDmDwgDocument
  3
AcMechDwgViewMgmt
 90
        0
280
     0
281
     0
  0
CLASS
  1
AM_DWG_SHEET
  2
AcDmSheet
  3
AcMechDwgViewMgmt
 90
        0
280
     0
281
     0
  0
CLASS
  1
AM_VIEWDIMPARMAP
  2
AcDmViewDimParMap
  3
AcMechDwgViewMgmt
 90
        0
280
     0
281
     0
  0
CLASS
  1
AM_DWGMGR_NAME
  2
AcDmDwgMgrName
  3
AcMechDwgViewMgmt
 90
        0
280
     0
281
     0
  0
CLASS
  1
ACME_DATABASE
  2
AcMeDbDatabase
  3
AcMeServices
 90
        0
280
     0
281
     0
  0
CLASS
  1
ACRFINSADJUSTERMGR
  2
AcRfInsAdjusterMgr
  3
AcMeServices
 90
        0
280
     0
281
     0
  0
CLASS
  1
ACGREFACADMASTER
  2
AcGrefacadMaster
  3
AcGrefServices
 90
        0
280
     0
281
     0
  0
CLASS
  1
AMDTMENUSTATEMGR
  2
AmdtMenuStateMgr
  3
McadcomServices
 90
        0
280
     0
281
     0
  0
CLASS
  1
AMDTMCOMMENUSTATE
  2
AmdtMcomMenuState
  3
McadcomServices
 90
        0
280
     0
281
     0
  0
CLASS
  1
AMIMASTER
  2
AmiMaster
  3
AmiServices
 90
        0
280
     0
281
     0
  0
CLASS
  1
ASAPP
  2
AcAsAppObject
  3
AutoSurfServices
 90
        0
280
     0
281
     0
  0
CLASS
  1
IM_STATIC_MAN
  2
AcImStaticVarManager
  3
AcMeServices
 90
        0
280
     0
281
     0
  0
CLASS
  1
ACIMSTRSYSVAR
  2
AcImStrSysVar
  3
AcMeServices
 90
        0
280
     0
281
     0
  0
CLASS
  1
ACIMDBLSTATICVAR
  2
AcImDblStaticVar
  3
AcMeServices
 90
        0
280
     0
281
     0
  0
CLASS
  1
ACIMSTRSTATICVAR
  2
AcImStrStaticVar
  3
AcMeServices
 90
        0
280
     0
281
     0
  0
CLASS
  1
ACIMINTSTATICVAR
  2
AcImIntStaticVar
  3
AcMeServices
 90
        0
280
     0
281
     0
  0
CLASS
  1
ACASGREFMASTER
  2
AcAsGrefMaster
  3
AutoSurfResolverServices
 90
        0
280
     0
281
     0
  0
CLASS
  1
ACADGREFMODULE
  2
AcAdGrefModule
  3
AdGrefServices
 90
        0
280
     0
281
     0
  0
CLASS
  1
AMDTMAPISURFMOUDULE
  2
AmdtMApiSurfModule
  3
MApiSurfServices
 90
        0
280
     0
281
     0
  0
CLASS
  1
MAPIAMMOUDLE
  2
MApiAmModule
  3
MApiAmServices
 90
        0
280
     0
281
     0
  0
CLASS
  1
AMDTADMENUSTATE
  2
AmdtAdMenuState
  3
DesignerServices
 90
        0
280
     0
281
     0
  0
CLASS
  1
ADAPPL
  2
AcAdAppl
  3
DesignerServices
 90
        0
280
     0
281
     0
  0
CLASS
  1
DEPMGR
  2
AcAdDepMgr
  3
DesignerServices
 90
        0
280
     0
281
     0
  0
CLASS
  1
PARAMMGR
  2
AcAdParamMgr
  3
DesignerServices
 90
        0
280
     0
281
     0
  0
CLASS
  1
PARAMSCOPE
  2
AcAdParamScope
  3
DesignerServices
 90
        0
280
     0
281
     0
  0
CLASS
  1
NAMEDAPPL
  2
AcAdNamedAppl
  3
DesignerServices
 90
        0
280
     0
281
     0
  0
CLASS
  1
AMDTDMMENUSTATE
  2
AmdtDmMenuState
  3
AcMechDwgViewMgmt
 90
        0
280
     0
281
     0
  0
CLASS
  1
MAPIADMODULE
  2
MApiAdModule
  3
MApiAdServices
 90
        0
280
     0
281
     0
  0
CLASS
  1
AMDTAMMENUSTATE
  2
AmdtAmMenuState
  3
DesignerAssemblies
 90
        0
280
     0
281
     0
  0
CLASS
  1
ACAMPROJECT
  2
AcAmProject
  3
DesignerAssemblies
 90
        0
280
     0
281
     0
  0
CLASS
  1
ACAMGRCOMPDEF
  2
AcAmGrCompDef
  3
DesignerAssemblies
 90
        0
280
     0
281
     0
  0
CLASS
  1
ACCMCONTEXT
  2
AcCmContext
  3
DesignerAssemblies
 90
        0
280
     0
281
     0
  0
CLASS
  1
ACAMCOMPDEF
  2
AcAmCompDef
  3
DesignerAssemblies
 90
        0
280
     0
281
     0
  0
CLASS
  1
ACAMCOMPDEFMGR
  2
AcAmCompDefMgr
  3
DesignerAssemblies
 90
        0
280
     0
281
     0
  0
CLASS
  1
AMCONTEXTMGR
  2
AcAmContextMgr
  3
DesignerAssemblies
 90
        0
280
     0
281
     0
  0
CLASS
  1
ACAMCONTEXTMODELER
  2
AcAmContextModeler
  3
DesignerAssemblies
 90
        0
280
     0
281
     0
  0
CLASS
  1
ACMDATADICTIONARY
  2
AcmDataDictionary
  3
"AcmSymBB|Product Description: AutoCAD Mechanical 2000|Company: Autodesk"
 90
        0
280
     0
281
     0
  0
CLASS
  1
ACMDATAENTRYBLOCK
  2
AcmDataEntryBlock
  3
"AcmSymBB|Product Description: AutoCAD Mechanical 2000|Company: Autodesk"
 90
        0
280
     0
281
     0
  0
CLASS
  1
CATALOGSTATE
  2
AcAmCatalogState
  3
DesignerAssemblies
 90
        0
280
     0
281
     0
  0
CLASS
  1
ACAMGRCOMPDEFSET
  2
AcAmGrCompDefSet
  3
DesignerAssemblies
 90
        0
280
     0
281
     0
  0
CLASS
  1
AMDTBROWSERDBTAB
  2
AmdtBrowserDbTab
  3
McadcomServices
 90
        0
280
     0
281
     0
  0
CLASS
  1
CBROWSERAPPOBJECT
  2
CBrowserAppObject
  3
McadcomServices
 90
        0
280
     0
281
     0
  0
CLASS
  1
DM_PLACEHOLDER
  2
AcDmSelsetPlaceholder
  3
AcMechDwgViewMgmt
 90
        0
280
     0
281
     0
  0
CLASS
  1
AMGOBJPROPCFG
  2
AmgObjPropCfg
  3
"AmgLay|Product Description: AutoCAD Mechanical 2000|Company: Autodesk"
 90
        1
280
     0
281
     0
  0
CLASS
  1
ACAMGFILTERDAT
  2
AcAmgFilterDat
  3
"AcadM|Product Description: AutoCAD Mechanical 2000|Company: Autodesk"
 90
        0
280
     0
281
     0
  0
CLASS
  1
ACMSTANDARDISO
  2
AcmStandardISO
  3
"Amdt_StdImp|Product Description: AutoCAD Mechanical 2000|Company: Autodesk"
 90
        0
280
     0
281
     0
  0
CLASS
  1
AMDTEDGESTANDARDISO
  2
AmdtEdgeStdISO
  3
"Amdt_StdImp|Product Description: AutoCAD Mechanical 2000|Company: Autodesk"
 90
        0
280
     0
281
     0
  0
CLASS
  1
ACMSURFSTANDARDISO
  2
AcmSurfTextStdISO
  3
"Amdt_StdImp|Product Description: AutoCAD Mechanical 2000|Company: Autodesk"
 90
        0
280
     0
281
     0
  0
CLASS
  1
ACMFCFSTANDARDISO
  2
AcmFCFStdISO
  3
"Amdt_StdImp|Product Description: AutoCAD Mechanical 2000|Company: Autodesk"
 90
        0
280
     0
281
     0
  0
CLASS
  1
ACMWELDSTANDARDISO
  2
AcmWeldingStdISO
  3
"Amdt_StdImp|Product Description: AutoCAD Mechanical 2000|Company: Autodesk"
 90
        0
280
     0
281
     0
  0
CLASS
  1
ACMIDSTANDARDISO
  2
AcmIdStdISO
  3
"Amdt_StdImp|Product Description: AutoCAD Mechanical 2000|Company: Autodesk"
 90
        0
280
     0
281
     0
  0
CLASS
  1
ACMDATUMSTANDARDISO
  2
AcmDatumStdISO
  3
"Amdt_StdImp|Product Description: AutoCAD Mechanical 2000|Company: Autodesk"
 90
        0
280
     0
281
     0
  0
CLASS
  1
ACMBOMSTANDARDISO
  2
AcmBOMStdISO
  3
"Amdt_StdImp|Product Description: AutoCAD Mechanical 2000|Company: Autodesk"
 90
        0
280
     0
281
     0
  0
CLASS
  1
ACMDETAILSTANDARDISO
  2
AmdtDetailSymStdISO
  3
"Amdt_StdImp|Product Description: AutoCAD Mechanical 2000|Company: Autodesk"
 90
        0
280
     0
281
     0
  0
CLASS
  1
ACMSECTIONSTANDARDISO
  2
AmdtSectionSymStdISO
  3
"Amdt_StdImp|Product Description: AutoCAD Mechanical 2000|Company: Autodesk"
 90
        0
280
     0
281
     0
  0
CLASS
  1
ACMCENTERLINESTANDARDISO
  2
AmdtCenterLineStdISO
  3
"Amdt_StdImp|Product Description: AutoCAD Mechanical 2000|Company: Autodesk"
 90
        0
280
     0
281
     0
  0
CLASS
  1
ACMTHREADLINESTANDARDISO
  2
AmdtThreadLineStdISO
  3
"Amdt_StdImp|Product Description: AutoCAD Mechanical 2000|Company: Autodesk"
 90
        0
280
     0
281
     0
  0
CLASS
  1
ACMNOTESTANDARDISO
  2
AmdtNoteStdISO
  3
"Amdt_StdImp|Product Description: AutoCAD Mechanical 2000|Company: Autodesk"
 90
        0
280
     0
281
     0
  0
CLASS
  1
ACAMGLAYSTD
  2
AcAmgLayStd
  3
"AcAmgLayStd|Product Description: AutoCAD Mechanical 2000|Company: Autodesk"
 90
        0
280
     0
281
     0
  0
CLASS
  1
ACAMGDIMSTD
  2
AcAmgDimStd
  3
"AcAmgDimStd|Product Description: AutoCAD Mechanical 2000|Company: Autodesk"
 90
        0
280
     0
281
     0
  0
CLASS
  1
ACAMGHOLECHARTSTDISO
  2
AcAmgHoleChartStdISO
  3
ACMSYMBB_MODULE_NAME
 90
        0
280
     0
281
     0
  0
CLASS
  1
ACAMGTITLESTD
  2
AcAmgTitleStd
  3
"TITLEAPP"
 90
        0
280
     0
281
     0
  0
CLASS
  1
AMDTFORMULAUPDATEDISPATCHER
  2
AmdtFormulaUpdateDispatcher
  3
AcMeServices
 90
        0
280
     0
281
     0
  0
CLASS
  1
LAYER_INDEX
  2
AcDbLayerIndex
  3
AutoCAD 2000
 90
        0
280
     0
281
     0
  0
CLASS
  1
IDBUFFER
  2
AcDbIdBuffer
  3
AutoCAD 2000
 90
        0
280
     0
281
     0
  0
ENDSEC
  0
SECTION
  2
TABLES
  0
TABLE
  2
VPORT
  5
13A
330
0
100
AcDbSymbolTable
 70
     3
  0
VPORT
  5
50C
330
13A
100
AcDbSymbolTableRecord
100
AcDbViewportTableRecord
  2
*Active
 70
     0
 10
0.0
 20
0.0
 11
1.0
 21
1.0
 12
0.0
 22
0.0
 13
0.0
 23
0.0
 14
10.0
 24
10.0
 15
10.0
 25
10.0
 16
0.0
 26
0.0
 36
1.0
 17
294.6125919498794
 27
197.7634529999999
 37
0.0
 40
395.5437949909504
 41
1.489721886336154
 42
50.0
 43
0.0
 44
0.0
 50
0.0
 51
0.0
 71
     0
 72
   500
 73
     1
 74
     1
 75
     0
 76
     0
 77
     0
 78
     2
281
     0
 65
     0
110
0.0
120
0.0
130
0.0
111
1.0
121
0.0
131
0.0
112
0.0
122
1.0
132
0.0
 79
     0
146
0.0
  0
ENDTAB
  0
TABLE
  2
LTYPE
  5
137
330
0
100
AcDbSymbolTable
 70
    21
  0
LTYPE
  5
143
330
137
100
AcDbSymbolTableRecord
100
AcDbLinetypeTableRecord
  2
BYBLOCK
 70
     0
  3

 72
    65
 73
     0
 40
0.0
  0
LTYPE
  5
144
330
137
100
AcDbSymbolTableRecord
100
AcDbLinetypeTableRecord
  2
BYLAYER
 70
     0
  3

 72
    65
 73
     0
 40
0.0
  0
LTYPE
  5
145
330
137
100
AcDbSymbolTableRecord
100
AcDbLinetypeTableRecord
  2
CONTINUOUS
 70
     0
  3
実線
 72
    65
 73
     0
 40
0.0
  0
LTYPE
  5
154
330
137
100
AcDbSymbolTableRecord
100
AcDbLinetypeTableRecord
  2
CENTER
 70
     0
  3
____ _ ____ _ ____ _ ____ _ ____ _ ____ _ ____
 72
    65
 73
     4
 40
2.0
 49
1.25
 74
     0
 49
-0.25
 74
     0
 49
0.25
 74
     0
 49
-0.25
 74
     0
  0
LTYPE
  5
155
330
137
100
AcDbSymbolTableRecord
100
AcDbLinetypeTableRecord
  2
HIDDEN
 70
     0
  3
_ _ _ _ _ _ _ _ _ _ _ _ _ _ _ _ _ _ _ _ _ _ _
 72
    65
 73
     2
 40
0.375
 49
0.25
 74
     0
 49
-0.125
 74
     0
  0
LTYPE
  5
19C
330
137
100
AcDbSymbolTableRecord
100
AcDbLinetypeTableRecord
  2
PHANTOM2
 70
     0
  3
Phantom (.5x) ___ _ _ ___ _ _ ___ _ _ ___ _ _
 72
    65
 73
     6
 40
1.25
 49
0.625
 74
     0
 49
-0.125
 74
     0
 49
0.125
 74
     0
 49
-0.125
 74
     0
 49
0.125
 74
     0
 49
-0.125
 74
     0
  0
LTYPE
  5
1FE
330
137
100
AcDbSymbolTableRecord
100
AcDbLinetypeTableRecord
  2
ASULTYPE
 70
     0
  3
実線
 72
    65
 73
     2
 40
3.0
 49
2.5
 74
     0
 49
0.5
 74
     0
  0
LTYPE
  5
1FF
330
137
100
AcDbSymbolTableRecord
100
AcDbLinetypeTableRecord
  2
ASVLTYPE
 70
     0
  3
__ __ __ __ __ __ __ __ __ __ __ __ __ __ __ __ __ __ __ __ __
 72
    65
 73
     2
 40
0.75
 49
0.5
 74
     0
 49
-0.25
 74
     0
  0
LTYPE
  5
240
330
137
100
AcDbSymbolTableRecord
100
AcDbLinetypeTableRecord
  2
AM_ISO02W050
 70
     0
  3
__ __ __ __ __ __ __ __ __ __ __ __ __ __ __
 72
    65
 73
     2
 40
7.5
 49
6.0
 74
     0
 49
-1.5
 74
     0
  0
LTYPE
  5
241
330
137
100
AcDbSymbolTableRecord
100
AcDbLinetypeTableRecord
  2
AM_ISO08W050
 70
     0
  3
____ . ____ . ____ . ____ . ____ . ____ . ____
 72
    65
 73
     4
 40
18.0
 49
12.0
 74
     0
 49
-1.5
 74
     0
 49
3.0
 74
     0
 49
-1.5
 74
     0
  0
LTYPE
  5
242
330
137
100
AcDbSymbolTableRecord
100
AcDbLinetypeTableRecord
  2
AM_ISO09W050
 70
     0
  3
_____ . . _____ . . _____ . . ____ .. ____
 72
    65
 73
     6
 40
22.5
 49
12.0
 74
     0
 49
-1.5
 74
     0
 49
3.0
 74
     0
 49
-1.5
 74
     0
 49
3.0
 74
     0
 49
-1.5
 74
     0
  0
LTYPE
  5
243
330
137
100
AcDbSymbolTableRecord
100
AcDbLinetypeTableRecord
  2
Amconstr
 70
     0
  3
_______________________
 72
    65
 73
     2
 40
9999.0
 49
9999.0
 74
     0
 49
0.0
 74
     0
  0
LTYPE
  5
244
330
137
100
AcDbSymbolTableRecord
100
AcDbLinetypeTableRecord
  2
AM_ISO08W050x2
 70
     0
  3
__ . __ . __ . __ . __ . __
 72
    65
 73
     4
 40
9.0
 49
6.0
 74
     0
 49
-0.75
 74
     0
 49
1.5
 74
     0
 49
-0.75
 74
     0
  0
LTYPE
  5
245
330
137
100
AcDbSymbolTableRecord
100
AcDbLinetypeTableRecord
  2
AM_ISO02W050x2
 70
     0
  3
 _ _ _ _ _ _ _ _ _ _ _ _
 72
    65
 73
     2
 40
3.75
 49
3.0
 74
     0
 49
-0.75
 74
     0
  0
LTYPE
  5
248
330
137
100
AcDbSymbolTableRecord
100
AcDbLinetypeTableRecord
  2
Amzigzag
 70
     0
  3
/\/-/\/-/\/-/\/-/\/-/\/
 72
    65
 73
     2
 40
11.00009999999999
 49
0.0001
 74
     4
 75
   135
340
247
 46
0.04
 50
0.0
 44
0.0
 45
0.0
 49
-11.0
 74
     0
  0
LTYPE
  5
249
330
137
100
AcDbSymbolTableRecord
100
AcDbLinetypeTableRecord
  2
CENTER2
 70
     0
  3
Center (.5x) ___ _ ___ _ ___ _ ___ _ ___ _ ___
 72
    65
 73
     4
 40
1.125
 49
0.75
 74
     0
 49
-0.125
 74
     0
 49
0.125
 74
     0
 49
-0.125
 74
     0
  0
LTYPE
  5
24A
330
137
100
AcDbSymbolTableRecord
100
AcDbLinetypeTableRecord
  2
HIDDEN2
 70
     0
  3
Hidden (.5x) _ _ _ _ _ _ _ _ _ _ _ _ _ _ _ _ _
 72
    65
 73
     2
 40
0.1875
 49
0.125
 74
     0
 49
-0.0625
 74
     0
  0
LTYPE
  5
24B
330
137
100
AcDbSymbolTableRecord
100
AcDbLinetypeTableRecord
  2
Amzigzag2
 70
     0
  3
/\/-/\/-/\/-/\/-/\/-/\/
 72
    65
 73
     2
 40
0.4401
 49
0.0001
 74
     4
 75
   135
340
247
 46
0.0016
 50
0.0
 44
0.0
 45
0.0
 49
-0.4400000000000001
 74
     0
  0
LTYPE
  5
2B9
330
137
100
AcDbSymbolTableRecord
100
AcDbLinetypeTableRecord
  2
TENSEN
 70
     0
  3

 72
    65
 73
     2
 40
4.0
 49
3.0
 74
     0
 49
-1.0
 74
     0
  0
LTYPE
  5
2BA
330
137
100
AcDbSymbolTableRecord
100
AcDbLinetypeTableRecord
  2
ITTEN1
 70
     0
  3

 72
    65
 73
     4
 40
8.199999999999999
 49
5.0
 74
     0
 49
-1.0
 74
     0
 49
1.199999999999999
 74
     0
 49
-1.0
 74
     0
  0
LTYPE
  5
2BB
330
137
100
AcDbSymbolTableRecord
100
AcDbLinetypeTableRecord
  2
ACISOWELD
 70
     0
  3
_ _ _ _ _
 72
    65
 73
     2
 40
2.0
 49
2.0
 74
     0
 49
-1.0
 74
     0
  0
LTYPE
  5
2BC
330
137
100
AcDbSymbolTableRecord
100
AcDbLinetypeTableRecord
  2
ACISOTGB
 70
     0
  3
__ . . __ . .
 72
    65
 73
     6
 40
9.0
 49
4.0
 74
     0
 49
-1.0
 74
     0
 49
1.0
 74
     0
 49
-1.0
 74
     0
 49
1.0
 74
     0
 49
-1.0
 74
     0
  0
LTYPE
  5
2BD
330
137
100
AcDbSymbolTableRecord
100
AcDbLinetypeTableRecord
  2
ACISOTGL
 70
     0
  3
_ _ _ _ _
 72
    65
 73
     2
 40
3.0
 49
2.0
 74
     0
 49
-1.0
 74
     0
  0
ENDTAB
  0
TABLE
  2
LAYER
  5
134
330
0
100
AcDbSymbolTable
 70
     8
  0
LAYER
  5
140
330
134
100
AcDbSymbolTableRecord
100
AcDbLayerTableRecord
  2
0
 70
     0
 62
     7
  6
CONTINUOUS
370
    -3
390
172
  0
LAYER
  5
15A
330
134
100
AcDbSymbolTableRecord
100
AcDbLayerTableRecord
  2
1
 70
     0
 62
     1
  6
CENTER
370
    -3
390
172
  0
LAYER
  5
15B
330
134
100
AcDbSymbolTableRecord
100
AcDbLayerTableRecord
  2
3
 70
     0
 62
     7
  6
CONTINUOUS
370
    -3
390
172
  0
LAYER
  5
15C
330
134
100
AcDbSymbolTableRecord
100
AcDbLayerTableRecord
  2
4
 70
     0
 62
     4
  6
CONTINUOUS
370
    -3
390
172
  0
LAYER
  5
15D
330
134
100
AcDbSymbolTableRecord
100
AcDbLayerTableRecord
  2
10
 70
     0
 62
     7
  6
CONTINUOUS
370
    -3
390
172
  0
LAYER
  5
15E
330
134
100
AcDbSymbolTableRecord
100
AcDbLayerTableRecord
  2
11
 70
     0
 62
     7
  6
CONTINUOUS
370
    -3
390
172
  0
LAYER
  5
15F
330
134
100
AcDbSymbolTableRecord
100
AcDbLayerTableRecord
  2
2
 70
     0
 62
     7
  6
HIDDEN
370
    -3
390
172
  0
LAYER
  5
2BE
330
134
100
AcDbSymbolTableRecord
100
AcDbLayerTableRecord
  2
DEFPOINTS
 70
     0
 62
     7
  6
CONTINUOUS
290
     0
370
    -3
390
172
  0
ENDTAB
  0
TABLE
  2
STYLE
  5
135
330
0
100
AcDbSymbolTable
 70
     7
  0
STYLE
  5
141
330
135
100
AcDbSymbolTableRecord
100
AcDbTextStyleTableRecord
  2
STANDARD
 70
     0
 40
0.0
 41
1.0
 50
0.0
 71
     0
 42
0.2
  3
TXT
  4
BIGFONT
  0
STYLE
  5
151
330
135
100
AcDbSymbolTableRecord
100
AcDbTextStyleTableRecord
  2
K80
 70
     0
 40
0.0
 41
0.8
 50
0.0
 71
     0
 42
0.2
  3
TXT
  4
BIGFONT
  0
STYLE
  5
152
330
135
100
AcDbSymbolTableRecord
100
AcDbTextStyleTableRecord
  2
07500
 70
     0
 40
0.0
 41
0.75
 50
0.0
 71
     0
 42
0.2
  3
TXT
  4
BIGFONT
  0
STYLE
  5
153
330
135
100
AcDbSymbolTableRecord
100
AcDbTextStyleTableRecord
  2
BIGFONT
 70
     0
 40
16.0
 41
0.8
 50
0.0
 71
     0
 42
16.0
  3

  4
bigfont
  0
STYLE
  5
247
330
135
100
AcDbSymbolTableRecord
100
AcDbTextStyleTableRecord
  2

 70
     1
 40
0.0
 41
1.0
 50
0.0
 71
     0
 42
16.0
  3
ltypeshp.shx
  4

  0
STYLE
  5
2BF
330
135
100
AcDbSymbolTableRecord
100
AcDbTextStyleTableRecord
  2
ACISOTS
 70
     0
 40
1.0
 41
1.0
 50
0.0
 71
     0
 42
5.0
  3
isocp.shx
  4
extfont.shx
  0
STYLE
  5
2C0
330
135
100
AcDbSymbolTableRecord
100
AcDbTextStyleTableRecord
  2
ACISOGDT
 70
     0
 40
0.0
 41
1.0
 50
0.0
 71
     0
 42
5.0
  3
amgdt.shx
  4

  0
ENDTAB
  0
TABLE
  2
VIEW
  5
138
330
0
100
AcDbSymbolTable
 70
     1
  0
VIEW
  5
156
330
138
100
AcDbSymbolTableRecord
100
AcDbViewTableRecord
  2
ALL
 70
     0
 40
810.0
 10
662.9747899999999
 20
405.0
 41
0.0
 11
0.0
 21
0.0
 31
1.0
 12
0.0
 22
0.0
 32
0.0
 42
50.0
 43
0.0
 44
0.0
 50
0.0
 71
     0
281
     0
 72
     0
  0
ENDTAB
  0
TABLE
  2
UCS
  5
139
330
0
100
AcDbSymbolTable
 70
     0
  0
ENDTAB
  0
TABLE
  2
APPID
  5
13B
330
0
100
AcDbSymbolTable
 70
    12
  0
APPID
  5
142
330
13B
100
AcDbSymbolTableRecord
100
AcDbRegAppTableRecord
  2
ACAD
 70
     0
  0
APPID
  5
17B
330
13B
100
AcDbSymbolTableRecord
100
AcDbRegAppTableRecord
  2
GENIUS_GENDIM_13
 70
     0
  0
APPID
  5
17C
330
13B
100
AcDbSymbolTableRecord
100
AcDbRegAppTableRecord
  2
GENIUS_GENDTOL_13
 70
     0
  0
APPID
  5
17D
330
13B
100
AcDbSymbolTableRecord
100
AcDbRegAppTableRecord
  2
GENIUS_GE3DTOL_13
 70
     0
  0
APPID
  5
17F
330
13B
100
AcDbSymbolTableRecord
100
AcDbRegAppTableRecord
  2
MCAD_NO_VIS
 70
     0
  0
APPID
  5
180
330
13B
100
AcDbSymbolTableRecord
100
AcDbRegAppTableRecord
  2
ACAD_TEMP_GRAPHIC
 70
     0
  0
APPID
  5
1B1
330
13B
100
AcDbSymbolTableRecord
100
AcDbRegAppTableRecord
  2
AD_DRAW
 70
     0
  0
APPID
  5
1B4
330
13B
100
AcDbSymbolTableRecord
100
AcDbRegAppTableRecord
  2
ACATTRIBSERVICES
 70
     0
  0
APPID
  5
200
330
13B
100
AcDbSymbolTableRecord
100
AcDbRegAppTableRecord
  2
ASURF_PCURVE_APPNAME
 70
     0
  0
APPID
  5
22F
330
13B
100
AcDbSymbolTableRecord
100
AcDbRegAppTableRecord
  2
DESIGNERASSEMBLIES
 70
     0
  0
APPID
  5
237
330
13B
100
AcDbSymbolTableRecord
100
AcDbRegAppTableRecord
  2
ACADM_DIM_EDIT
 70
     0
  0
APPID
  5
238
330
13B
100
AcDbSymbolTableRecord
100
AcDbRegAppTableRecord
  2
AMDT_DM_ADJ
 70
     0
  0
ENDTAB
  0
TABLE
  2
DIMSTYLE
  5
13C
330
0
100
AcDbSymbolTable
 70
     8
100
AcDbDimStyleTable
 71
     1
340
159
  0
DIMSTYLE
105
159
330
13C
100
AcDbSymbolTableRecord
100
AcDbDimStyleTableRecord
  2
STANDARD
 70
     0
340
153
  0
DIMSTYLE
105
2C1
330
13C
100
AcDbSymbolTableRecord
100
AcDbDimStyleTableRecord
  2
AM_ISO
 70
     0
  4
"
 41
2.5
 42
1.0
 43
10.0
 44
1.0
 47
0.1
 48
0.1
 73
     0
 74
     0
 77
     1
 78
     8
 79
     2
140
3.5
141
0.0
143
0.0393701
146
0.71
147
1.5
172
     1
176
   256
177
   256
178
     2
271
     2
272
     3
274
     4
283
     0
284
     8
340
141
371
    -1
372
    -1
  0
DIMSTYLE
105
2C2
330
13C
100
AcDbSymbolTableRecord
100
AcDbDimStyleTableRecord
  2
AM_ISO$3
 70
     0
  4
"
 41
2.5
 42
1.0
 43
10.0
 44
1.0
 47
0.1
 48
0.1
 73
     0
 77
     1
 78
     8
 79
     2
140
3.5
141
0.0
143
0.0393701
146
0.71
147
1.5
176
   256
177
   256
178
     2
271
     2
272
     3
274
     4
283
     0
284
     8
288
     1
289
     0
340
141
371
    -1
372
    -1
  0
DIMSTYLE
105
2C3
330
13C
100
AcDbSymbolTableRecord
100
AcDbDimStyleTableRecord
  2
AM_ISO$4
 70
     0
  4
"
 41
2.5
 42
1.0
 43
10.0
 44
1.0
 47
0.1
 48
0.1
 73
     0
 77
     1
 78
     8
 79
     2
140
3.5
141
0.0
143
0.0393701
146
0.71
147
1.5
176
   256
177
   256
178
     2
271
     2
272
     3
274
     4
283
     0
284
     8
288
     1
289
     0
340
141
371
    -1
372
    -1
  0
DIMSTYLE
105
2C4
330
13C
100
AcDbSymbolTableRecord
100
AcDbDimStyleTableRecord
  2
AM_ISO$6
 70
     0
  4
"
 41
2.5
 42
1.0
 43
10.0
 44
1.0
 47
0.1
 48
0.1
 73
     0
 74
     0
 78
     8
 79
     2
140
3.5
141
0.0
143
0.0393701
146
0.71
147
1.5
172
     1
176
   256
177
   256
178
     2
271
     2
272
     3
274
     4
283
     0
284
     8
340
141
371
    -1
372
    -1
  0
DIMSTYLE
105
2C5
330
13C
100
AcDbSymbolTableRecord
100
AcDbDimStyleTableRecord
  2
AM_ISO$7
 70
     0
  4
"
 41
2.5
 42
1.0
 43
10.0
 44
1.0
 47
0.1
 48
0.1
 73
     0
 74
     0
 77
     1
 78
     8
 79
     2
140
5.0
141
0.0
143
0.0393701
146
0.71
147
1.5
172
     1
176
   256
177
   256
178
     2
271
     2
272
     3
274
     4
283
     0
284
     8
340
141
371
    -1
372
    -1
  0
DIMSTYLE
105
2C6
330
13C
100
AcDbSymbolTableRecord
100
AcDbDimStyleTableRecord
  2
AM_ISO$SF
 70
     0
  4
"
 41
2.5
 42
1.0
 43
10.0
 44
1.0
 47
0.1
 48
0.1
 73
     0
 74
     0
 75
     1
 76
     1
 77
     1
 78
     8
 79
     2
140
3.5
141
0.0
143
0.0393701
146
0.71
147
1.5
172
     1
176
   256
177
   256
178
     2
271
     2
272
     3
274
     4
283
     0
284
     8
340
141
371
    -1
372
    -1
  0
DIMSTYLE
105
2C7
330
13C
100
AcDbSymbolTableRecord
100
AcDbDimStyleTableRecord
  2
AM_ISO$SH
 70
     0
  4
"
 41
2.5
 42
1.0
 43
10.0
 44
1.0
 47
0.1
 48
0.1
 73
     0
 74
     0
 75
     1
 76
     1
 77
     1
 78
     8
 79
     2
140
3.5
141
0.0
143
0.0393701
144
2.0
146
0.71
147
1.5
172
     1
173
     1
176
   256
177
   256
178
     2
271
     2
272
     3
274
     4
283
     0
284
     8
340
141
343
292
371
    -1
372
    -1
  0
ENDTAB
  0
TABLE
  2
BLOCK_RECORD
  5
133
330
0
100
AcDbSymbolTable
 70
    22
  0
BLOCK_RECORD
  5
149
102
{ACAD_XDICTIONARY
360
4FF
102
}
330
133
100
AcDbSymbolTableRecord
100
AcDbBlockTableRecord
  2
*MODEL_SPACE
340
175
  0
BLOCK_RECORD
  5
146
330
133
100
AcDbSymbolTableRecord
100
AcDbBlockTableRecord
  2
*PAPER_SPACE
340
176
  0
BLOCK_RECORD
  5
14E
330
133
100
AcDbSymbolTableRecord
100
AcDbBlockTableRecord
  2
WAKU
340
0
  0
BLOCK_RECORD
  5
14F
330
133
100
AcDbSymbolTableRecord
100
AcDbBlockTableRecord
  2
Z
340
0
  0
BLOCK_RECORD
  5
150
330
133
100
AcDbSymbolTableRecord
100
AcDbBlockTableRecord
  2
QQ
340
0
  0
BLOCK_RECORD
  5
226
330
133
100
AcDbSymbolTableRecord
100
AcDbBlockTableRecord
  2
*U3
340
0
  0
BLOCK_RECORD
  5
256
330
133
100
AcDbSymbolTableRecord
100
AcDbBlockTableRecord
  2
*D4
340
0
  0
BLOCK_RECORD
  5
262
330
133
100
AcDbSymbolTableRecord
100
AcDbBlockTableRecord
  2
*D5
340
0
  0
BLOCK_RECORD
  5
26E
330
133
100
AcDbSymbolTableRecord
100
AcDbBlockTableRecord
  2
*D6
340
0
  0
BLOCK_RECORD
  5
279
330
133
100
AcDbSymbolTableRecord
100
AcDbBlockTableRecord
  2
*D7
340
0
  0
BLOCK_RECORD
  5
285
330
133
100
AcDbSymbolTableRecord
100
AcDbBlockTableRecord
  2
*D8
340
0
  0
BLOCK_RECORD
  5
292
330
133
100
AcDbSymbolTableRecord
100
AcDbBlockTableRecord
  2
GENAXEH
340
0
  0
BLOCK_RECORD
  5
296
330
133
100
AcDbSymbolTableRecord
100
AcDbBlockTableRecord
  2
*D10
340
0
  0
BLOCK_RECORD
  5
2A3
330
133
100
AcDbSymbolTableRecord
100
AcDbBlockTableRecord
  2
*D11
340
0
  0
BLOCK_RECORD
  5
2AC
330
133
100
AcDbSymbolTableRecord
100
AcDbBlockTableRecord
  2
*D12
340
0
  0
BLOCK_RECORD
  5
3EE
330
133
100
AcDbSymbolTableRecord
100
AcDbBlockTableRecord
  2
*D14
340
0
  0
BLOCK_RECORD
  5
3FB
330
133
100
AcDbSymbolTableRecord
100
AcDbBlockTableRecord
  2
*D15
340
0
  0
BLOCK_RECORD
  5
404
330
133
100
AcDbSymbolTableRecord
100
AcDbBlockTableRecord
  2
*D16
340
0
  0
BLOCK_RECORD
  5
411
330
133
100
AcDbSymbolTableRecord
100
AcDbBlockTableRecord
  2
*D17
340
0
  0
BLOCK_RECORD
  5
41E
330
133
100
AcDbSymbolTableRecord
100
AcDbBlockTableRecord
  2
*D18
340
0
  0
BLOCK_RECORD
  5
42B
330
133
100
AcDbSymbolTableRecord
100
AcDbBlockTableRecord
  2
*D19
340
0
  0
BLOCK_RECORD
  5
437
330
133
100
AcDbSymbolTableRecord
100
AcDbBlockTableRecord
  2
*D20
340
0
  0
BLOCK_RECORD
  5
443
330
133
100
AcDbSymbolTableRecord
100
AcDbBlockTableRecord
  2
*D21
340
0
  0
ENDTAB
  0
ENDSEC
  0
SECTION
  2
BLOCKS
  0
BLOCK
  5
162
330
149
100
AcDbEntity
  8
0
100
AcDbBlockBegin
  2
*MODEL_SPACE
 70
     0
 10
0.0
 20
0.0
 30
0.0
  3
*MODEL_SPACE
  1

  0
ENDBLK
  5
163
330
149
100
AcDbEntity
  8
0
100
AcDbBlockEnd
  0
BLOCK
  5
160
330
146
100
AcDbEntity
 67
     1
  8
0
100
AcDbBlockBegin
  2
*PAPER_SPACE
 70
     0
 10
0.0
 20
0.0
 30
0.0
  3
*PAPER_SPACE
  1

  0
ENDBLK
  5
161
330
146
100
AcDbEntity
 67
     1
  8
0
100
AcDbBlockEnd
  0
BLOCK
  5
31
330
14E
100
AcDbEntity
  8
0
100
AcDbBlockBegin
  2
WAKU
 70
     0
 10
549.0
 20
0.0
 30
0.0
  3
WAKU
  1

  0
LINE
  5
32
330
14E
100
AcDbEntity
  8
11
100
AcDbLine
 10
452.0
 20
12.0
 30
0.0
 11
549.0
 21
12.0
 31
0.0
  0
LINE
  5
33
330
14E
100
AcDbEntity
  8
11
100
AcDbLine
 10
477.0
 20
0.0
 30
0.0
 11
477.0
 21
12.0
 31
0.0
  0
LINE
  5
34
330
14E
100
AcDbEntity
  8
11
100
AcDbLine
 10
452.0
 20
12.0
 30
0.0
 11
452.0
 21
0.0
 31
0.0
  0
TEXT
  5
35
330
14E
100
AcDbEntity
  8
11
100
AcDbText
 10
454.0
 20
8.5
 30
0.0
 40
2.5
  1
尺度
100
AcDbText
  0
TEXT
  5
36
330
14E
100
AcDbEntity
  8
11
100
AcDbText
 10
479.0
 20
8.5
 30
0.0
 40
2.5
  1
図番
100
AcDbText
  0
ENDBLK
  5
37
330
14E
100
AcDbEntity
  8
0
100
AcDbBlockEnd
  0
BLOCK
  5
38
330
14F
100
AcDbEntity
  8
0
100
AcDbBlockBegin
  2
Z
 70
     0
 10
481.110778
 20
136.7870199999999
 30
0.0
  3
Z
  1

  0
TEXT
  5
39
330
14F
100
AcDbEntity
  8
0
100
AcDbText
 10
478.1506833333333
 20
140.067934
 30
0.0
 40
5.5
  1
１
 50
360.0
 41
0.8
  7
K80
 72
     1
 11
480.0573499999999
 21
140.067934
 31
0.0
100
AcDbText
  0
TEXT
  5
3A
330
14F
100
AcDbEntity
  8
0
100
AcDbText
 10
470.108991
 20
139.534665
 30
0.0
 40
6.0
  1
Ｖ
 50
360.0
 41
0.8
  7
K80
 72
     1
 11
472.348991
 21
139.534665
 31
0.0
100
AcDbText
  0
TEXT
  5
3B
330
14F
100
AcDbEntity
  8
0
100
AcDbText
 10
482.8853246666667
 20
140.0478629999999
 30
0.0
 40
5.5
  1
６
 50
360.0
 41
0.8
  7
K80
 72
     1
 11
484.938658
 21
140.0478629999999
 31
0.0
100
AcDbText
  0
LINE
  5
3C
330
14F
100
AcDbEntity
  8
0
100
AcDbLine
 10
474.860778
 20
142.7870199999999
 30
0.0
 11
477.360778
 21
142.7870199999999
 31
0.0
  0
TEXT
  5
3D
330
14F
100
AcDbEntity
  8
0
100
AcDbText
 10
488.0004753333333
 20
140.013502
 30
0.0
 40
5.5
  1
０
 50
360.0
 41
0.8
  7
K80
 72
     1
 11
489.9071419999999
 21
140.013502
 31
0.0
100
AcDbText
  0
ENDBLK
  5
3E
330
14F
100
AcDbEntity
  8
0
100
AcDbBlockEnd
  0
BLOCK
  5
3F
330
150
100
AcDbEntity
  8
0
100
AcDbBlockBegin
  2
QQ
 70
     0
 10
270.0
 20
0.0
 30
0.0
  3
QQ
  1

  0
LINE
  5
40
330
150
100
AcDbEntity
  8
11
100
AcDbLine
 10
173.0
 20
36.0
 30
0.0
 11
270.0
 21
36.0
 31
0.0
  0
TEXT
  5
41
330
150
100
AcDbEntity
  8
11
100
AcDbText
 10
175.0
 20
32.5
 30
0.0
 40
2.5
  1
部品名称
100
AcDbText
  0
LINE
  5
42
330
150
100
AcDbEntity
  8
11
100
AcDbLine
 10
173.0
 20
36.0
 30
0.0
 11
173.0
 21
0.0
 31
0.0
  0
LINE
  5
43
330
150
100
AcDbEntity
  8
11
100
AcDbLine
 10
173.0
 20
24.0
 30
0.0
 11
270.0
 21
24.0
 31
0.0
  0
TEXT
  5
44
330
150
100
AcDbEntity
  8
11
100
AcDbText
 10
175.0
 20
20.5
 30
0.0
 40
2.5
  1
品番
100
AcDbText
  0
LINE
  5
45
330
150
100
AcDbEntity
  8
11
100
AcDbLine
 10
173.0
 20
12.0
 30
0.0
 11
270.0
 21
12.0
 31
0.0
  0
TEXT
  5
46
330
150
100
AcDbEntity
  8
11
100
AcDbText
 10
175.0
 20
8.5
 30
0.0
 40
2.5
  1
尺度
100
AcDbText
  0
TEXT
  5
47
330
150
100
AcDbEntity
  8
11
100
AcDbText
 10
200.0
 20
8.5
 30
0.0
 40
2.5
  1
図番
100
AcDbText
  0
LINE
  5
48
330
150
100
AcDbEntity
  8
11
100
AcDbLine
 10
198.0
 20
0.0
 30
0.0
 11
198.0
 21
12.0
 31
0.0
  0
ENDBLK
  5
49
330
150
100
AcDbEntity
  8
0
100
AcDbBlockEnd
  0
BLOCK
  5
227
330
226
100
AcDbEntity
  8
0
100
AcDbBlockBegin
  2
*U3
 70
     1
 10
0.0
 20
0.0
 30
0.0
  3
*U3
  1

  0
ENDBLK
  5
228
330
226
100
AcDbEntity
  8
0
100
AcDbBlockEnd
  0
BLOCK
  5
260
330
256
100
AcDbEntity
  8
0
100
AcDbBlockBegin
  2
*D4
 70
     1
 10
0.0
 20
0.0
 30
0.0
  3
*D4
  1

  0
LINE
  5
257
330
256
100
AcDbEntity
  8
0
  6
ByBlock
 62
     0
100
AcDbLine
 10
279.5659276052148
 20
170.6255438154237
 30
0.0
 11
279.5659276052148
 21
198.6255438154237
 31
0.0
  0
LINE
  5
258
330
256
100
AcDbEntity
  8
0
  6
ByBlock
 62
     0
100
AcDbLine
 10
312.5659276052148
 20
167.6255438154237
 30
0.0
 11
312.5659276052148
 21
198.6255438154237
 31
0.0
  0
LINE
  5
259
330
256
100
AcDbEntity
  8
0
  6
ByBlock
 62
     0
100
AcDbLine
 10
282.0659276052148
 20
197.6255438154237
 30
0.0
 11
310.0659276052148
 21
197.6255438154237
 31
0.0
  0
SOLID
  5
25A
330
256
100
AcDbEntity
  8
0
  6
ByBlock
 62
     0
100
AcDbTrace
 10
282.0659276052148
 20
198.0422104820903
 30
0.0
 11
282.0659276052148
 21
197.208877148757
 31
0.0
 12
279.5659276052148
 22
197.6255438154237
 32
0.0
 13
279.5659276052148
 23
197.6255438154237
 33
0.0
  0
SOLID
  5
25B
330
256
100
AcDbEntity
  8
0
  6
ByBlock
 62
     0
100
AcDbTrace
 10
310.0659276052148
 20
198.0422104820903
 30
0.0
 11
310.0659276052148
 21
197.208877148757
 31
0.0
 12
312.5659276052148
 22
197.6255438154237
 32
0.0
 13
312.5659276052148
 23
197.6255438154237
 33
0.0
  0
MTEXT
  5
25C
330
256
100
AcDbEntity
  8
0
  6
ByBlock
 62
     0
100
AcDbMText
 10
302.5659276052148
 20
200.7505438154237
 30
0.0
 40
5.0
 41
0.0
 71
     5
 72
     1
  1
\A1;33
 73
     1
 44
1.0
  0
POINT
  5
25D
330
256
100
AcDbEntity
  8
DEFPOINTS
  6
ByBlock
 62
     0
100
AcDbPoint
 10
279.5659276052148
 20
169.6255438154237
 30
0.0
  0
POINT
  5
25E
330
256
100
AcDbEntity
  8
DEFPOINTS
  6
ByBlock
 62
     0
100
AcDbPoint
 10
312.5659276052148
 20
166.6255438154237
 30
0.0
  0
POINT
  5
25F
330
256
100
AcDbEntity
  8
DEFPOINTS
  6
ByBlock
 62
     0
100
AcDbPoint
 10
312.5659276052148
 20
197.6255438154237
 30
0.0
  0
ENDBLK
  5
261
330
256
100
AcDbEntity
  8
0
100
AcDbBlockEnd
  0
BLOCK
  5
26C
330
262
100
AcDbEntity
  8
0
100
AcDbBlockBegin
  2
*D5
 70
     1
 10
0.0
 20
0.0
 30
0.0
  3
*D5
  1

  0
LINE
  5
263
330
262
100
AcDbEntity
  8
0
  6
ByBlock
 62
     0
100
AcDbLine
 10
310.5659276052148
 20
169.6255438154237
 30
0.0
 11
331.0659276052148
 21
169.6255438154237
 31
0.0
  0
LINE
  5
264
330
262
100
AcDbEntity
  8
0
  6
ByBlock
 62
     0
100
AcDbLine
 10
310.5659276052148
 20
131.6255438154237
 30
0.0
 11
331.0659276052148
 21
131.6255438154237
 31
0.0
  0
LINE
  5
265
330
262
100
AcDbEntity
  8
0
  6
ByBlock
 62
     0
100
AcDbLine
 10
330.0659276052148
 20
167.1255438154237
 30
0.0
 11
330.0659276052148
 21
134.1255438154237
 31
0.0
  0
SOLID
  5
266
330
262
100
AcDbEntity
  8
0
  6
ByBlock
 62
     0
100
AcDbTrace
 10
329.6492609385481
 20
167.1255438154237
 30
0.0
 11
330.4825942718815
 21
167.1255438154237
 31
0.0
 12
330.0659276052148
 22
169.6255438154237
 32
0.0
 13
330.0659276052148
 23
169.6255438154237
 33
0.0
  0
SOLID
  5
267
330
262
100
AcDbEntity
  8
0
  6
ByBlock
 62
     0
100
AcDbTrace
 10
329.6492609385481
 20
134.1255438154237
 30
0.0
 11
330.4825942718815
 21
134.1255438154237
 31
0.0
 12
330.0659276052148
 22
131.6255438154237
 32
0.0
 13
330.0659276052148
 23
131.6255438154237
 33
0.0
  0
MTEXT
  5
268
330
262
100
AcDbEntity
  8
0
  6
ByBlock
 62
     0
100
AcDbMText
 10
326.9409276052148
 20
150.6255438154237
 30
0.0
 40
5.0
 41
0.0
 71
     5
 72
     1
  1
\A1;\U+220538
 11
0.0000000000000001
 21
1.0
 31
0.0
 73
     1
 44
1.0
  0
POINT
  5
269
330
262
100
AcDbEntity
  8
DEFPOINTS
  6
ByBlock
 62
     0
100
AcDbPoint
 10
309.5659276052148
 20
169.6255438154237
 30
0.0
  0
POINT
  5
26A
330
262
100
AcDbEntity
  8
DEFPOINTS
  6
ByBlock
 62
     0
100
AcDbPoint
 10
309.5659276052148
 20
131.6255438154237
 30
0.0
  0
POINT
  5
26B
330
262
100
AcDbEntity
  8
DEFPOINTS
  6
ByBlock
 62
     0
100
AcDbPoint
 10
330.0659276052148
 20
131.6255438154237
 30
0.0
  0
ENDBLK
  5
26D
330
262
100
AcDbEntity
  8
0
100
AcDbBlockEnd
  0
BLOCK
  5
277
330
26E
100
AcDbEntity
  8
0
100
AcDbBlockBegin
  2
*D6
 70
     1
 10
0.0
 20
0.0
 30
0.0
  3
*D6
  1

  0
LINE
  5
26F
330
26E
100
AcDbEntity
  8
0
  6
ByBlock
 62
     0
100
AcDbLine
 10
339.4892609385486
 20
188.6255438154238
 30
0.0
 11
328.5659276052147
 21
188.6255438154238
 31
0.0
  0
LINE
  5
270
330
26E
100
AcDbEntity
  8
0
  6
ByBlock
 62
     0
100
AcDbLine
 10
328.5659276052147
 20
188.6255438154238
 30
0.0
 11
311.5267872162531
 21
168.8960128387312
 31
0.0
  0
MTEXT
  5
271
330
26E
100
AcDbEntity
  8
0
  6
ByBlock
 62
     0
100
AcDbMText
 10
335.3225942718819
 20
191.7505438154238
 30
0.0
 40
5.0
 41
0.0
 71
     5
 72
     1
  1
\A1;R3
 73
     1
 44
1.0
  0
SOLID
  5
272
330
26E
100
AcDbEntity
  8
0
  6
ByBlock
 62
     0
100
AcDbTrace
 10
312.8454939722145
 20
171.0604119707983
 30
0.0
 11
313.4761798120222
 21
170.5157287455099
 31
0.0
 12
311.5267872162531
 22
168.8960128387312
 32
0.0
 13
311.5267872162531
 23
168.8960128387312
 33
0.0
  0
LINE
  5
273
330
26E
100
AcDbEntity
  8
0
  6
ByBlock
 62
     0
100
AcDbLine
 10
307.0659276052149
 20
166.6255438154237
 30
0.0
 11
312.0659276052149
 21
166.6255438154237
 31
0.0
  0
LINE
  5
274
330
26E
100
AcDbEntity
  8
0
  6
ByBlock
 62
     0
100
AcDbLine
 10
309.5659276052149
 20
164.1255438154237
 30
0.0
 11
309.5659276052149
 21
169.1255438154237
 31
0.0
  0
POINT
  5
275
330
26E
100
AcDbEntity
  8
DEFPOINTS
  6
ByBlock
 62
     0
100
AcDbPoint
 10
311.5267872162531
 20
168.8960128387312
 30
0.0
  0
POINT
  5
276
330
26E
100
AcDbEntity
  8
DEFPOINTS
  6
ByBlock
 62
     0
100
AcDbPoint
 10
309.5659276052149
 20
166.6255438154237
 30
0.0
  0
ENDBLK
  5
278
330
26E
100
AcDbEntity
  8
0
100
AcDbBlockEnd
  0
BLOCK
  5
283
330
279
100
AcDbEntity
  8
0
100
AcDbBlockBegin
  2
*D7
 70
     1
 10
0.0
 20
0.0
 30
0.0
  3
*D7
  1

  0
LINE
  5
27A
330
279
100
AcDbEntity
  8
0
  6
ByBlock
 62
     0
100
AcDbLine
 10
297.5659276052148
 20
172.6255438154237
 30
0.0
 11
297.5659276052148
 21
187.6255438154237
 31
0.0
  0
LINE
  5
27B
330
279
100
AcDbEntity
  8
0
  6
ByBlock
 62
     0
100
AcDbLine
 10
312.5659276052148
 20
167.6255438154237
 30
0.0
 11
312.5659276052148
 21
187.6255438154237
 31
0.0
  0
LINE
  5
27C
330
279
100
AcDbEntity
  8
0
  6
ByBlock
 62
     0
100
AcDbLine
 10
300.0659276052148
 20
186.6255438154237
 30
0.0
 11
310.0659276052148
 21
186.6255438154237
 31
0.0
  0
SOLID
  5
27D
330
279
100
AcDbEntity
  8
0
  6
ByBlock
 62
     0
100
AcDbTrace
 10
300.0659276052148
 20
187.0422104820903
 30
0.0
 11
300.0659276052148
 21
186.208877148757
 31
0.0
 12
297.5659276052148
 22
186.6255438154237
 32
0.0
 13
297.5659276052148
 23
186.6255438154237
 33
0.0
  0
SOLID
  5
27E
330
279
100
AcDbEntity
  8
0
  6
ByBlock
 62
     0
100
AcDbTrace
 10
310.0659276052148
 20
187.0422104820903
 30
0.0
 11
310.0659276052148
 21
186.208877148757
 31
0.0
 12
312.5659276052148
 22
186.6255438154237
 32
0.0
 13
312.5659276052148
 23
186.6255438154237
 33
0.0
  0
MTEXT
  5
27F
330
279
100
AcDbEntity
  8
0
  6
ByBlock
 62
     0
100
AcDbMText
 10
305.0659276052148
 20
189.7505438154237
 30
0.0
 40
5.0
 41
0.0
 71
     5
 72
     1
  1
\A1;15
 73
     1
 44
1.0
  0
POINT
  5
280
330
279
100
AcDbEntity
  8
DEFPOINTS
  6
ByBlock
 62
     0
100
AcDbPoint
 10
297.5659276052148
 20
171.6255438154237
 30
0.0
  0
POINT
  5
281
330
279
100
AcDbEntity
  8
DEFPOINTS
  6
ByBlock
 62
     0
100
AcDbPoint
 10
312.5659276052148
 20
166.6255438154237
 30
0.0
  0
POINT
  5
282
330
279
100
AcDbEntity
  8
DEFPOINTS
  6
ByBlock
 62
     0
100
AcDbPoint
 10
312.5659276052148
 20
186.6255438154237
 30
0.0
  0
ENDBLK
  5
284
330
279
100
AcDbEntity
  8
0
100
AcDbBlockEnd
  0
BLOCK
  5
290
330
285
100
AcDbEntity
  8
0
100
AcDbBlockBegin
  2
*D8
 70
     1
 10
0.0
 20
0.0
 30
0.0
  3
*D8
  1

  0
LINE
  5
286
330
285
100
AcDbEntity
  8
0
  6
ByBlock
 62
     0
100
AcDbLine
 10
271.5659276052148
 20
70.62554381542373
 30
0.0
 11
232.4523298862859
 21
70.62554381542373
 31
0.0
  0
LINE
  5
287
330
285
100
AcDbEntity
  8
0
  6
ByBlock
 62
     0
100
AcDbLine
 10
271.5659276052148
 20
230.6255438154237
 30
0.0
 11
232.4523298862859
 21
230.6255438154237
 31
0.0
  0
LINE
  5
288
330
285
100
AcDbEntity
  8
0
  6
ByBlock
 62
     0
100
AcDbLine
 10
233.4523298862858
 20
72.62554381542372
 30
0.0
 11
233.4523298862858
 21
145.7805399068155
 31
0.0
  0
LINE
  5
289
330
285
100
AcDbEntity
  8
0
  6
ByBlock
 62
     0
100
AcDbLine
 10
233.4523298862858
 20
228.6255438154237
 30
0.0
 11
233.4523298862858
 21
155.6972065734822
 31
0.0
  0
SOLID
  5
28A
330
285
100
AcDbEntity
  8
0
  6
ByBlock
 62
     0
100
AcDbTrace
 10
233.1189965529525
 20
72.62554381542372
 30
0.0
 11
233.7856632196192
 21
72.62554381542372
 31
0.0
 12
233.4523298862858
 22
70.62554381542373
 32
0.0
 13
233.4523298862858
 23
70.62554381542373
 33
0.0
  0
SOLID
  5
28B
330
285
100
AcDbEntity
  8
0
  6
ByBlock
 62
     0
100
AcDbTrace
 10
233.1189965529525
 20
228.6255438154237
 30
0.0
 11
233.7856632196192
 21
228.6255438154237
 31
0.0
 12
233.4523298862858
 22
230.6255438154237
 32
0.0
 13
233.4523298862858
 23
230.6255438154237
 33
0.0
  0
MTEXT
  5
28C
330
285
100
AcDbEntity
  8
0
  6
ByBlock
 62
     0
100
AcDbMText
 10
233.4523298862858
 20
150.7388732401489
 30
0.0
 40
4.0
 41
0.0
 71
     5
 72
     1
  1
\A1;160
 11
0.0000000000000001
 21
1.0
 31
0.0
 73
     1
 44
1.0
  0
POINT
  5
28D
330
285
100
AcDbEntity
  8
DEFPOINTS
  6
ByBlock
 62
     0
100
AcDbPoint
 10
272.5659276052148
 20
70.62554381542373
 30
0.0
  0
POINT
  5
28E
330
285
100
AcDbEntity
  8
DEFPOINTS
  6
ByBlock
 62
     0
100
AcDbPoint
 10
272.5659276052148
 20
230.6255438154237
 30
0.0
  0
POINT
  5
28F
330
285
100
AcDbEntity
  8
DEFPOINTS
  6
ByBlock
 62
     0
100
AcDbPoint
 10
233.4523298862858
 20
230.6255438154237
 30
0.0
  0
ENDBLK
  5
291
330
285
100
AcDbEntity
  8
0
100
AcDbBlockEnd
  0
BLOCK
  5
294
330
292
100
AcDbEntity
  8
0
100
AcDbBlockBegin
  2
GENAXEH
 70
     0
 10
0.0
 20
0.0
 30
0.0
  3
GENAXEH
  1

  0
LINE
  5
293
330
292
100
AcDbEntity
  8
0
100
AcDbLine
 10
-1.0
 20
0.0
 30
0.0
 11
1.0
 21
0.0
 31
0.0
  0
ENDBLK
  5
295
330
292
100
AcDbEntity
  8
0
100
AcDbBlockEnd
  0
BLOCK
  5
2A1
330
296
100
AcDbEntity
  8
0
100
AcDbBlockBegin
  2
*D10
 70
     1
 10
0.0
 20
0.0
 30
0.0
  3
*D10
  1

  0
LINE
  5
297
330
296
100
AcDbEntity
  8
0
 62
     0
370
    -2
100
AcDbLine
 10
131.5659276052147
 20
202.6255438154237
 30
0.0
 11
201.501370852905
 21
202.6255438154236
 31
0.0
  0
LINE
  5
298
330
296
100
AcDbEntity
  8
0
 62
     0
370
    -2
100
AcDbLine
 10
201.0054407712384
 20
135.6255438154237
 30
0.0
 11
199.501370852905
 21
135.6255438154237
 31
0.0
  0
LINE
  5
299
330
296
100
AcDbEntity
  8
0
 62
     0
370
    -2
100
AcDbLine
 10
200.501370852905
 20
200.6255438154236
 30
0.0
 11
200.501370852905
 21
178.2765562746639
 31
0.0
  0
LINE
  5
29A
330
296
100
AcDbEntity
  8
0
 62
     0
370
    -2
100
AcDbLine
 10
200.501370852905
 20
137.6255438154237
 30
0.0
 11
200.501370852905
 21
170.3598896079972
 31
0.0
  0
SOLID
  5
29B
330
296
100
AcDbEntity
  8
0
 62
     0
100
AcDbTrace
 10
200.1680375195717
 20
200.6255438154236
 30
0.0
 11
200.8347041862384
 21
200.6255438154236
 31
0.0
 12
200.501370852905
 22
202.6255438154236
 32
0.0
 13
200.501370852905
 23
202.6255438154236
 33
0.0
  0
SOLID
  5
29C
330
296
100
AcDbEntity
  8
0
 62
     0
100
AcDbTrace
 10
200.1680375195717
 20
137.6255438154237
 30
0.0
 11
200.8347041862383
 21
137.6255438154237
 31
0.0
 12
200.501370852905
 22
135.6255438154237
 32
0.0
 13
200.501370852905
 23
135.6255438154237
 33
0.0
  0
MTEXT
  5
29D
330
296
100
AcDbEntity
  8
0
 62
     0
100
AcDbMText
 10
200.501370852905
 20
174.3182229413306
 30
0.0
 40
4.0
 41
0.0
 71
     5
 72
     1
  1
\A1;67
 11
0.0000000000000001
 21
1.0
 31
0.0
 73
     1
 44
1.0
  0
POINT
  5
29E
330
296
100
AcDbEntity
  8
DEFPOINTS
 62
     0
100
AcDbPoint
 10
130.5659276052147
 20
202.6255438154237
 30
0.0
  0
POINT
  5
29F
330
296
100
AcDbEntity
  8
DEFPOINTS
 62
     0
100
AcDbPoint
 10
202.0054407712384
 20
135.6255438154237
 30
-0.0000000000000016
  0
POINT
  5
2A0
330
296
100
AcDbEntity
  8
DEFPOINTS
 62
     0
100
AcDbPoint
 10
200.501370852905
 20
135.6255438154237
 30
0.0
  0
ENDBLK
  5
2A2
330
296
100
AcDbEntity
  8
0
100
AcDbBlockEnd
  0
BLOCK
  5
2AA
330
2A3
100
AcDbEntity
  8
0
100
AcDbBlockBegin
  2
*D11
 70
     1
 10
0.0
 20
0.0
 30
0.0
  3
*D11
  1

  0
LINE
  5
2A4
330
2A3
100
AcDbEntity
  8
0
 62
     0
370
    -2
100
AcDbLine
 10
83.86776921852129
 20
223.1902858362961
 30
0.0
 11
85.86776921852132
 21
223.190285836296
 31
0.0
  0
LINE
  5
2A5
330
2A3
100
AcDbEntity
  8
0
 62
     0
370
    -2
100
AcDbLine
 10
85.86776921852132
 20
223.190285836296
 30
0.0
 11
105.7923898742684
 21
207.8429844339114
 31
0.0
  0
MTEXT
  5
2A6
330
2A3
100
AcDbEntity
  8
0
 62
     0
100
AcDbMText
 10
76.57610255185467
 20
223.1902858362964
 30
0.0
 40
4.0
 41
0.0
 71
     5
 72
     1
  1
\A1;\U+220513.1
 73
     1
 44
1.0
  0
SOLID
  5
2A7
330
2A3
100
AcDbEntity
  8
0
 62
     0
100
AcDbTrace
 10
105.9957988652426
 20
208.1070599789776
 30
0.0
 11
105.5889808832942
 21
207.5789088888453
 31
0.0
 12
107.3768431446652
 22
206.6225304880664
 32
0.0
 13
107.3768431446652
 23
206.6225304880664
 33
0.0
  0
POINT
  5
2A8
330
2A3
100
AcDbEntity
  8
DEFPOINTS
 62
     0
100
AcDbPoint
 10
107.3768431446652
 20
206.6225304880664
 30
0.0
  0
POINT
  5
2A9
330
2A3
100
AcDbEntity
  8
DEFPOINTS
 62
     0
100
AcDbPoint
 10
117.7550120657642
 20
198.6285571427809
 30
0.0
  0
ENDBLK
  5
2AB
330
2A3
100
AcDbEntity
  8
0
100
AcDbBlockEnd
  0
BLOCK
  5
2B7
330
2AC
100
AcDbEntity
  8
0
100
AcDbBlockBegin
  2
*D12
 70
     1
 10
0.0
 20
0.0
 30
0.0
  3
*D12
  1

  0
LINE
  5
2AD
330
2AC
100
AcDbEntity
  8
0
 62
     0
370
    -2
100
AcDbLine
 10
257.9347341767253
 20
209.1755438154236
 30
0.0
 11
236.1844117911697
 21
209.1755438154236
 31
0.0
  0
LINE
  5
2AE
330
2AC
100
AcDbEntity
  8
0
 62
     0
370
    -2
100
AcDbLine
 10
257.5659276052148
 20
196.0755438154237
 30
0.0
 11
236.1844117911697
 21
196.0755438154237
 31
0.0
  0
LINE
  5
2AF
330
2AC
100
AcDbEntity
  8
0
 62
     0
370
    -2
100
AcDbLine
 10
237.1844117911697
 20
211.1755438154236
 30
0.0
 11
237.1844117911697
 21
213.1755438154236
 31
0.0
  0
LINE
  5
2B0
330
2AC
100
AcDbEntity
  8
0
 62
     0
370
    -2
100
AcDbLine
 10
237.1844117911697
 20
194.0755438154237
 30
0.0
 11
237.1844117911697
 21
192.0755438154237
 31
0.0
  0
SOLID
  5
2B1
330
2AC
100
AcDbEntity
  8
0
 62
     0
100
AcDbTrace
 10
236.8510784578364
 20
211.1755438154236
 30
0.0
 11
237.517745124503
 21
211.1755438154236
 31
0.0
 12
237.1844117911697
 22
209.1755438154236
 32
0.0
 13
237.1844117911697
 23
209.1755438154236
 33
0.0
  0
SOLID
  5
2B2
330
2AC
100
AcDbEntity
  8
0
 62
     0
100
AcDbTrace
 10
236.8510784578364
 20
194.0755438154237
 30
0.0
 11
237.517745124503
 21
194.0755438154237
 31
0.0
 12
237.1844117911697
 22
196.0755438154237
 32
0.0
 13
237.1844117911697
 23
196.0755438154237
 33
0.0
  0
MTEXT
  5
2B3
330
2AC
100
AcDbEntity
  8
0
 62
     0
100
AcDbMText
 10
237.1844117911696
 20
203.2635785104909
 30
0.0
 40
4.0
 41
0.0
 71
     5
 72
     1
  1
\A1;13.1
 11
0.0000000000000001
 21
1.0
 31
0.0
 73
     1
 44
1.0
  0
POINT
  5
2B4
330
2AC
100
AcDbEntity
  8
DEFPOINTS
 62
     0
100
AcDbPoint
 10
258.9347341767253
 20
209.1755438154236
 30
0.0
  0
POINT
  5
2B5
330
2AC
100
AcDbEntity
  8
DEFPOINTS
 62
     0
100
AcDbPoint
 10
258.5659276052148
 20
196.0755438154237
 30
0.0
  0
POINT
  5
2B6
330
2AC
100
AcDbEntity
  8
DEFPOINTS
 62
     0
100
AcDbPoint
 10
237.1844117911697
 20
196.0755438154237
 30
0.0
  0
ENDBLK
  5
2B8
330
2AC
100
AcDbEntity
  8
0
100
AcDbBlockEnd
  0
BLOCK
  5
3F9
330
3EE
100
AcDbEntity
  8
0
100
AcDbBlockBegin
  2
*D14
 70
     1
 10
0.0
 20
0.0
 30
0.0
  3
*D14
  1

  0
LINE
  5
458
330
3EE
100
AcDbEntity
  8
0
 62
     0
370
    -2
100
AcDbLine
 10
201.3188941786808
 20
241.173611871526
 30
0.0
 11
271.3718374263711
 21
241.173611871526
 31
0.0
  0
LINE
  5
459
330
3EE
100
AcDbEntity
  8
0
 62
     0
370
    -2
100
AcDbLine
 10
272.6334073447044
 20
174.173611871526
 30
0.0
 11
271.0118374263711
 21
174.173611871526
 31
0.0
  0
LINE
  5
45A
330
3EE
100
AcDbEntity
  8
0
 62
     0
370
    -2
100
AcDbLine
 10
271.1918374263711
 20
239.173611871526
 30
0.0
 11
271.1918374263711
 21
220.9562909974329
 31
0.0
  0
LINE
  5
45B
330
3EE
100
AcDbEntity
  8
0
 62
     0
370
    -2
100
AcDbLine
 10
271.1918374263711
 20
176.173611871526
 30
0.0
 11
271.1918374263711
 21
204.7762909974329
 31
0.0
  0
SOLID
  5
45C
330
3EE
100
AcDbEntity
  8
0
 62
     0
100
AcDbTrace
 10
270.8585040930378
 20
239.173611871526
 30
0.0
 11
271.5251707597044
 21
239.173611871526
 31
0.0
 12
271.1918374263711
 22
241.173611871526
 32
0.0
 13
271.1918374263711
 23
241.173611871526
 33
0.0
  0
SOLID
  5
45D
330
3EE
100
AcDbEntity
  8
0
 62
     0
100
AcDbTrace
 10
270.8585040930378
 20
176.173611871526
 30
0.0
 11
271.5251707597044
 21
176.173611871526
 31
0.0
 12
271.1918374263711
 22
174.173611871526
 32
0.0
 13
271.1918374263711
 23
174.173611871526
 33
0.0
  0
MTEXT
  5
45E
330
3EE
100
AcDbEntity
  8
0
 62
     0
100
AcDbMText
 10
271.191837426371
 20
212.8662909974329
 30
0.0
 40
16.0
 41
0.0
 71
     5
 72
     1
  1
\A1;67.0000
  7
BIGFONT
 73
     1
 44
1.0
  0
POINT
  5
45F
330
3EE
100
AcDbEntity
  8
DEFPOINTS
 62
     0
100
AcDbPoint
 10
201.2563941786808
 20
241.173611871526
 30
0.0
  0
POINT
  5
460
330
3EE
100
AcDbEntity
  8
DEFPOINTS
 62
     0
100
AcDbPoint
 10
272.6959073447044
 20
174.173611871526
 30
-0.0000000000000016
  0
POINT
  5
461
330
3EE
100
AcDbEntity
  8
DEFPOINTS
 62
     0
100
AcDbPoint
 10
271.1918374263711
 20
174.173611871526
 30
0.0
  0
ENDBLK
  5
3FA
330
3EE
100
AcDbEntity
  8
0
100
AcDbBlockEnd
  0
BLOCK
  5
402
330
3FB
100
AcDbEntity
  8
0
100
AcDbBlockBegin
  2
*D15
 70
     1
 10
0.0
 20
0.0
 30
0.0
  3
*D15
  1

  0
LINE
  5
468
330
3FB
100
AcDbEntity
  8
0
 62
     0
370
    -2
100
AcDbLine
 10
154.5582357919869
 20
261.7383538923987
 30
0.0
 11
156.5582357919869
 21
261.7383538923987
 31
0.0
  0
LINE
  5
469
330
3FB
100
AcDbEntity
  8
0
 62
     0
370
    -2
100
AcDbLine
 10
156.5582357919869
 20
261.7383538923987
 30
0.0
 11
176.4828564477345
 21
246.3910524900138
 31
0.0
  0
MTEXT
  5
46A
330
3FB
100
AcDbEntity
  8
0
 62
     0
100
AcDbMText
 10
117.1349024586536
 20
261.7383538923987
 30
0.0
 40
16.0
 41
0.0
 71
     5
 72
     1
  1
\A1;\U+220513.1000
  7
BIGFONT
 73
     1
 44
1.0
  0
SOLID
  5
46B
330
3FB
100
AcDbEntity
  8
0
 62
     0
100
AcDbTrace
 10
176.6862654387087
 20
246.6551280350799
 30
0.0
 11
176.2794474567603
 21
246.1269769449477
 31
0.0
 12
178.0673097181313
 22
245.1705985441687
 32
0.0
 13
178.0673097181313
 23
245.1705985441687
 33
0.0
  0
POINT
  5
46C
330
3FB
100
AcDbEntity
  8
DEFPOINTS
 62
     0
100
AcDbPoint
 10
178.0673097181313
 20
245.1705985441687
 30
0.0
  0
POINT
  5
46D
330
3FB
100
AcDbEntity
  8
DEFPOINTS
 62
     0
100
AcDbPoint
 10
188.4454786392304
 20
237.1766251988832
 30
0.0
  0
ENDBLK
  5
403
330
3FB
100
AcDbEntity
  8
0
100
AcDbBlockEnd
  0
BLOCK
  5
40F
330
404
100
AcDbEntity
  8
0
100
AcDbBlockBegin
  2
*D16
 70
     1
 10
0.0
 20
0.0
 30
0.0
  3
*D16
  1

  0
LINE
  5
478
330
404
100
AcDbEntity
  8
0
 62
     0
370
    -2
100
AcDbLine
 10
338.1938941786808
 20
94.17361187152605
 30
0.0
 11
298.9627964597519
 21
94.17361187152605
 31
0.0
  0
LINE
  5
479
330
404
100
AcDbEntity
  8
0
 62
     0
370
    -2
100
AcDbLine
 10
338.1938941786808
 20
254.173611871526
 30
0.0
 11
298.962796459752
 21
254.173611871526
 31
0.0
  0
LINE
  5
47A
330
404
100
AcDbEntity
  8
0
 62
     0
370
    -2
100
AcDbLine
 10
299.1427964597519
 20
96.17361187152605
 30
0.0
 11
299.1427964597519
 21
166.1969412962512
 31
0.0
  0
LINE
  5
47B
330
404
100
AcDbEntity
  8
0
 62
     0
370
    -2
100
AcDbLine
 10
299.1427964597519
 20
252.173611871526
 30
0.0
 11
299.1427964597519
 21
182.3769412962512
 31
0.0
  0
SOLID
  5
47C
330
404
100
AcDbEntity
  8
0
 62
     0
100
AcDbTrace
 10
298.8094631264186
 20
96.17361187152605
 30
0.0
 11
299.4761297930852
 21
96.17361187152605
 31
0.0
 12
299.1427964597519
 22
94.17361187152605
 32
0.0
 13
299.1427964597519
 23
94.17361187152605
 33
0.0
  0
SOLID
  5
47D
330
404
100
AcDbEntity
  8
0
 62
     0
100
AcDbTrace
 10
298.8094631264186
 20
252.173611871526
 30
0.0
 11
299.4761297930853
 21
252.173611871526
 31
0.0
 12
299.1427964597519
 22
254.173611871526
 32
0.0
 13
299.1427964597519
 23
254.173611871526
 33
0.0
  0
MTEXT
  5
47E
330
404
100
AcDbEntity
  8
0
 62
     0
100
AcDbMText
 10
299.1427964597519
 20
174.2869412962512
 30
0.0
 40
16.0
 41
0.0
 71
     5
 72
     1
  1
\A1;160.0000
  7
BIGFONT
 73
     1
 44
1.0
  0
POINT
  5
47F
330
404
100
AcDbEntity
  8
DEFPOINTS
 62
     0
100
AcDbPoint
 10
338.2563941786808
 20
94.17361187152605
 30
0.0
  0
POINT
  5
480
330
404
100
AcDbEntity
  8
DEFPOINTS
 62
     0
100
AcDbPoint
 10
338.2563941786808
 20
254.173611871526
 30
0.0
  0
POINT
  5
481
330
404
100
AcDbEntity
  8
DEFPOINTS
 62
     0
100
AcDbPoint
 10
299.1427964597519
 20
254.173611871526
 30
0.0
  0
ENDBLK
  5
410
330
404
100
AcDbEntity
  8
0
100
AcDbBlockEnd
  0
BLOCK
  5
41C
330
411
100
AcDbEntity
  8
0
100
AcDbBlockBegin
  2
*D17
 70
     1
 10
0.0
 20
0.0
 30
0.0
  3
*D17
  1

  0
LINE
  5
48C
330
411
100
AcDbEntity
  8
0
 62
     0
370
    -2
100
AcDbLine
 10
376.2563941786808
 20
193.173611871526
 30
0.0
 11
396.7563941786809
 21
193.173611871526
 31
0.0
  0
LINE
  5
48D
330
411
100
AcDbEntity
  8
0
 62
     0
370
    -2
100
AcDbLine
 10
376.2563941786808
 20
155.173611871526
 30
0.0
 11
396.7563941786809
 21
155.173611871526
 31
0.0
  0
LINE
  5
48E
330
411
100
AcDbEntity
  8
0
 62
     0
370
    -2
100
AcDbLine
 10
395.7563941786809
 20
195.673611871526
 30
0.0
 11
395.7563941786809
 21
198.173611871526
 31
0.0
  0
LINE
  5
48F
330
411
100
AcDbEntity
  8
0
 62
     0
370
    -2
100
AcDbLine
 10
395.7563941786809
 20
152.673611871526
 30
0.0
 11
395.7563941786809
 21
150.173611871526
 31
0.0
  0
SOLID
  5
490
330
411
100
AcDbEntity
  8
0
 62
     0
100
AcDbTrace
 10
395.3397275120142
 20
195.673611871526
 30
0.0
 11
396.1730608453476
 21
195.673611871526
 31
0.0
 12
395.7563941786809
 22
193.173611871526
 32
0.0
 13
395.7563941786809
 23
193.173611871526
 33
0.0
  0
SOLID
  5
491
330
411
100
AcDbEntity
  8
0
 62
     0
100
AcDbTrace
 10
395.3397275120142
 20
152.673611871526
 30
0.0
 11
396.1730608453476
 21
152.673611871526
 31
0.0
 12
395.7563941786809
 22
155.173611871526
 32
0.0
 13
395.7563941786809
 23
155.173611871526
 33
0.0
  0
MTEXT
  5
492
330
411
100
AcDbEntity
  8
0
 62
     0
100
AcDbMText
 10
395.7563941786808
 20
174.173611871526
 30
0.0
 40
16.0
 41
0.0
 71
     5
 72
     1
  1
\A1;%%c38
  7
BIGFONT
 11
0.0000000000000001
 21
1.0
 31
0.0
 73
     1
 44
1.0
  0
POINT
  5
493
330
411
100
AcDbEntity
  8
DEFPOINTS
 62
     0
100
AcDbPoint
 10
375.2563941786808
 20
193.173611871526
 30
0.0
  0
POINT
  5
494
330
411
100
AcDbEntity
  8
DEFPOINTS
 62
     0
100
AcDbPoint
 10
375.2563941786808
 20
155.173611871526
 30
0.0
  0
POINT
  5
495
330
411
100
AcDbEntity
  8
DEFPOINTS
 62
     0
100
AcDbPoint
 10
395.7563941786809
 20
155.173611871526
 30
0.0
  0
ENDBLK
  5
41D
330
411
100
AcDbEntity
  8
0
100
AcDbBlockEnd
  0
BLOCK
  5
429
330
41E
100
AcDbEntity
  8
0
100
AcDbBlockBegin
  2
*D18
 70
     1
 10
0.0
 20
0.0
 30
0.0
  3
*D18
  1

  0
LINE
  5
4A0
330
41E
100
AcDbEntity
  8
0
 62
     0
370
    -2
100
AcDbLine
 10
345.2563941786808
 20
194.173611871526
 30
0.0
 11
345.2563941786808
 21
222.173611871526
 31
0.0
  0
LINE
  5
4A1
330
41E
100
AcDbEntity
  8
0
 62
     0
370
    -2
100
AcDbLine
 10
378.2563941786808
 20
191.173611871526
 30
0.0
 11
378.2563941786808
 21
222.173611871526
 31
0.0
  0
LINE
  5
4A2
330
41E
100
AcDbEntity
  8
0
 62
     0
370
    -2
100
AcDbLine
 10
342.7563941786808
 20
221.173611871526
 30
0.0
 11
340.2563941786808
 21
221.173611871526
 31
0.0
  0
LINE
  5
4A3
330
41E
100
AcDbEntity
  8
0
 62
     0
370
    -2
100
AcDbLine
 10
380.7563941786808
 20
221.173611871526
 30
0.0
 11
383.2563941786808
 21
221.173611871526
 31
0.0
  0
SOLID
  5
4A4
330
41E
100
AcDbEntity
  8
0
 62
     0
100
AcDbTrace
 10
342.7563941786808
 20
221.5902785381927
 30
0.0
 11
342.7563941786808
 21
220.7569452048594
 31
0.0
 12
345.2563941786808
 22
221.173611871526
 32
0.0
 13
345.2563941786808
 23
221.173611871526
 33
0.0
  0
SOLID
  5
4A5
330
41E
100
AcDbEntity
  8
0
 62
     0
100
AcDbTrace
 10
380.7563941786808
 20
221.5902785381927
 30
0.0
 11
380.7563941786808
 21
220.7569452048594
 31
0.0
 12
378.2563941786808
 22
221.173611871526
 32
0.0
 13
378.2563941786808
 23
221.173611871526
 33
0.0
  0
MTEXT
  5
4A6
330
41E
100
AcDbEntity
  8
0
 62
     0
100
AcDbMText
 10
368.2563941786808
 20
221.173611871526
 30
0.0
 40
16.0
 41
0.0
 71
     5
 72
     1
  1
\A1;33
  7
BIGFONT
 73
     1
 44
1.0
  0
POINT
  5
4A7
330
41E
100
AcDbEntity
  8
DEFPOINTS
 62
     0
100
AcDbPoint
 10
345.2563941786808
 20
193.173611871526
 30
0.0
  0
POINT
  5
4A8
330
41E
100
AcDbEntity
  8
DEFPOINTS
 62
     0
100
AcDbPoint
 10
378.2563941786808
 20
190.173611871526
 30
0.0
  0
POINT
  5
4A9
330
41E
100
AcDbEntity
  8
DEFPOINTS
 62
     0
100
AcDbPoint
 10
378.2563941786808
 20
221.173611871526
 30
0.0
  0
ENDBLK
  5
42A
330
41E
100
AcDbEntity
  8
0
100
AcDbBlockEnd
  0
BLOCK
  5
435
330
42B
100
AcDbEntity
  8
0
100
AcDbBlockBegin
  2
*D19
 70
     1
 10
0.0
 20
0.0
 30
0.0
  3
*D19
  1

  0
LINE
  5
4B3
330
42B
100
AcDbEntity
  8
0
 62
     0
370
    -2
100
AcDbLine
 10
329.5627007501913
 20
247.723611871526
 30
0.0
 11
307.6948783646357
 21
247.723611871526
 31
0.0
  0
LINE
  5
4B4
330
42B
100
AcDbEntity
  8
0
 62
     0
370
    -2
100
AcDbLine
 10
329.1938941786808
 20
234.623611871526
 30
0.0
 11
307.6948783646357
 21
234.623611871526
 31
0.0
  0
LINE
  5
4B5
330
42B
100
AcDbEntity
  8
0
 62
     0
370
    -2
100
AcDbLine
 10
307.8748783646357
 20
245.723611871526
 30
0.0
 11
307.8748783646357
 21
236.623611871526
 31
0.0
  0
SOLID
  5
4B6
330
42B
100
AcDbEntity
  8
0
 62
     0
100
AcDbTrace
 10
307.5415450313024
 20
245.723611871526
 30
0.0
 11
308.2082116979691
 21
245.723611871526
 31
0.0
 12
307.8748783646357
 22
247.723611871526
 32
0.0
 13
307.8748783646357
 23
247.723611871526
 33
0.0
  0
SOLID
  5
4B7
330
42B
100
AcDbEntity
  8
0
 62
     0
100
AcDbTrace
 10
307.5415450313024
 20
236.623611871526
 30
0.0
 11
308.2082116979691
 21
236.623611871526
 31
0.0
 12
307.8748783646357
 22
234.623611871526
 32
0.0
 13
307.8748783646357
 23
234.623611871526
 33
0.0
  0
MTEXT
  5
4B8
330
42B
100
AcDbEntity
  8
0
 62
     0
100
AcDbMText
 10
307.8748783646357
 20
241.1736118715261
 30
0.0
 40
16.0
 41
0.0
 71
     5
 72
     1
  1
\A1;13.1000
  7
BIGFONT
 73
     1
 44
1.0
  0
POINT
  5
4B9
330
42B
100
AcDbEntity
  8
DEFPOINTS
 62
     0
100
AcDbPoint
 10
329.6252007501913
 20
247.723611871526
 30
0.0
  0
POINT
  5
4BA
330
42B
100
AcDbEntity
  8
DEFPOINTS
 62
     0
100
AcDbPoint
 10
329.2563941786808
 20
234.623611871526
 30
0.0
  0
POINT
  5
4BB
330
42B
100
AcDbEntity
  8
DEFPOINTS
 62
     0
100
AcDbPoint
 10
307.8748783646357
 20
234.623611871526
 30
0.0
  0
ENDBLK
  5
436
330
42B
100
AcDbEntity
  8
0
100
AcDbBlockEnd
  0
BLOCK
  5
441
330
437
100
AcDbEntity
  8
0
100
AcDbBlockBegin
  2
*D20
 70
     1
 10
0.0
 20
0.0
 30
0.0
  3
*D20
  1

  0
LINE
  5
4C5
330
437
100
AcDbEntity
  8
0
 62
     0
370
    -2
100
AcDbLine
 10
363.2563941786808
 20
196.173611871526
 30
0.0
 11
363.2563941786808
 21
211.173611871526
 31
0.0
  0
LINE
  5
4C6
330
437
100
AcDbEntity
  8
0
 62
     0
370
    -2
100
AcDbLine
 10
378.2563941786808
 20
191.173611871526
 30
0.0
 11
378.2563941786808
 21
211.173611871526
 31
0.0
  0
LINE
  5
4C7
330
437
100
AcDbEntity
  8
0
 62
     0
370
    -2
100
AcDbLine
 10
365.7563941786808
 20
210.173611871526
 30
0.0
 11
375.7563941786808
 21
210.173611871526
 31
0.0
  0
SOLID
  5
4C8
330
437
100
AcDbEntity
  8
0
 62
     0
100
AcDbTrace
 10
365.7563941786808
 20
210.5902785381926
 30
0.0
 11
365.7563941786808
 21
209.7569452048594
 31
0.0
 12
363.2563941786808
 22
210.173611871526
 32
0.0
 13
363.2563941786808
 23
210.173611871526
 33
0.0
  0
SOLID
  5
4C9
330
437
100
AcDbEntity
  8
0
 62
     0
100
AcDbTrace
 10
375.7563941786808
 20
210.5902785381926
 30
0.0
 11
375.7563941786808
 21
209.7569452048594
 31
0.0
 12
378.2563941786808
 22
210.173611871526
 32
0.0
 13
378.2563941786808
 23
210.173611871526
 33
0.0
  0
MTEXT
  5
4CA
330
437
100
AcDbEntity
  8
0
 62
     0
100
AcDbMText
 10
370.7563941786808
 20
210.173611871526
 30
0.0
 40
16.0
 41
0.0
 71
     5
 72
     1
  1
\A1;15
  7
BIGFONT
 73
     1
 44
1.0
  0
POINT
  5
4CB
330
437
100
AcDbEntity
  8
DEFPOINTS
 62
     0
100
AcDbPoint
 10
363.2563941786808
 20
195.173611871526
 30
0.0
  0
POINT
  5
4CC
330
437
100
AcDbEntity
  8
DEFPOINTS
 62
     0
100
AcDbPoint
 10
378.2563941786808
 20
190.173611871526
 30
0.0
  0
POINT
  5
4CD
330
437
100
AcDbEntity
  8
DEFPOINTS
 62
     0
100
AcDbPoint
 10
378.2563941786808
 20
210.173611871526
 30
0.0
  0
ENDBLK
  5
442
330
437
100
AcDbEntity
  8
0
100
AcDbBlockEnd
  0
BLOCK
  5
44C
330
443
100
AcDbEntity
  8
0
100
AcDbBlockBegin
  2
*D21
 70
     1
 10
0.0
 20
0.0
 30
0.0
  3
*D21
  1

  0
LINE
  5
4D6
330
443
100
AcDbEntity
  8
0
 62
     0
370
    -2
100
AcDbLine
 10
396.7563941786811
 20
212.1736118715261
 30
0.0
 11
394.2563941786799
 21
212.1736118715261
 31
0.0
  0
LINE
  5
4D7
330
443
100
AcDbEntity
  8
0
 62
     0
370
    -2
100
AcDbLine
 10
394.2563941786799
 20
212.1736118715261
 30
0.0
 11
378.8513034655843
 21
194.3361384142566
 31
0.0
  0
MTEXT
  5
4D8
330
443
100
AcDbEntity
  8
0
 62
     0
100
AcDbMText
 10
407.5130608453476
 20
212.1736118715261
 30
0.0
 40
16.0
 41
0.0
 71
     5
 72
     1
  1
\A1;R3
  7
BIGFONT
 73
     1
 44
1.0
  0
SOLID
  5
4D9
330
443
100
AcDbEntity
  8
0
 62
     0
100
AcDbTrace
 10
378.5359605456806
 20
194.6084800269008
 30
0.0
 11
379.1666463854882
 21
194.0637968016124
 31
0.0
 12
377.2172537897192
 22
192.4440808948336
 32
0.0
 13
377.2172537897192
 23
192.4440808948336
 33
0.0
  0
LINE
  5
4DA
330
443
100
AcDbEntity
  8
0
 62
     0
370
    -2
100
AcDbLine
 10
375.1663941786811
 20
190.1736118715261
 30
0.0
 11
375.346394178681
 21
190.173611871526
 31
0.0
  0
LINE
  5
4DB
330
443
100
AcDbEntity
  8
0
 62
     0
370
    -2
100
AcDbLine
 10
375.256394178681
 20
190.0836118715261
 30
0.0
 11
375.2563941786811
 21
190.2636118715261
 31
0.0
  0
POINT
  5
4DC
330
443
100
AcDbEntity
  8
DEFPOINTS
 62
     0
100
AcDbPoint
 10
377.2172537897192
 20
192.4440808948336
 30
0.0
  0
POINT
  5
4DD
330
443
100
AcDbEntity
  8
DEFPOINTS
 62
     0
100
AcDbPoint
 10
375.2563941786811
 20
190.1736118715261
 30
0.0
  0
ENDBLK
  5
44D
330
443
100
AcDbEntity
  8
0
100
AcDbBlockEnd
  0
ENDSEC
  0
SECTION
  2
ENTITIES
  0
ARC
  5
36C
330
149
100
AcDbEntity
  8
3
100
AcDbCircle
 10
183.2563941786808
 20
174.173611871526
 30
0.0
 40
80.0
100
AcDbArc
 50
90.0
 51
270.0
  0
ARC
  5
36D
330
149
100
AcDbEntity
  8
3
100
AcDbCircle
 10
183.2563941786808
 20
174.173611871526
 30
0.0
 40
71.0
100
AcDbArc
 50
101.3722824362344
 51
270.0
  0
LINE
  5
371
330
149
100
AcDbEntity
  8
3
100
AcDbLine
 10
160.2845855802335
 20
173.035187646422
 30
0.0
 11
125.4468757112088
 21
151.7669259372113
 31
0.0
  0
ARC
  5
372
330
149
100
AcDbEntity
  8
3
100
AcDbCircle
 10
183.2563941786808
 20
174.173611871526
 30
0.0
 40
62.0
100
AcDbArc
 50
98.81391331866668
 51
201.1860866813331
  0
ARC
  5
374
330
149
100
AcDbEntity
  8
3
100
AcDbCircle
 10
183.2563941786808
 20
174.173611871526
 30
0.0
 40
22.34126028197394
100
AcDbArc
 50
184.8352708121627
 51
235.164729187837
  0
LINE
  5
375
330
149
100
AcDbEntity
  8
1
100
AcDbLine
 10
183.2563941786808
 20
258.173611871526
 30
0.0
 11
183.2563941786808
 21
87.17361187152604
 31
0.0
  0
LINE
  5
376
330
149
100
AcDbEntity
  8
1
100
AcDbLine
 10
183.2563941786808
 20
174.173611871526
 30
0.0
 11
107.0461586456501
 21
130.173611871526
 31
0.0
  0
ARC
  5
377
330
149
100
AcDbEntity
  8
3
100
AcDbCircle
 10
183.2563941786808
 20
174.173611871526
 30
0.0
 40
62.0
100
AcDbArc
 50
218.8139133186663
 51
270.0
  0
LINE
  5
378
330
149
100
AcDbEntity
  8
3
100
AcDbLine
 10
170.7845855802335
 20
154.8486541669488
 30
0.0
 11
134.9468757112088
 21
135.312443265307
 31
0.0
  0
ARC
  5
379
330
149
100
AcDbEntity
  8
3
100
AcDbCircle
 10
183.2563941786808
 20
174.173611871526
 30
0.0
 40
62.84730414348544
100
AcDbArc
 50
202.2270136456786
 51
217.7729863543214
  0
ARC
  5
37A
330
149
100
AcDbEntity
  8
3
100
AcDbCircle
 10
134.5834116553677
 20
136.6955213505434
 30
0.0
 40
1.430038849035087
100
AcDbArc
 50
225.3899108127759
 51
284.7240398713158
  0
ARC
  5
37B
330
149
100
AcDbEntity
  8
3
100
AcDbCircle
 10
126.4629244405205
 20
150.7606177888722
 30
0.0
 40
1.430038849035087
100
AcDbArc
 50
135.2759601286841
 51
194.6100891872239
  0
ARC
  5
37C
330
149
100
AcDbEntity
  8
3
100
AcDbCircle
 10
183.2563941786808
 20
174.173611871526
 30
0.0
 40
23.0
100
AcDbArc
 50
237.1628884221587
 51
270.0
  0
ARC
  5
37D
330
149
100
AcDbEntity
  8
3
100
AcDbCircle
 10
169.6857180517638
 20
155.0621728569467
 30
0.0
 40
1.119419526408067
100
AcDbArc
 50
349.0039953247713
 51
43.72804873369161
  0
ARC
  5
386
330
149
100
AcDbEntity
  8
0
100
AcDbCircle
 10
183.2563941786808
 20
241.173611871526
 30
0.0
 40
4.0
100
AcDbArc
 50
90.0
 51
270.0
  0
ARC
  5
387
330
149
100
AcDbEntity
  8
3
100
AcDbCircle
 10
183.2563941786808
 20
241.173611871526
 30
0.0
 40
6.549999999999999
100
AcDbArc
 50
90.0
 51
270.0
  0
ARC
  5
388
330
149
100
AcDbEntity
  8
3
100
AcDbCircle
 10
183.2563941786808
 20
241.173611871526
 30
0.0
 40
9.5
100
AcDbArc
 50
186.0423284190542
 51
270.0
  0
ARC
  5
38B
330
149
100
AcDbEntity
  8
3
100
AcDbCircle
 10
183.2563941786808
 20
174.173611871526
 30
0.0
 40
22.34126028197394
100
AcDbArc
 50
90.0
 51
115.1647291878373
  0
LINE
  5
38C
330
149
100
AcDbEntity
  8
3
100
AcDbLine
 10
172.7563941786808
 20
194.6369938012071
 30
0.0
 11
173.7563941786808
 21
235.4414664120597
 31
0.0
  0
ARC
  5
38D
330
149
100
AcDbEntity
  8
3
100
AcDbCircle
 10
183.2563941786808
 20
174.173611871526
 30
0.0
 40
23.0
100
AcDbArc
 50
117.1628884221588
 51
182.8371115778409
  0
ARC
  5
38E
330
149
100
AcDbEntity
  8
3
100
AcDbCircle
 10
159.9200644257196
 20
171.9767811063745
 30
0.0
 40
1.119419526408067
100
AcDbArc
 50
16.27195126630876
 51
70.99600467522915
  0
ARC
  5
38F
330
149
100
AcDbEntity
  8
3
100
AcDbCircle
 10
173.4907405526366
 20
195.4818816512568
 30
0.0
 40
1.119419526408067
100
AcDbArc
 50
229.0039953247714
 51
283.7280487336909
  0
ARC
  5
390
330
149
100
AcDbEntity
  8
3
100
AcDbCircle
 10
175.1359069638336
 20
235.0646964751625
 30
0.0
 40
1.430038849035087
100
AcDbArc
 50
105.3899108127762
 51
164.7240398713163
  0
ARC
  5
391
330
149
100
AcDbEntity
  8
3
100
AcDbCircle
 10
183.2563941786808
 20
174.173611871526
 30
0.0
 40
62.84730414348544
100
AcDbArc
 50
97.54975384036328
 51
97.77298635432217
  0
LINE
  5
39A
330
149
100
AcDbEntity
  8
1
100
AcDbLine
 10
164.2563941786808
 20
241.173611871526
 30
0.0
 11
183.2563941786808
 21
241.173611871526
 31
0.0
  0
ARC
  5
39B
330
149
100
AcDbEntity
  8
3
100
AcDbCircle
 10
168.8209610313343
 20
238.5528330934313
 30
0.0
 40
5.244919079946757
100
AcDbArc
 50
18.00011082228274
 51
85.2378236361371
  0
ARC
  5
39C
330
149
100
AcDbEntity
  8
3
100
AcDbCircle
 10
183.2563941786808
 20
241.173611871526
 30
0.0
 40
3.299999999999999
100
AcDbArc
 50
90.0
 51
270.0
  0
LINE
  5
39E
330
149
100
AcDbEntity
  8
3
100
AcDbLine
 10
378.2563941786808
 20
174.173611871526
 30
0.0
 11
378.2563941786808
 21
158.173611871526
 31
0.0
  0
LINE
  5
3A0
330
149
100
AcDbEntity
  8
3
100
AcDbLine
 10
345.2563941786808
 20
155.173611871526
 30
0.0
 11
345.2563941786808
 21
174.173611871526
 31
0.0
  0
LINE
  5
3A1
330
149
100
AcDbEntity
  8
3
100
AcDbLine
 10
335.8331975454062
 20
150.9978225732985
 30
0.0
 11
345.2563941786808
 21
163.7590832376893
 31
0.0
  0
LINE
  5
3A2
330
149
100
AcDbEntity
  8
1
100
AcDbLine
 10
338.2563941786808
 20
258.673611871526
 30
0.0
 11
338.2563941786808
 21
87.17361187152604
 31
0.0
  0
LINE
  5
3A3
330
149
100
AcDbEntity
  8
3
100
AcDbLine
 10
329.2563941786808
 20
174.173611871526
 30
0.0
 11
329.2563941786808
 21
103.173611871526
 31
0.0
  0
ARC
  5
3A4
330
149
100
AcDbEntity
  8
3
100
AcDbCircle
 10
354.2563941786808
 20
172.423611871526
 30
0.0
 40
21.25
100
AcDbArc
 50
248.0405323889663
 51
295.0576154183029
  0
LINE
  5
3A5
330
149
100
AcDbEntity
  8
3
100
AcDbLine
 10
347.2563941786808
 20
103.173611871526
 30
0.0
 11
347.2563941786808
 21
144.0153979160505
 31
0.0
  0
LINE
  5
3A6
330
149
100
AcDbEntity
  8
1
100
AcDbLine
 10
338.2563941786808
 20
103.173611871526
 30
0.0
 11
326.573423976245
 21
103.173611871526
 31
0.0
  0
ARC
  5
3A7
330
149
100
AcDbEntity
  8
3
100
AcDbCircle
 10
347.7433917070599
 20
106.6476069282844
 30
0.0
 40
3.50796354699259
100
AcDbArc
 50
179.5752558082933
 51
262.0200661914487
  0
ARC
  5
3A8
330
149
100
AcDbEntity
  8
3
100
AcDbCircle
 10
328.7693966503016
 20
106.6476069282844
 30
0.0
 40
3.50796354699259
100
AcDbArc
 50
277.9799338085512
 51
0.4247441917058301
  0
LINE
  5
3A9
330
149
100
AcDbEntity
  8
1
100
AcDbLine
 10
338.2563941786808
 20
103.173611871526
 30
0.0
 11
351.0704304607528
 21
103.173611871526
 31
0.0
  0
ARC
  5
3AA
330
149
100
AcDbEntity
  8
3
100
AcDbCircle
 10
338.2563941786808
 20
103.173611871526
 30
0.0
 40
9.0
100
AcDbArc
 50
180.0
 51
0.0
  0
ARC
  5
3AB
330
149
100
AcDbEntity
  8
3
100
AcDbCircle
 10
338.2563941786808
 20
106.173611871526
 30
0.0
 40
6.0
100
AcDbArc
 50
0.9403434886090389
 51
179.0596565113901
  0
ARC
  5
3AC
330
149
100
AcDbEntity
  8
3
100
AcDbCircle
 10
348.5725194618051
 20
143.673611871526
 30
0.0
 40
15.06271283132579
100
AcDbArc
 50
156.5258912278376
 51
203.4741087721623
  0
LINE
  5
3AD
330
149
100
AcDbEntity
  8
3
100
AcDbLine
 10
341.3957508481519
 20
136.9912915905264
 30
0.0
 11
353.2488714706635
 21
151.197510062837
 31
0.0
  0
ARC
  5
3AE
330
149
100
AcDbEntity
  8
2
100
AcDbCircle
 10
327.8743952286681
 20
143.6736118715261
 30
0.0
 40
15.12315756871414
100
AcDbArc
 50
336.6253035609738
 51
23.37469643902507
  0
ARC
  5
3AF
330
149
100
AcDbEntity
  8
2
100
AcDbCircle
 10
338.7039786560967
 20
138.8731831920893
 30
0.0
 40
3.279666427493991
100
AcDbArc
 50
322.9804936665868
 51
338.545628205376
  0
ARC
  5
3B0
330
149
100
AcDbEntity
  8
3
100
AcDbCircle
 10
338.2563941786808
 20
139.0870820479939
 30
0.0
 40
3.77463878268694
100
AcDbArc
 50
201.9912514948342
 51
326.2734826993684
  0
ARC
  5
3B1
330
149
100
AcDbEntity
  8
2
100
AcDbCircle
 10
338.2467748018175
 20
147.7782030576913
 30
0.0
 40
3.988734478756093
100
AcDbArc
 50
28.37175553428714
 51
127.7493095296294
  0
ARC
  5
3B2
330
149
100
AcDbEntity
  8
3
100
AcDbCircle
 10
338.2563941786808
 20
147.7942865587644
 30
0.0
 40
3.972639378446906
100
AcDbArc
 50
129.3281384949641
 51
151.7664211814119
  0
LINE
  5
3B3
330
149
100
AcDbEntity
  8
3
100
AcDbLine
 10
345.2563941786808
 20
155.173611871526
 30
0.0
 11
346.309944184603
 21
152.7153285243742
 31
0.0
  0
LINE
  5
3B4
330
149
100
AcDbEntity
  8
3
100
AcDbLine
 10
375.2563941786808
 20
155.173611871526
 30
0.0
 11
363.2563941786808
 21
155.173611871526
 31
0.0
  0
LINE
  5
3B5
330
149
100
AcDbEntity
  8
3
100
AcDbLine
 10
363.2563941786808
 20
155.173611871526
 30
0.0
 11
363.2563941786808
 21
153.173611871526
 31
0.0
  0
ARC
  5
3B6
330
149
100
AcDbEntity
  8
3
100
AcDbCircle
 10
375.2563941786808
 20
158.173611871526
 30
0.0
 40
3.0
100
AcDbArc
 50
270.0
 51
0.0
  0
LINE
  5
3B7
330
149
100
AcDbEntity
  8
1
100
AcDbLine
 10
322.8643732882923
 20
174.173611871526
 30
0.0
 11
382.8639417320374
 21
174.173611871526
 31
0.0
  0
LINE
  5
3B9
330
149
100
AcDbEntity
  8
3
100
AcDbLine
 10
357.9228020436796
 20
203.8407961415285
 30
0.0
 11
344.2732678866819
 21
231.1398644555239
 31
0.0
  0
LINE
  5
3BB
330
149
100
AcDbEntity
  8
3
100
AcDbLine
 10
331.2563941786808
 20
234.623611871526
 30
0.0
 11
331.2563941786808
 21
247.723611871526
 31
0.0
  0
LINE
  5
3BC
330
149
100
AcDbEntity
  8
3
100
AcDbLine
 10
345.2563941786808
 20
244.173611871526
 30
0.0
 11
345.2563941786808
 21
233.673611871526
 31
0.0
  0
LINE
  5
3BD
330
149
100
AcDbEntity
  8
3
100
AcDbLine
 10
329.2563941786808
 20
174.173611871526
 30
0.0
 11
329.2563941786808
 21
245.173611871526
 31
0.0
  0
LINE
  5
3BE
330
149
100
AcDbEntity
  8
3
100
AcDbLine
 10
347.2563941786808
 20
245.173611871526
 30
0.0
 11
347.2563941786808
 21
225.1736118715261
 31
0.0
  0
ARC
  5
3C1
330
149
100
AcDbEntity
  8
3
100
AcDbCircle
 10
337.0063941786808
 20
197.9957685567376
 30
0.0
 40
12.0
100
AcDbArc
 50
0.0
 51
25.15930191603211
  0
LINE
  5
3C2
330
149
100
AcDbEntity
  8
3
100
AcDbLine
 10
347.2563941786808
 20
204.399418323139
 30
0.0
 11
347.2563941786808
 21
195.9875720987593
 31
0.0
  0
LINE
  5
3C3
330
149
100
AcDbEntity
  8
3
100
AcDbLine
 10
345.2563941786808
 20
193.173611871526
 30
0.0
 11
345.2563941786808
 21
174.173611871526
 31
0.0
  0
LINE
  5
3C4
330
149
100
AcDbEntity
  8
1
100
AcDbLine
 10
345.2563941786808
 20
174.173611871526
 30
0.0
 11
354.2563941786808
 21
174.173611871526
 31
0.0
  0
LINE
  5
3C5
330
149
100
AcDbEntity
  8
1
100
AcDbLine
 10
345.2563941786808
 20
174.173611871526
 30
0.0
 11
354.2563941786808
 21
174.173611871526
 31
0.0
  0
ARC
  5
3C6
330
149
100
AcDbEntity
  8
3
100
AcDbCircle
 10
354.2563941786808
 20
175.923611871526
 30
0.0
 40
21.25
100
AcDbArc
 50
104.3035365099254
 51
111.9594676110336
  0
LINE
  5
3C7
330
149
100
AcDbEntity
  8
3
100
AcDbLine
 10
345.2563941786808
 20
193.173611871526
 30
0.0
 11
346.309944184603
 21
195.6318952186778
 31
0.0
  0
LINE
  5
3C8
330
149
100
AcDbEntity
  8
3
100
AcDbLine
 10
349.0063941786808
 20
196.5148721535
 30
0.0
 11
349.0063941786808
 21
197.9957685567376
 31
0.0
  0
LINE
  5
3C9
330
149
100
AcDbEntity
  8
3
100
AcDbLine
 10
334.9294552511707
 20
230.6438689429991
 30
0.0
 11
347.8679453206889
 21
203.0974062143474
 31
0.0
  0
LINE
  5
3CB
330
149
100
AcDbEntity
  8
0
100
AcDbLine
 10
331.2563941786808
 20
237.173611871526
 30
0.0
 11
345.2563941786808
 21
237.173611871526
 31
0.0
  0
ARC
  5
3CC
330
149
100
AcDbEntity
  8
3
100
AcDbCircle
 10
348.5063941786808
 20
237.0209160150114
 30
0.0
 40
15.0
100
AcDbArc
 50
200.8846032256441
 51
205.1593019160321
  0
LINE
  5
3CD
330
149
100
AcDbEntity
  8
3
100
AcDbLine
 10
329.2563941786808
 20
231.673611871526
 30
0.0
 11
334.4918896067359
 21
231.673611871526
 31
0.0
  0
LINE
  5
3CE
330
149
100
AcDbEntity
  8
3
100
AcDbLine
 10
329.2563941786808
 20
234.623611871526
 30
0.0
 11
331.2563941786808
 21
234.623611871526
 31
0.0
  0
LINE
  5
3CF
330
149
100
AcDbEntity
  8
3
100
AcDbLine
 10
345.2563941786808
 20
233.673611871526
 30
0.0
 11
343.6942505728736
 21
232.5020041671706
 31
0.0
  0
ARC
  5
3D0
330
149
100
AcDbEntity
  8
3
100
AcDbCircle
 10
355.0063941786808
 20
236.5064276015234
 30
0.0
 40
12.0
100
AcDbArc
 50
199.4936236905144
 51
206.565051177078
  0
LINE
  5
3D3
330
149
100
AcDbEntity
  8
1
100
AcDbLine
 10
323.2563941786808
 20
241.173611871526
 30
0.0
 11
348.7563941786808
 21
241.173611871526
 31
0.0
  0
LINE
  5
3D7
330
149
100
AcDbEntity
  8
3
100
AcDbLine
 10
345.5961237517015
 20
244.473611871526
 30
0.0
 11
331.2563941786808
 21
244.473611871526
 31
0.0
  0
LINE
  5
3D8
330
149
100
AcDbEntity
  8
3
100
AcDbLine
 10
331.2563941786809
 20
237.873611871526
 30
0.0
 11
345.2563941786809
 21
237.873611871526
 31
0.0
  0
LINE
  5
3D9
330
149
100
AcDbEntity
  8
0
100
AcDbLine
 10
347.2563941786808
 20
245.173611871526
 30
0.0
 11
331.2563941786808
 21
245.173611871526
 31
0.0
  0
ARC
  5
3DA
330
149
100
AcDbEntity
  8
3
100
AcDbCircle
 10
338.2563941786808
 20
245.173611871526
 30
0.0
 40
9.0
100
AcDbArc
 50
0.0
 51
180.0
  0
LINE
  5
3DB
330
149
100
AcDbEntity
  8
3
100
AcDbLine
 10
331.2563941786808
 20
247.723611871526
 30
0.0
 11
329.6252007501913
 21
247.723611871526
 31
0.0
  0
ARC
  5
3DC
330
149
100
AcDbEntity
  8
3
100
AcDbCircle
 10
347.7433917070599
 20
241.6996168147676
 30
0.0
 40
3.50796354699259
100
AcDbArc
 50
97.97993380855123
 51
135.1501685456045
  0
ARC
  5
3DD
330
149
100
AcDbEntity
  8
3
100
AcDbCircle
 10
344.5063941786808
 20
197.1325922090292
 30
0.0
 40
15.0
100
AcDbArc
 50
0.0
 51
26.56505117707798
  0
LINE
  5
3E0
330
149
100
AcDbEntity
  8
3
100
AcDbLine
 10
378.2563941786808
 20
174.173611871526
 30
0.0
 11
378.2563941786808
 21
190.173611871526
 31
0.0
  0
LINE
  5
3E1
330
149
100
AcDbEntity
  8
3
100
AcDbLine
 10
375.2563941786808
 20
193.173611871526
 30
0.0
 11
363.2563941786808
 21
193.173611871526
 31
0.0
  0
ARC
  5
3E2
330
149
100
AcDbEntity
  8
3
100
AcDbCircle
 10
354.2563941786808
 20
175.923611871526
 30
0.0
 40
21.25
100
AcDbArc
 50
64.94238458169707
 51
75.69646349007456
  0
LINE
  5
3E3
330
149
100
AcDbEntity
  8
3
100
AcDbLine
 10
359.5063941786808
 20
196.5148721535
 30
0.0
 11
359.5063941786808
 21
197.1325922090292
 31
0.0
  0
LINE
  5
3E4
330
149
100
AcDbEntity
  8
3
100
AcDbLine
 10
363.2563941786808
 20
193.173611871526
 30
0.0
 11
363.2563941786808
 21
195.173611871526
 31
0.0
  0
ARC
  5
3E5
330
149
100
AcDbEntity
  8
3
100
AcDbCircle
 10
375.2563941786808
 20
190.173611871526
 30
0.0
 40
3.0
100
AcDbArc
 50
0.0
 51
90.0
  0
LINE
  5
4E0
330
149
100
AcDbEntity
  8
1
100
AcDbLine
 10
183.2563941786808
 20
174.173611871526
 30
-0.0000000000000008
 11
95.80634314186147
 21
174.173611871526
 31
0.0
  0
ARC
  5
4E1
330
149
100
AcDbEntity
  8
3
100
AcDbCircle
 10
183.2563941786808
 20
174.173611871526
 30
0.0
 40
19.0
100
AcDbArc
 50
90.0
 51
270.0
  0
ARC
  5
4E3
330
149
100
AcDbEntity
  8
3
100
AcDbCircle
 10
183.2563941786808
 20
174.173611871526
 30
0.0
 40
80.0
100
AcDbArc
 50
270.0
 51
90.0
  0
ARC
  5
4E4
330
149
100
AcDbEntity
  8
3
100
AcDbCircle
 10
183.2563941786808
 20
174.173611871526
 30
0.0
 40
19.0
100
AcDbArc
 50
270.0
 51
90.0
  0
ARC
  5
4E5
330
149
100
AcDbEntity
  8
3
100
AcDbCircle
 10
183.2563941786808
 20
174.173611871526
 30
0.0
 40
71.0
100
AcDbArc
 50
270.0
 51
78.62771756376554
  0
LINE
  5
4E6
330
149
100
AcDbEntity
  8
1
100
AcDbLine
 10
183.2563941786808
 20
174.173611871526
 30
0.0
 11
259.4666297117114
 21
130.173611871526
 31
0.0
  0
ARC
  5
4E7
330
149
100
AcDbEntity
  8
3
100
AcDbCircle
 10
183.2563941786808
 20
174.173611871526
 30
0.0
 40
22.34126028197394
100
AcDbArc
 50
304.835270812163
 51
355.1647291878373
  0
ARC
  5
4E8
330
149
100
AcDbEntity
  8
3
100
AcDbCircle
 10
183.2563941786808
 20
174.173611871526
 30
0.0
 40
62.0
100
AcDbArc
 50
338.8139133186669
 51
81.18608668133333
  0
LINE
  5
4E9
330
149
100
AcDbEntity
  8
3
100
AcDbLine
 10
206.2282027771281
 20
173.035187646422
 30
0.0
 11
241.0659126461528
 21
151.7669259372113
 31
0.0
  0
ARC
  5
4EA
330
149
100
AcDbEntity
  8
3
100
AcDbCircle
 10
183.2563941786808
 20
174.173611871526
 30
0.0
 40
23.0
100
AcDbArc
 50
270.0
 51
302.8371115778412
  0
ARC
  5
4EB
330
149
100
AcDbEntity
  8
3
100
AcDbCircle
 10
183.2563941786808
 20
174.173611871526
 30
0.0
 40
62.0
100
AcDbArc
 50
270.0
 51
321.1860866813336
  0
ARC
  5
4EC
330
149
100
AcDbEntity
  8
3
100
AcDbCircle
 10
183.2563941786808
 20
174.173611871526
 30
0.0
 40
62.84730414348544
100
AcDbArc
 50
322.2270136456785
 51
337.7729863543214
  0
ARC
  5
4ED
330
149
100
AcDbEntity
  8
3
100
AcDbCircle
 10
240.049863916841
 20
150.7606177888722
 30
0.0
 40
1.430038849035087
100
AcDbArc
 50
345.389910812776
 51
44.72403987131587
  0
LINE
  5
4EE
330
149
100
AcDbEntity
  8
3
100
AcDbLine
 10
195.7282027771281
 20
154.8486541669488
 30
0.0
 11
231.5659126461528
 21
135.312443265307
 31
0.0
  0
ARC
  5
4EF
330
149
100
AcDbEntity
  8
3
100
AcDbCircle
 10
231.9293767019939
 20
136.6955213505434
 30
0.0
 40
1.430038849035087
100
AcDbArc
 50
255.2759601286841
 51
314.610089187224
  0
ARC
  5
4F0
330
149
100
AcDbEntity
  8
3
100
AcDbCircle
 10
196.8270703055978
 20
155.0621728569467
 30
0.0
 40
1.119419526408067
100
AcDbArc
 50
136.2719512663083
 51
190.9960046752286
  0
LINE
  5
4F1
330
149
100
AcDbEntity
  8
1
100
AcDbLine
 10
202.2563941786808
 20
241.173611871526
 30
0.0
 11
183.2563941786808
 21
241.173611871526
 31
0.0
  0
LINE
  5
4F2
330
149
100
AcDbEntity
  8
1
100
AcDbLine
 10
183.2563941786808
 20
174.173611871526
 30
-0.0000000000000008
 11
270.7064452155001
 21
174.173611871526
 31
0.0
  0
ARC
  5
4F3
330
149
100
AcDbEntity
  8
3
100
AcDbCircle
 10
197.6918273260273
 20
238.5528330934313
 30
0.0
 40
5.244919079946757
100
AcDbArc
 50
94.76217636386291
 51
161.9998891777172
  0
ARC
  5
4F4
330
149
100
AcDbEntity
  8
3
100
AcDbCircle
 10
183.2563941786808
 20
174.173611871526
 30
0.0
 40
23.0
100
AcDbArc
 50
357.1628884221591
 51
62.83711157784114
  0
ARC
  5
4F5
330
149
100
AcDbEntity
  8
3
100
AcDbCircle
 10
206.592723931642
 20
171.9767811063745
 30
0.0
 40
1.119419526408067
100
AcDbArc
 50
109.0039953247708
 51
163.7280487336912
  0
LINE
  5
4F6
330
149
100
AcDbEntity
  8
3
100
AcDbLine
 10
193.7563941786808
 20
194.6369938012071
 30
0.0
 11
192.7563941786808
 21
235.4414664120597
 31
0.0
  0
ARC
  5
4F7
330
149
100
AcDbEntity
  8
3
100
AcDbCircle
 10
183.2563941786808
 20
174.173611871526
 30
0.0
 40
22.34126028197394
100
AcDbArc
 50
64.83527081216267
 51
90.0
  0
ARC
  5
4F8
330
149
100
AcDbEntity
  8
3
100
AcDbCircle
 10
193.022047804725
 20
195.4818816512568
 30
0.0
 40
1.119419526408067
100
AcDbArc
 50
256.271951266309
 51
310.9960046752285
  0
ARC
  5
4F9
330
149
100
AcDbEntity
  8
3
100
AcDbCircle
 10
183.2563941786808
 20
241.173611871526
 30
0.0
 40
9.5
100
AcDbArc
 50
270.0
 51
353.9576715809457
  0
ARC
  5
4FA
330
149
100
AcDbEntity
  8
3
100
AcDbCircle
 10
183.2563941786808
 20
241.173611871526
 30
0.0
 40
6.549999999999999
100
AcDbArc
 50
270.0
 51
90.0
  0
ARC
  5
4FB
330
149
100
AcDbEntity
  8
3
100
AcDbCircle
 10
183.2563941786808
 20
241.173611871526
 30
0.0
 40
3.299999999999999
100
AcDbArc
 50
270.0
 51
90.0
  0
ARC
  5
4FC
330
149
100
AcDbEntity
  8
0
100
AcDbCircle
 10
183.2563941786808
 20
241.173611871526
 30
0.0
 40
4.0
100
AcDbArc
 50
270.0
 51
90.0
  0
ARC
  5
4FD
330
149
100
AcDbEntity
  8
3
100
AcDbCircle
 10
183.2563941786808
 20
174.173611871526
 30
0.0
 40
62.84730414348544
100
AcDbArc
 50
82.22701364567786
 51
82.45024615963675
  0
ARC
  5
4FE
330
149
100
AcDbEntity
  8
3
100
AcDbCircle
 10
191.376881393528
 20
235.0646964751625
 30
0.0
 40
1.430038849035087
100
AcDbArc
 50
15.27596012868369
 51
74.61008918722376
  0
ENDSEC
  0
SECTION
  2
OBJECTS
  0
DICTIONARY
  5
13E
330
0
100
AcDbDictionary
281
     1
  3
ACAD_GROUP
350
13F
  3
ACAD_LAYOUT
350
173
  3
ACAD_MLINESTYLE
350
14C
  3
ACAD_PLOTSETTINGS
350
174
  3
ACAD_PLOTSTYLENAME
350
171
  3
ACDBVARIABLEDICTIONARY
350
164
  3
AcmDictionary
350
230
  3
AMG
350
178
  3
AMGSNAPSETTINGS
350
24D
  3
DWGPROPS
350
255
  3
MAPISURF_MODULE
350
203
  0
DICTIONARY
  5
4FF
330
149
100
AcDbDictionary
280
     1
281
     1
  3
ACAD_INDEX
360
500
  0
DICTIONARY
  5
13F
102
{ACAD_REACTORS
330
13E
102
}
330
13E
100
AcDbDictionary
281
     1
  0
DICTIONARY
  5
173
102
{ACAD_REACTORS
330
13E
102
}
330
13E
100
AcDbDictionary
281
     1
  3
Model
350
175
  3
ﾚｲｱｳﾄ1
350
176
  0
DICTIONARY
  5
14C
102
{ACAD_REACTORS
330
13E
102
}
330
13E
100
AcDbDictionary
281
     1
  3
STANDARD
350
14D
  0
DICTIONARY
  5
174
102
{ACAD_REACTORS
330
13E
102
}
330
13E
100
AcDbDictionary
281
     1
  0
ACDBDICTIONARYWDFLT
  5
171
102
{ACAD_REACTORS
330
13E
102
}
330
13E
100
AcDbDictionary
281
     1
  3
Normal
350
172
100
AcDbDictionaryWithDefault
340
172
  0
DICTIONARY
  5
164
102
{ACAD_REACTORS
330
13E
102
}
330
13E
100
AcDbDictionary
281
     1
  3
DIMADEC
350
165
  3
DIMASSOC
350
50B
  3
INDEXCTL
350
50A
  0
DICTIONARY
  5
230
102
{ACAD_REACTORS
330
13E
102
}
330
13E
100
AcDbDictionary
281
     1
  3
AcmBOMDATA
350
231
  3
AcmStdDictionary
350
351
  0
DICTIONARY
  5
178
102
{ACAD_REACTORS
330
13E
102
}
330
13E
100
AcDbDictionary
281
     1
  3
AcMgSettings
350
179
  3
AMGLAYCFG
350
23D
  0
DICTIONARY
  5
24D
102
{ACAD_REACTORS
330
13E
102
}
330
13E
100
AcDbDictionary
281
     1
  3
DIMENSION
350
252
  3
FEA
350
251
  3
HATCH (1)
350
24E
  3
HATCH (2)
350
24F
  3
SIMPLE WELD
350
253
  3
SYMBOLS
350
250
  0
XRECORD
  5
255
102
{ACAD_REACTORS
330
13E
102
}
330
13E
100
AcDbXrecord
280
     1
  1
DWGPROPS COOKIE
  2

  3

  4

  6

  7

  8

  9

300
AmdtFileType=84
301
=
302
=
303
=
304
=
305
=
306
=
307
=
308
=
309
=
 40
0.0014585185185185
 41
2450863.961183449
 42
2453551.646470266
  1

 90
        1
  0
DICTIONARY
  5
500
102
{ACAD_REACTORS
330
4FF
102
}
330
4FF
100
AcDbDictionary
281
     1
  3
*A1
350
501
  0
LAYOUT
  5
175
102
{ACAD_REACTORS
330
173
102
}
330
173
100
AcDbPlotSettings
  1

  2
\\KONISHIDENXP\SHARP MX-2700FG
  4

  6

 40
0.0
 41
0.0
 42
0.0
 43
0.0
 44
0.0
 45
0.0
 46
0.0
 47
0.0
 48
0.0
 49
0.0
140
0.0
141
0.0
142
1.0
143
1.0
 70
  1712
 72
     0
 73
     0
 74
     0
  7

 75
     0
147
1.0
148
0.0
149
0.0
100
AcDbLayout
  1
Model
 70
     1
 71
     0
 10
0.0
 20
0.0
 11
12.0
 21
9.0
 12
0.0
 22
0.0
 32
0.0
 14
0.0
 24
0.0
 34
0.0
 15
0.0
 25
0.0
 35
0.0
146
0.0
 13
0.0
 23
0.0
 33
0.0
 16
1.0
 26
0.0
 36
0.0
 17
0.0
 27
1.0
 37
0.0
 76
     0
330
149
  0
LAYOUT
  5
176
102
{ACAD_REACTORS
330
173
102
}
330
173
100
AcDbPlotSettings
  1

  2
\\KONISHIDENXP\SHARP MX-2700FG
  4

  6

 40
0.0
 41
0.0
 42
0.0
 43
0.0
 44
0.0
 45
0.0
 46
0.0
 47
0.0
 48
0.0
 49
0.0
140
0.0
141
0.0
142
1.0
143
1.0
 70
   688
 72
     0
 73
     0
 74
     5
  7

 75
    16
147
1.0
148
0.0
149
0.0
100
AcDbLayout
  1
ﾚｲｱｳﾄ1
 70
     0
 71
     1
 10
0.0
 20
0.0
 11
12.0
 21
9.0
 12
0.0
 22
0.0
 32
0.0
 14
1.000000000000000E+20
 24
1.000000000000000E+20
 34
1.000000000000000E+20
 15
-1.000000000000000E+20
 25
-1.000000000000000E+20
 35
-1.000000000000000E+20
146
0.0
 13
0.0
 23
0.0
 33
0.0
 16
1.0
 26
0.0
 36
0.0
 17
0.0
 27
1.0
 37
0.0
 76
     0
330
146
  0
MLINESTYLE
  5
14D
102
{ACAD_REACTORS
330
14C
102
}
330
14C
100
AcDbMlineStyle
  2
STANDARD
 70
     0
  3

 62
   256
 51
90.0
 52
90.0
 71
     2
 49
0.5
 62
   256
  6
BYLAYER
 49
-0.5
 62
   256
  6
BYLAYER
  0
ACDBPLACEHOLDER
  5
172
102
{ACAD_REACTORS
330
171
102
}
330
171
  0
DICTIONARYVAR
  5
165
102
{ACAD_REACTORS
330
164
102
}
330
164
100
DictionaryVariables
280
     0
  1
0
  0
DICTIONARYVAR
  5
50B
102
{ACAD_REACTORS
330
164
102
}
330
164
100
DictionaryVariables
280
     0
  1
0
  0
DICTIONARYVAR
  5
50A
102
{ACAD_REACTORS
330
164
102
}
330
164
100
DictionaryVariables
280
     0
  1
1
  0
ACMDATADICTIONARY
  5
231
102
{ACAD_REACTORS
330
230
102
}
330
230
100
AcDbDictionary
281
     1
  3
*A1
350
232
100
AcmDataDictionary
  0
DICTIONARY
  5
351
102
{ACAD_REACTORS
330
230
102
}
330
230
100
AcDbDictionary
281
     1
  3
ISO
350
352
  0
DICTIONARY
  5
179
102
{ACAD_REACTORS
330
178
102
}
330
178
100
AcDbDictionary
281
     1
  3
DWGSETTINGS
350
17A
  0
ACAMGFILTERDAT
  5
252
102
{ACAD_REACTORS
330
24D
102
}
330
24D
100
AcAmgFilterDat
 70
    15
  1
DIMENSION,AMDT_*_DIM
  2
*
  3
*
  4
*
  5
*
290
     1
  0
ACAMGFILTERDAT
  5
251
102
{ACAD_REACTORS
330
24D
102
}
330
24D
100
AcAmgFilterDat
 70
    15
  1
*
  2
AM_FEA-AM_*
  3
*
  4
*
  5
*
290
     1
  0
ACAMGFILTERDAT
  5
24E
102
{ACAD_REACTORS
330
24D
102
}
330
24D
100
AcAmgFilterDat
 70
    15
  1
HATCH
  2
*
  3
*
  4
*
  5
*
290
     1
  0
ACAMGFILTERDAT
  5
24F
102
{ACAD_REACTORS
330
24D
102
}
330
24D
100
AcAmgFilterDat
 70
    15
  1
LINE
  2
8,8N,*-8,*-8N,AM_8,AM_8N,*-AM_8,*-AM_8N
  3
*
  4
*
  5
INSERT,STDPART2D
290
     1
  0
ACAMGFILTERDAT
  5
253
102
{ACAD_REACTORS
330
24D
102
}
330
24D
100
AcAmgFilterDat
 70
    15
  1
ARC
  2
AM_5
  3
*
  4
2
  5
INSERT
290
     0
  0
ACAMGFILTERDAT
  5
250
102
{ACAD_REACTORS
330
24D
102
}
330
24D
100
AcAmgFilterDat
 70
    15
  1
ACMFCFRAME,ACMDATUMTARGET,ACMDATUMID,ACMWELDSYM,ACMSURFSYM,ACMFEATID,ACMPARTREF,ACMBALLOON,AMDTEDGESYM,AMGSCREWCALCTABLE
  2
*
  3
*
  4
*
  5
*
290
     1
  0
LAYER_INDEX
  5
501
102
{ACAD_REACTORS
330
500
102
}
330
500
100
AcDbIndex
 40
2456448.421052152
100
AcDbLayerIndex
  8
0
360
502
 90
        4
  8
1
360
503
 90
       14
  8
3
360
504
 90
       95
  8
4
360
505
 90
        0
  8
10
360
506
 90
        0
  8
11
360
507
 90
        0
  8
2
360
508
 90
        3
  8
DEFPOINTS
360
509
 90
        0
  0
ACMDATAENTRYBLOCK
  5
232
102
{ACAD_REACTORS
330
231
102
}
330
231
100
AcmDataEntry
100
AcmDataEntryBlock
  0
IDBUFFER
  5
502
330
0
100
AcDbIdBuffer
330
386
330
3CB
330
3D9
330
4FC
  0
IDBUFFER
  5
503
330
0
100
AcDbIdBuffer
330
375
330
376
330
39A
330
3A2
330
3A6
330
3A9
330
3B7
330
3C4
330
3C5
330
3D3
330
4E0
330
4E6
330
4F1
330
4F2
  0
IDBUFFER
  5
504
330
0
100
AcDbIdBuffer
330
3C3
330
3C6
330
3C7
330
3C8
330
3C9
330
3CC
330
3CD
330
3CE
330
3CF
330
3D0
330
3D7
330
3D8
330
3DA
330
3DB
330
3DC
330
3DD
330
3E0
330
3E1
330
3E2
330
3E3
330
3E4
330
3E5
330
4E1
330
4E3
330
4E4
330
4E5
330
4E7
330
4E8
330
4E9
330
4EA
330
4EB
330
4EC
330
4ED
330
4EE
330
4EF
330
4F0
330
4F3
330
4F4
330
4F5
330
4F6
330
4F7
330
4F8
330
4F9
330
4FA
330
4FB
330
4FD
330
4FE
330
36C
330
36D
330
371
330
372
330
374
330
377
330
378
330
379
330
37A
330
37B
330
37C
330
37D
330
387
330
388
330
38B
330
38C
330
38D
330
38E
330
38F
330
390
330
391
330
39B
330
39C
330
39E
330
3A0
330
3A1
330
3A3
330
3A4
330
3A5
330
3A7
330
3A8
330
3AA
330
3AB
330
3AC
330
3AD
330
3B0
330
3B2
330
3B3
330
3B4
330
3B5
330
3B6
330
3B9
330
3BB
330
3BC
330
3BD
330
3BE
330
3C1
330
3C2
  0
IDBUFFER
  5
505
330
0
100
AcDbIdBuffer
  0
IDBUFFER
  5
506
330
0
100
AcDbIdBuffer
  0
IDBUFFER
  5
507
330
0
100
AcDbIdBuffer
  0
IDBUFFER
  5
508
330
0
100
AcDbIdBuffer
330
3AE
330
3AF
330
3B1
  0
IDBUFFER
  5
509
330
0
100
AcDbIdBuffer
  0
ENDSEC
  0
EOF
