  0
SECTION
  2
HEADER
  9
$ACADVER
  1
AC1015
  9
$ACADMAINTVER
 70
    13
  9
$DWGCODEPAGE
  3
ANSI_932
  9
$INSBASE
 10
0.0
 20
0.0
 30
0.0
  9
$EXTMIN
 10
116.3560287886745
 20
76.25708876417613
 30
0.0
  9
$EXTMAX
 10
423.3560287886744
 20
256.0484965855968
 30
0.0
  9
$LIMMIN
 10
0.0
 20
0.0
  9
$LIMMAX
 10
500.0
 20
320.0
  9
$ORTHOMODE
 70
     1
  9
$REGENMODE
 70
     1
  9
$FILLMODE
 70
     1
  9
$QTEXTMODE
 70
     0
  9
$MIRRTEXT
 70
     1
  9
$LTSCALE
 40
30.0
  9
$ATTMODE
 70
     1
  9
$TEXTSIZE
 40
0.2
  9
$TRACEWID
 40
0.05
  9
$TEXTSTYLE
  7
STANDARD
  9
$CLAYER
  8
0
  9
$CELTYPE
  6
BYLAYER
  9
$CECOLOR
 62
   256
  9
$CELTSCALE
 40
1.0
  9
$DISPSILH
 70
     0
  9
$DIMSCALE
 40
3.0
  9
$DIMASZ
 40
3.0
  9
$DIMEXO
 40
2.0
  9
$DIMDLI
 40
0.38
  9
$DIMRND
 40
0.0
  9
$DIMDLE
 40
0.0
  9
$DIMEXE
 40
2.0
  9
$DIMTP
 40
0.0
  9
$DIMTM
 40
0.0
  9
$DIMTXT
 40
3.2
  9
$DIMCEN
 40
0.09
  9
$DIMTSZ
 40
0.0
  9
$DIMTOL
 70
     0
  9
$DIMLIM
 70
     0
  9
$DIMTIH
 70
     0
  9
$DIMTOH
 70
     0
  9
$DIMSE1
 70
     0
  9
$DIMSE2
 70
     0
  9
$DIMTAD
 70
     0
  9
$DIMZIN
 70
     0
  9
$DIMBLK
  1

  9
$DIMASO
 70
     0
  9
$DIMSHO
 70
     0
  9
$DIMPOST
  1

  9
$DIMAPOST
  1

  9
$DIMALT
 70
     0
  9
$DIMALTD
 70
     2
  9
$DIMALTF
 40
25.4
  9
$DIMLFAC
 40
1.0
  9
$DIMTOFL
 70
     0
  9
$DIMTVP
 40
1.6
  9
$DIMTIX
 70
     1
  9
$DIMSOXD
 70
     0
  9
$DIMSAH
 70
     0
  9
$DIMBLK1
  1

  9
$DIMBLK2
  1

  9
$DIMSTYLE
  2
STANDARD
  9
$DIMCLRD
 70
     0
  9
$DIMCLRE
 70
     0
  9
$DIMCLRT
 70
     0
  9
$DIMTFAC
 40
1.0
  9
$DIMGAP
 40
0.09
  9
$DIMJUST
 70
     0
  9
$DIMSD1
 70
     0
  9
$DIMSD2
 70
     0
  9
$DIMTOLJ
 70
     1
  9
$DIMTZIN
 70
     0
  9
$DIMALTZ
 70
     0
  9
$DIMALTTZ
 70
     0
  9
$DIMUPT
 70
     0
  9
$DIMDEC
 70
     4
  9
$DIMTDEC
 70
     4
  9
$DIMALTU
 70
     2
  9
$DIMALTTD
 70
     2
  9
$DIMTXSTY
  7
BIGFONT
  9
$DIMAUNIT
 70
     0
  9
$DIMADEC
 70
     0
  9
$DIMALTRND
 40
0.0
  9
$DIMAZIN
 70
     0
  9
$DIMDSEP
 70
    46
  9
$DIMATFIT
 70
     3
  9
$DIMFRAC
 70
     0
  9
$DIMLDRBLK
  1

  9
$DIMLUNIT
 70
     2
  9
$DIMLWD
 70
    -2
  9
$DIMLWE
 70
    -2
  9
$DIMTMOVE
 70
     0
  9
$LUNITS
 70
     2
  9
$LUPREC
 70
     4
  9
$SKETCHINC
 40
0.1
  9
$FILLETRAD
 40
0.0
  9
$AUNITS
 70
     0
  9
$AUPREC
 70
     0
  9
$MENU
  1
ACAD
  9
$ELEVATION
 40
0.0
  9
$PELEVATION
 40
0.0
  9
$THICKNESS
 40
0.0
  9
$LIMCHECK
 70
     0
  9
$CHAMFERA
 40
0.0
  9
$CHAMFERB
 40
0.0
  9
$CHAMFERC
 40
0.0
  9
$CHAMFERD
 40
0.0
  9
$SKPOLY
 70
     0
  9
$TDCREATE
 40
2450863.959268982
  9
$TDUCREATE
 40
2450863.584268981
  9
$TDUPDATE
 40
2456448.418015764
  9
$TDUUPDATE
 40
2456448.043015764
  9
$TDINDWG
 40
0.0023234954
  9
$TDUSRTIMER
 40
0.0023233218
  9
$USRTIMER
 70
     1
  9
$ANGBASE
 50
0.0
  9
$ANGDIR
 70
     0
  9
$PDMODE
 70
     0
  9
$PDSIZE
 40
0.0
  9
$PLINEWID
 40
0.0
  9
$SPLFRAME
 70
     0
  9
$SPLINETYPE
 70
     6
  9
$SPLINESEGS
 70
     8
  9
$HANDSEED
  5
561
  9
$SURFTAB1
 70
     6
  9
$SURFTAB2
 70
     6
  9
$SURFTYPE
 70
     6
  9
$SURFU
 70
     6
  9
$SURFV
 70
     6
  9
$UCSBASE
  2

  9
$UCSNAME
  2

  9
$UCSORG
 10
0.0
 20
0.0
 30
0.0
  9
$UCSXDIR
 10
1.0
 20
0.0
 30
0.0
  9
$UCSYDIR
 10
0.0
 20
1.0
 30
0.0
  9
$UCSORTHOREF
  2

  9
$UCSORTHOVIEW
 70
     0
  9
$UCSORGTOP
 10
0.0
 20
0.0
 30
0.0
  9
$UCSORGBOTTOM
 10
0.0
 20
0.0
 30
0.0
  9
$UCSORGLEFT
 10
0.0
 20
0.0
 30
0.0
  9
$UCSORGRIGHT
 10
0.0
 20
0.0
 30
0.0
  9
$UCSORGFRONT
 10
0.0
 20
0.0
 30
0.0
  9
$UCSORGBACK
 10
0.0
 20
0.0
 30
0.0
  9
$PUCSBASE
  2

  9
$PUCSNAME
  2

  9
$PUCSORG
 10
0.0
 20
0.0
 30
0.0
  9
$PUCSXDIR
 10
1.0
 20
0.0
 30
0.0
  9
$PUCSYDIR
 10
0.0
 20
1.0
 30
0.0
  9
$PUCSORTHOREF
  2

  9
$PUCSORTHOVIEW
 70
     0
  9
$PUCSORGTOP
 10
0.0
 20
0.0
 30
0.0
  9
$PUCSORGBOTTOM
 10
0.0
 20
0.0
 30
0.0
  9
$PUCSORGLEFT
 10
0.0
 20
0.0
 30
0.0
  9
$PUCSORGRIGHT
 10
0.0
 20
0.0
 30
0.0
  9
$PUCSORGFRONT
 10
0.0
 20
0.0
 30
0.0
  9
$PUCSORGBACK
 10
0.0
 20
0.0
 30
0.0
  9
$USERI1
 70
     0
  9
$USERI2
 70
     0
  9
$USERI3
 70
     0
  9
$USERI4
 70
     0
  9
$USERI5
 70
     0
  9
$USERR1
 40
0.0
  9
$USERR2
 40
0.0
  9
$USERR3
 40
0.0
  9
$USERR4
 40
0.0
  9
$USERR5
 40
0.0
  9
$WORLDVIEW
 70
     1
  9
$SHADEDGE
 70
     3
  9
$SHADEDIF
 70
    70
  9
$TILEMODE
 70
     1
  9
$MAXACTVP
 70
    16
  9
$PINSBASE
 10
0.0
 20
0.0
 30
0.0
  9
$PLIMCHECK
 70
     0
  9
$PEXTMIN
 10
1.000000000000000E+20
 20
1.000000000000000E+20
 30
1.000000000000000E+20
  9
$PEXTMAX
 10
-1.000000000000000E+20
 20
-1.000000000000000E+20
 30
-1.000000000000000E+20
  9
$PLIMMIN
 10
0.0
 20
0.0
  9
$PLIMMAX
 10
12.0
 20
9.0
  9
$UNITMODE
 70
     0
  9
$VISRETAIN
 70
     0
  9
$PLINEGEN
 70
     1
  9
$PSLTSCALE
 70
     0
  9
$TREEDEPTH
 70
  3020
  9
$CMLSTYLE
  2
STANDARD
  9
$CMLJUST
 70
     0
  9
$CMLSCALE
 40
1.0
  9
$PROXYGRAPHICS
 70
     1
  9
$MEASUREMENT
 70
     0
  9
$CELWEIGHT
370
    -1
  9
$ENDCAPS
280
     0
  9
$JOINSTYLE
280
     0
  9
$LWDISPLAY
290
     0
  9
$INSUNITS
 70
     0
  9
$HYPERLINKBASE
  1

  9
$STYLESHEET
  1

  9
$XEDIT
290
     1
  9
$CEPSNTYPE
380
     0
  9
$PSTYLEMODE
290
     1
  9
$FINGERPRINTGUID
  2
{BC1880E3-5524-4E02-9D8C-72DB3B313D56}
  9
$VERSIONGUID
  2
{75677D8B-D94E-4DE2-87C0-5365C1364249}
  9
$EXTNAMES
290
     1
  9
$PSVPSCALE
 40
0.0
  9
$OLESTARTUP
290
     0
  0
ENDSEC
  0
SECTION
  2
CLASSES
  0
CLASS
  1
DICTIONARYVAR
  2
AcDbDictionaryVar
  3
AutoCAD 2000
 90
        0
280
     0
281
     0
  0
CLASS
  1
ACDBDICTIONARYWDFLT
  2
AcDbDictionaryWithDefault
  3
AutoCAD 2000
 90
        0
280
     0
281
     0
  0
CLASS
  1
ACDBPLACEHOLDER
  2
AcDbPlaceHolder
  3
AutoCAD 2000
 90
        0
280
     0
281
     0
  0
CLASS
  1
LAYOUT
  2
AcDbLayout
  3
AutoCAD 2000
 90
        0
280
     0
281
     0
  0
CLASS
  1
AMGSETTINGSOBJ
  2
AmgSettingsObj
  3
"AcadM|Product Description: AutoCAD Mechanical 2000|Company: Autodesk"
 90
        0
280
     0
281
     0
  0
CLASS
  1
ACME_DOCUMENT
  2
AcMeDbDoc
  3
AcMeServices
 90
        0
280
     0
281
     0
  0
CLASS
  1
ACMESCOPE
  2
AcMeScope
  3
AcMeServices
 90
        0
280
     0
281
     0
  0
CLASS
  1
ACMECOMMANDHISTORY
  2
AcMeCommandHistory
  3
AcMeServices
 90
        0
280
     0
281
     0
  0
CLASS
  1
ACIMSYSVARMAN
  2
AcImSysVarManager
  3
AcMeServices
 90
        0
280
     0
281
     0
  0
CLASS
  1
ACIMREALSYSVAR
  2
AcImRealSysVar
  3
AcMeServices
 90
        0
280
     0
281
     0
  0
CLASS
  1
ACIMINTSYSVAR
  2
AcImIntSysVar
  3
AcMeServices
 90
        0
280
     0
281
     0
  0
CLASS
  1
ACMEDRAWINGMAN
  2
AcMeDrawingMan
  3
AcMeServices
 90
        0
280
     0
281
     0
  0
CLASS
  1
ACMEVIEW
  2
AcMeView
  3
AcMeServices
 90
        0
280
     0
281
     0
  0
CLASS
  1
ACDBENTITYCACHE
  2
AcMeEntityCache
  3
AcMeServices
 90
        0
280
     0
281
     0
  0
CLASS
  1
GSMANAGER
  2
AcMeGSManager
  3
AcMeServices
 90
        0
280
     0
281
     0
  0
CLASS
  1
AMDTINTERNALREACTOR
  2
AmdtInternalReactor
  3
AcMeServices
 90
        0
280
     0
281
     0
  0
CLASS
  1
ACMESTATEMGR
  2
AcMeStateMgr
  3
AcMeServices
 90
        0
280
     0
281
     0
  0
CLASS
  1
ACGREFMASTER
  2
AcGrefMaster
  3
AcAttribServices
 90
        0
280
     0
281
     0
  0
CLASS
  1
AM_DRAWING_MGR
  2
AcDmDwgMgr
  3
AcMechDwgViewMgmt
 90
        0
280
     0
281
     0
  0
CLASS
  1
AM_DWG_DOCUMENT
  2
AcDmDwgDocument
  3
AcMechDwgViewMgmt
 90
        0
280
     0
281
     0
  0
CLASS
  1
AM_DWG_SHEET
  2
AcDmSheet
  3
AcMechDwgViewMgmt
 90
        0
280
     0
281
     0
  0
CLASS
  1
AM_VIEWDIMPARMAP
  2
AcDmViewDimParMap
  3
AcMechDwgViewMgmt
 90
        0
280
     0
281
     0
  0
CLASS
  1
AM_DWGMGR_NAME
  2
AcDmDwgMgrName
  3
AcMechDwgViewMgmt
 90
        0
280
     0
281
     0
  0
CLASS
  1
ACME_DATABASE
  2
AcMeDbDatabase
  3
AcMeServices
 90
        0
280
     0
281
     0
  0
CLASS
  1
ACRFINSADJUSTERMGR
  2
AcRfInsAdjusterMgr
  3
AcMeServices
 90
        0
280
     0
281
     0
  0
CLASS
  1
ACGREFACADMASTER
  2
AcGrefacadMaster
  3
AcGrefServices
 90
        0
280
     0
281
     0
  0
CLASS
  1
AMDTMENUSTATEMGR
  2
AmdtMenuStateMgr
  3
McadcomServices
 90
        0
280
     0
281
     0
  0
CLASS
  1
AMDTMCOMMENUSTATE
  2
AmdtMcomMenuState
  3
McadcomServices
 90
        0
280
     0
281
     0
  0
CLASS
  1
AMIMASTER
  2
AmiMaster
  3
AmiServices
 90
        0
280
     0
281
     0
  0
CLASS
  1
ASAPP
  2
AcAsAppObject
  3
AutoSurfServices
 90
        0
280
     0
281
     0
  0
CLASS
  1
IM_STATIC_MAN
  2
AcImStaticVarManager
  3
AcMeServices
 90
        0
280
     0
281
     0
  0
CLASS
  1
ACIMSTRSYSVAR
  2
AcImStrSysVar
  3
AcMeServices
 90
        0
280
     0
281
     0
  0
CLASS
  1
ACIMDBLSTATICVAR
  2
AcImDblStaticVar
  3
AcMeServices
 90
        0
280
     0
281
     0
  0
CLASS
  1
ACIMSTRSTATICVAR
  2
AcImStrStaticVar
  3
AcMeServices
 90
        0
280
     0
281
     0
  0
CLASS
  1
ACIMINTSTATICVAR
  2
AcImIntStaticVar
  3
AcMeServices
 90
        0
280
     0
281
     0
  0
CLASS
  1
ACASGREFMASTER
  2
AcAsGrefMaster
  3
AutoSurfResolverServices
 90
        0
280
     0
281
     0
  0
CLASS
  1
ACADGREFMODULE
  2
AcAdGrefModule
  3
AdGrefServices
 90
        0
280
     0
281
     0
  0
CLASS
  1
AMDTMAPISURFMOUDULE
  2
AmdtMApiSurfModule
  3
MApiSurfServices
 90
        0
280
     0
281
     0
  0
CLASS
  1
MAPIAMMOUDLE
  2
MApiAmModule
  3
MApiAmServices
 90
        0
280
     0
281
     0
  0
CLASS
  1
AMDTADMENUSTATE
  2
AmdtAdMenuState
  3
DesignerServices
 90
        0
280
     0
281
     0
  0
CLASS
  1
ADAPPL
  2
AcAdAppl
  3
DesignerServices
 90
        0
280
     0
281
     0
  0
CLASS
  1
DEPMGR
  2
AcAdDepMgr
  3
DesignerServices
 90
        0
280
     0
281
     0
  0
CLASS
  1
PARAMMGR
  2
AcAdParamMgr
  3
DesignerServices
 90
        0
280
     0
281
     0
  0
CLASS
  1
PARAMSCOPE
  2
AcAdParamScope
  3
DesignerServices
 90
        0
280
     0
281
     0
  0
CLASS
  1
NAMEDAPPL
  2
AcAdNamedAppl
  3
DesignerServices
 90
        0
280
     0
281
     0
  0
CLASS
  1
AMDTDMMENUSTATE
  2
AmdtDmMenuState
  3
AcMechDwgViewMgmt
 90
        0
280
     0
281
     0
  0
CLASS
  1
MAPIADMODULE
  2
MApiAdModule
  3
MApiAdServices
 90
        0
280
     0
281
     0
  0
CLASS
  1
AMDTAMMENUSTATE
  2
AmdtAmMenuState
  3
DesignerAssemblies
 90
        0
280
     0
281
     0
  0
CLASS
  1
ACAMPROJECT
  2
AcAmProject
  3
DesignerAssemblies
 90
        0
280
     0
281
     0
  0
CLASS
  1
ACAMGRCOMPDEF
  2
AcAmGrCompDef
  3
DesignerAssemblies
 90
        0
280
     0
281
     0
  0
CLASS
  1
ACCMCONTEXT
  2
AcCmContext
  3
DesignerAssemblies
 90
        0
280
     0
281
     0
  0
CLASS
  1
ACAMCOMPDEF
  2
AcAmCompDef
  3
DesignerAssemblies
 90
        0
280
     0
281
     0
  0
CLASS
  1
ACAMCOMPDEFMGR
  2
AcAmCompDefMgr
  3
DesignerAssemblies
 90
        0
280
     0
281
     0
  0
CLASS
  1
AMCONTEXTMGR
  2
AcAmContextMgr
  3
DesignerAssemblies
 90
        0
280
     0
281
     0
  0
CLASS
  1
ACAMCONTEXTMODELER
  2
AcAmContextModeler
  3
DesignerAssemblies
 90
        0
280
     0
281
     0
  0
CLASS
  1
ACMDATADICTIONARY
  2
AcmDataDictionary
  3
"AcmSymBB|Product Description: AutoCAD Mechanical 2000|Company: Autodesk"
 90
        0
280
     0
281
     0
  0
CLASS
  1
ACMDATAENTRYBLOCK
  2
AcmDataEntryBlock
  3
"AcmSymBB|Product Description: AutoCAD Mechanical 2000|Company: Autodesk"
 90
        0
280
     0
281
     0
  0
CLASS
  1
CATALOGSTATE
  2
AcAmCatalogState
  3
DesignerAssemblies
 90
        0
280
     0
281
     0
  0
CLASS
  1
ACAMGRCOMPDEFSET
  2
AcAmGrCompDefSet
  3
DesignerAssemblies
 90
        0
280
     0
281
     0
  0
CLASS
  1
AMDTBROWSERDBTAB
  2
AmdtBrowserDbTab
  3
McadcomServices
 90
        0
280
     0
281
     0
  0
CLASS
  1
CBROWSERAPPOBJECT
  2
CBrowserAppObject
  3
McadcomServices
 90
        0
280
     0
281
     0
  0
CLASS
  1
DM_PLACEHOLDER
  2
AcDmSelsetPlaceholder
  3
AcMechDwgViewMgmt
 90
        0
280
     0
281
     0
  0
CLASS
  1
AMGOBJPROPCFG
  2
AmgObjPropCfg
  3
"AmgLay|Product Description: AutoCAD Mechanical 2000|Company: Autodesk"
 90
        1
280
     0
281
     0
  0
CLASS
  1
ACAMGFILTERDAT
  2
AcAmgFilterDat
  3
"AcadM|Product Description: AutoCAD Mechanical 2000|Company: Autodesk"
 90
        0
280
     0
281
     0
  0
CLASS
  1
ACMSTANDARDISO
  2
AcmStandardISO
  3
"Amdt_StdImp|Product Description: AutoCAD Mechanical 2000|Company: Autodesk"
 90
        0
280
     0
281
     0
  0
CLASS
  1
AMDTEDGESTANDARDISO
  2
AmdtEdgeStdISO
  3
"Amdt_StdImp|Product Description: AutoCAD Mechanical 2000|Company: Autodesk"
 90
        0
280
     0
281
     0
  0
CLASS
  1
ACMSURFSTANDARDISO
  2
AcmSurfTextStdISO
  3
"Amdt_StdImp|Product Description: AutoCAD Mechanical 2000|Company: Autodesk"
 90
        0
280
     0
281
     0
  0
CLASS
  1
ACMFCFSTANDARDISO
  2
AcmFCFStdISO
  3
"Amdt_StdImp|Product Description: AutoCAD Mechanical 2000|Company: Autodesk"
 90
        0
280
     0
281
     0
  0
CLASS
  1
ACMWELDSTANDARDISO
  2
AcmWeldingStdISO
  3
"Amdt_StdImp|Product Description: AutoCAD Mechanical 2000|Company: Autodesk"
 90
        0
280
     0
281
     0
  0
CLASS
  1
ACMIDSTANDARDISO
  2
AcmIdStdISO
  3
"Amdt_StdImp|Product Description: AutoCAD Mechanical 2000|Company: Autodesk"
 90
        0
280
     0
281
     0
  0
CLASS
  1
ACMDATUMSTANDARDISO
  2
AcmDatumStdISO
  3
"Amdt_StdImp|Product Description: AutoCAD Mechanical 2000|Company: Autodesk"
 90
        0
280
     0
281
     0
  0
CLASS
  1
ACMBOMSTANDARDISO
  2
AcmBOMStdISO
  3
"Amdt_StdImp|Product Description: AutoCAD Mechanical 2000|Company: Autodesk"
 90
        0
280
     0
281
     0
  0
CLASS
  1
ACMDETAILSTANDARDISO
  2
AmdtDetailSymStdISO
  3
"Amdt_StdImp|Product Description: AutoCAD Mechanical 2000|Company: Autodesk"
 90
        0
280
     0
281
     0
  0
CLASS
  1
ACMSECTIONSTANDARDISO
  2
AmdtSectionSymStdISO
  3
"Amdt_StdImp|Product Description: AutoCAD Mechanical 2000|Company: Autodesk"
 90
        0
280
     0
281
     0
  0
CLASS
  1
ACMCENTERLINESTANDARDISO
  2
AmdtCenterLineStdISO
  3
"Amdt_StdImp|Product Description: AutoCAD Mechanical 2000|Company: Autodesk"
 90
        0
280
     0
281
     0
  0
CLASS
  1
ACMTHREADLINESTANDARDISO
  2
AmdtThreadLineStdISO
  3
"Amdt_StdImp|Product Description: AutoCAD Mechanical 2000|Company: Autodesk"
 90
        0
280
     0
281
     0
  0
CLASS
  1
ACMNOTESTANDARDISO
  2
AmdtNoteStdISO
  3
"Amdt_StdImp|Product Description: AutoCAD Mechanical 2000|Company: Autodesk"
 90
        0
280
     0
281
     0
  0
CLASS
  1
ACAMGLAYSTD
  2
AcAmgLayStd
  3
"AcAmgLayStd|Product Description: AutoCAD Mechanical 2000|Company: Autodesk"
 90
        0
280
     0
281
     0
  0
CLASS
  1
ACAMGDIMSTD
  2
AcAmgDimStd
  3
"AcAmgDimStd|Product Description: AutoCAD Mechanical 2000|Company: Autodesk"
 90
        0
280
     0
281
     0
  0
CLASS
  1
ACAMGHOLECHARTSTDISO
  2
AcAmgHoleChartStdISO
  3
ACMSYMBB_MODULE_NAME
 90
        0
280
     0
281
     0
  0
CLASS
  1
ACAMGTITLESTD
  2
AcAmgTitleStd
  3
"TITLEAPP"
 90
        0
280
     0
281
     0
  0
CLASS
  1
AMDTFORMULAUPDATEDISPATCHER
  2
AmdtFormulaUpdateDispatcher
  3
AcMeServices
 90
        0
280
     0
281
     0
  0
CLASS
  1
LAYER_INDEX
  2
AcDbLayerIndex
  3
AutoCAD 2000
 90
        0
280
     0
281
     0
  0
CLASS
  1
IDBUFFER
  2
AcDbIdBuffer
  3
AutoCAD 2000
 90
        0
280
     0
281
     0
  0
ENDSEC
  0
SECTION
  2
TABLES
  0
TABLE
  2
VPORT
  5
186
330
0
100
AcDbSymbolTable
 70
     3
  0
VPORT
  5
560
330
186
100
AcDbSymbolTableRecord
100
AcDbViewportTableRecord
  2
*Active
 70
     0
 10
0.0
 20
0.0
 11
1.0
 21
1.0
 12
0.0
 22
0.0
 13
0.0
 23
0.0
 14
10.0
 24
10.0
 15
10.0
 25
10.0
 16
0.0
 26
0.0
 36
1.0
 17
294.6125919498794
 27
197.7634529999999
 37
0.0
 40
395.5437949909504
 41
1.489721886336154
 42
50.0
 43
0.0
 44
0.0
 50
0.0
 51
0.0
 71
     0
 72
 20000
 73
     1
 74
     1
 75
     0
 76
     0
 77
     0
 78
     2
281
     0
 65
     0
110
0.0
120
0.0
130
0.0
111
1.0
121
0.0
131
0.0
112
0.0
122
1.0
132
0.0
 79
     0
146
0.0
  0
ENDTAB
  0
TABLE
  2
LTYPE
  5
183
330
0
100
AcDbSymbolTable
 70
    21
  0
LTYPE
  5
18F
330
183
100
AcDbSymbolTableRecord
100
AcDbLinetypeTableRecord
  2
BYBLOCK
 70
     0
  3

 72
    65
 73
     0
 40
0.0
  0
LTYPE
  5
190
330
183
100
AcDbSymbolTableRecord
100
AcDbLinetypeTableRecord
  2
BYLAYER
 70
     0
  3

 72
    65
 73
     0
 40
0.0
  0
LTYPE
  5
191
330
183
100
AcDbSymbolTableRecord
100
AcDbLinetypeTableRecord
  2
CONTINUOUS
 70
     0
  3
実線
 72
    65
 73
     0
 40
0.0
  0
LTYPE
  5
1A0
330
183
100
AcDbSymbolTableRecord
100
AcDbLinetypeTableRecord
  2
CENTER
 70
     0
  3
____ _ ____ _ ____ _ ____ _ ____ _ ____ _ ____
 72
    65
 73
     4
 40
2.0
 49
1.25
 74
     0
 49
-0.25
 74
     0
 49
0.25
 74
     0
 49
-0.25
 74
     0
  0
LTYPE
  5
1A1
330
183
100
AcDbSymbolTableRecord
100
AcDbLinetypeTableRecord
  2
HIDDEN
 70
     0
  3
_ _ _ _ _ _ _ _ _ _ _ _ _ _ _ _ _ _ _ _ _ _ _
 72
    65
 73
     2
 40
0.375
 49
0.25
 74
     0
 49
-0.125
 74
     0
  0
LTYPE
  5
1E8
330
183
100
AcDbSymbolTableRecord
100
AcDbLinetypeTableRecord
  2
PHANTOM2
 70
     0
  3
Phantom (.5x) ___ _ _ ___ _ _ ___ _ _ ___ _ _
 72
    65
 73
     6
 40
1.25
 49
0.625
 74
     0
 49
-0.125
 74
     0
 49
0.125
 74
     0
 49
-0.125
 74
     0
 49
0.125
 74
     0
 49
-0.125
 74
     0
  0
LTYPE
  5
24A
330
183
100
AcDbSymbolTableRecord
100
AcDbLinetypeTableRecord
  2
ASULTYPE
 70
     0
  3
実線
 72
    65
 73
     2
 40
3.0
 49
2.5
 74
     0
 49
0.5
 74
     0
  0
LTYPE
  5
24B
330
183
100
AcDbSymbolTableRecord
100
AcDbLinetypeTableRecord
  2
ASVLTYPE
 70
     0
  3
__ __ __ __ __ __ __ __ __ __ __ __ __ __ __ __ __ __ __ __ __
 72
    65
 73
     2
 40
0.75
 49
0.5
 74
     0
 49
-0.25
 74
     0
  0
LTYPE
  5
28C
330
183
100
AcDbSymbolTableRecord
100
AcDbLinetypeTableRecord
  2
AM_ISO02W050
 70
     0
  3
__ __ __ __ __ __ __ __ __ __ __ __ __ __ __
 72
    65
 73
     2
 40
7.5
 49
6.0
 74
     0
 49
-1.5
 74
     0
  0
LTYPE
  5
28D
330
183
100
AcDbSymbolTableRecord
100
AcDbLinetypeTableRecord
  2
AM_ISO08W050
 70
     0
  3
____ . ____ . ____ . ____ . ____ . ____ . ____
 72
    65
 73
     4
 40
18.0
 49
12.0
 74
     0
 49
-1.5
 74
     0
 49
3.0
 74
     0
 49
-1.5
 74
     0
  0
LTYPE
  5
28E
330
183
100
AcDbSymbolTableRecord
100
AcDbLinetypeTableRecord
  2
AM_ISO09W050
 70
     0
  3
_____ . . _____ . . _____ . . ____ .. ____
 72
    65
 73
     6
 40
22.5
 49
12.0
 74
     0
 49
-1.5
 74
     0
 49
3.0
 74
     0
 49
-1.5
 74
     0
 49
3.0
 74
     0
 49
-1.5
 74
     0
  0
LTYPE
  5
28F
330
183
100
AcDbSymbolTableRecord
100
AcDbLinetypeTableRecord
  2
Amconstr
 70
     0
  3
_______________________
 72
    65
 73
     2
 40
9999.0
 49
9999.0
 74
     0
 49
0.0
 74
     0
  0
LTYPE
  5
290
330
183
100
AcDbSymbolTableRecord
100
AcDbLinetypeTableRecord
  2
AM_ISO08W050x2
 70
     0
  3
__ . __ . __ . __ . __ . __
 72
    65
 73
     4
 40
9.0
 49
6.0
 74
     0
 49
-0.75
 74
     0
 49
1.5
 74
     0
 49
-0.75
 74
     0
  0
LTYPE
  5
291
330
183
100
AcDbSymbolTableRecord
100
AcDbLinetypeTableRecord
  2
AM_ISO02W050x2
 70
     0
  3
 _ _ _ _ _ _ _ _ _ _ _ _
 72
    65
 73
     2
 40
3.75
 49
3.0
 74
     0
 49
-0.75
 74
     0
  0
LTYPE
  5
294
330
183
100
AcDbSymbolTableRecord
100
AcDbLinetypeTableRecord
  2
Amzigzag
 70
     0
  3
/\/-/\/-/\/-/\/-/\/-/\/
 72
    65
 73
     2
 40
11.00009999999999
 49
0.0001
 74
     4
 75
   135
340
293
 46
0.04
 50
0.0
 44
0.0
 45
0.0
 49
-11.0
 74
     0
  0
LTYPE
  5
295
330
183
100
AcDbSymbolTableRecord
100
AcDbLinetypeTableRecord
  2
CENTER2
 70
     0
  3
Center (.5x) ___ _ ___ _ ___ _ ___ _ ___ _ ___
 72
    65
 73
     4
 40
1.125
 49
0.75
 74
     0
 49
-0.125
 74
     0
 49
0.125
 74
     0
 49
-0.125
 74
     0
  0
LTYPE
  5
296
330
183
100
AcDbSymbolTableRecord
100
AcDbLinetypeTableRecord
  2
HIDDEN2
 70
     0
  3
Hidden (.5x) _ _ _ _ _ _ _ _ _ _ _ _ _ _ _ _ _
 72
    65
 73
     2
 40
0.1875
 49
0.125
 74
     0
 49
-0.0625
 74
     0
  0
LTYPE
  5
297
330
183
100
AcDbSymbolTableRecord
100
AcDbLinetypeTableRecord
  2
Amzigzag2
 70
     0
  3
/\/-/\/-/\/-/\/-/\/-/\/
 72
    65
 73
     2
 40
0.4401
 49
0.0001
 74
     4
 75
   135
340
293
 46
0.0016
 50
0.0
 44
0.0
 45
0.0
 49
-0.4400000000000001
 74
     0
  0
LTYPE
  5
30B
330
183
100
AcDbSymbolTableRecord
100
AcDbLinetypeTableRecord
  2
TENSEN
 70
     0
  3

 72
    65
 73
     2
 40
4.0
 49
3.0
 74
     0
 49
-1.0
 74
     0
  0
LTYPE
  5
30C
330
183
100
AcDbSymbolTableRecord
100
AcDbLinetypeTableRecord
  2
ITTEN1
 70
     0
  3

 72
    65
 73
     4
 40
8.199999999999999
 49
5.0
 74
     0
 49
-1.0
 74
     0
 49
1.199999999999999
 74
     0
 49
-1.0
 74
     0
  0
LTYPE
  5
30D
330
183
100
AcDbSymbolTableRecord
100
AcDbLinetypeTableRecord
  2
ACISOWELD
 70
     0
  3
_ _ _ _ _
 72
    65
 73
     2
 40
2.0
 49
2.0
 74
     0
 49
-1.0
 74
     0
  0
LTYPE
  5
30E
330
183
100
AcDbSymbolTableRecord
100
AcDbLinetypeTableRecord
  2
ACISOTGB
 70
     0
  3
__ . . __ . .
 72
    65
 73
     6
 40
9.0
 49
4.0
 74
     0
 49
-1.0
 74
     0
 49
1.0
 74
     0
 49
-1.0
 74
     0
 49
1.0
 74
     0
 49
-1.0
 74
     0
  0
LTYPE
  5
30F
330
183
100
AcDbSymbolTableRecord
100
AcDbLinetypeTableRecord
  2
ACISOTGL
 70
     0
  3
_ _ _ _ _
 72
    65
 73
     2
 40
3.0
 49
2.0
 74
     0
 49
-1.0
 74
     0
  0
ENDTAB
  0
TABLE
  2
LAYER
  5
180
330
0
100
AcDbSymbolTable
 70
     8
  0
LAYER
  5
18C
330
180
100
AcDbSymbolTableRecord
100
AcDbLayerTableRecord
  2
0
 70
     0
 62
     7
  6
CONTINUOUS
370
    -3
390
1BE
  0
LAYER
  5
1A5
330
180
100
AcDbSymbolTableRecord
100
AcDbLayerTableRecord
  2
1
 70
     0
 62
     1
  6
CENTER
370
    -3
390
1BE
  0
LAYER
  5
1A6
330
180
100
AcDbSymbolTableRecord
100
AcDbLayerTableRecord
  2
3
 70
     0
 62
     7
  6
CONTINUOUS
370
    -3
390
1BE
  0
LAYER
  5
1A7
330
180
100
AcDbSymbolTableRecord
100
AcDbLayerTableRecord
  2
4
 70
     0
 62
     4
  6
CONTINUOUS
370
    -3
390
1BE
  0
LAYER
  5
1A8
330
180
100
AcDbSymbolTableRecord
100
AcDbLayerTableRecord
  2
10
 70
     0
 62
     7
  6
CONTINUOUS
370
    -3
390
1BE
  0
LAYER
  5
1A9
330
180
100
AcDbSymbolTableRecord
100
AcDbLayerTableRecord
  2
11
 70
     0
 62
     7
  6
CONTINUOUS
370
    -3
390
1BE
  0
LAYER
  5
1AA
330
180
100
AcDbSymbolTableRecord
100
AcDbLayerTableRecord
  2
2
 70
     0
 62
     7
  6
HIDDEN
370
    -3
390
1BE
  0
LAYER
  5
310
330
180
100
AcDbSymbolTableRecord
100
AcDbLayerTableRecord
  2
DEFPOINTS
 70
     0
 62
     7
  6
CONTINUOUS
290
     0
370
    -3
390
1BE
  0
ENDTAB
  0
TABLE
  2
STYLE
  5
181
330
0
100
AcDbSymbolTable
 70
     7
  0
STYLE
  5
18D
330
181
100
AcDbSymbolTableRecord
100
AcDbTextStyleTableRecord
  2
STANDARD
 70
     0
 40
6.0
 41
1.0
 50
0.0
 71
     0
 42
0.2
  3
TXT.shx
  4
extfont.shx
  0
STYLE
  5
19D
330
181
100
AcDbSymbolTableRecord
100
AcDbTextStyleTableRecord
  2
K80
 70
     0
 40
0.0
 41
0.8
 50
0.0
 71
     0
 42
0.2
  3
TXT
  4
bigfont.shx
  0
STYLE
  5
19E
330
181
100
AcDbSymbolTableRecord
100
AcDbTextStyleTableRecord
  2
07500
 70
     0
 40
0.0
 41
0.75
 50
0.0
 71
     0
 42
0.2
  3
TXT
  4
bigfont.shx
  0
STYLE
  5
19F
330
181
100
AcDbSymbolTableRecord
100
AcDbTextStyleTableRecord
  2
BIGFONT
 70
     0
 40
15.0
 41
0.8
 50
0.0
 71
     0
 42
15.0
  3

  4
bigfont.shx
  0
STYLE
  5
293
330
181
100
AcDbSymbolTableRecord
100
AcDbTextStyleTableRecord
  2

 70
     1
 40
0.0
 41
1.0
 50
0.0
 71
     0
 42
15.0
  3
ltypeshp.shx
  4

  0
STYLE
  5
311
330
181
100
AcDbSymbolTableRecord
100
AcDbTextStyleTableRecord
  2
ACISOTS
 70
     0
 40
1.0
 41
1.0
 50
0.0
 71
     0
 42
5.0
  3
isocp.shx
  4
extfont.shx
  0
STYLE
  5
312
330
181
100
AcDbSymbolTableRecord
100
AcDbTextStyleTableRecord
  2
ACISOGDT
 70
     0
 40
0.0
 41
1.0
 50
0.0
 71
     0
 42
5.0
  3
amgdt.shx
  4

  0
ENDTAB
  0
TABLE
  2
VIEW
  5
184
330
0
100
AcDbSymbolTable
 70
     1
  0
VIEW
  5
1A2
330
184
100
AcDbSymbolTableRecord
100
AcDbViewTableRecord
  2
ALL
 70
     0
 40
810.0
 10
662.9747899999999
 20
405.0
 41
0.0
 11
0.0
 21
0.0
 31
1.0
 12
0.0
 22
0.0
 32
0.0
 42
50.0
 43
0.0
 44
0.0
 50
0.0
 71
     0
281
     0
 72
     0
  0
ENDTAB
  0
TABLE
  2
UCS
  5
185
330
0
100
AcDbSymbolTable
 70
     0
  0
ENDTAB
  0
TABLE
  2
APPID
  5
187
330
0
100
AcDbSymbolTable
 70
    12
  0
APPID
  5
18E
330
187
100
AcDbSymbolTableRecord
100
AcDbRegAppTableRecord
  2
ACAD
 70
     0
  0
APPID
  5
1C7
330
187
100
AcDbSymbolTableRecord
100
AcDbRegAppTableRecord
  2
GENIUS_GENDIM_13
 70
     0
  0
APPID
  5
1C8
330
187
100
AcDbSymbolTableRecord
100
AcDbRegAppTableRecord
  2
GENIUS_GENDTOL_13
 70
     0
  0
APPID
  5
1C9
330
187
100
AcDbSymbolTableRecord
100
AcDbRegAppTableRecord
  2
GENIUS_GE3DTOL_13
 70
     0
  0
APPID
  5
1CB
330
187
100
AcDbSymbolTableRecord
100
AcDbRegAppTableRecord
  2
MCAD_NO_VIS
 70
     0
  0
APPID
  5
1CC
330
187
100
AcDbSymbolTableRecord
100
AcDbRegAppTableRecord
  2
ACAD_TEMP_GRAPHIC
 70
     0
  0
APPID
  5
1FD
330
187
100
AcDbSymbolTableRecord
100
AcDbRegAppTableRecord
  2
AD_DRAW
 70
     0
  0
APPID
  5
200
330
187
100
AcDbSymbolTableRecord
100
AcDbRegAppTableRecord
  2
ACATTRIBSERVICES
 70
     0
  0
APPID
  5
24C
330
187
100
AcDbSymbolTableRecord
100
AcDbRegAppTableRecord
  2
ASURF_PCURVE_APPNAME
 70
     0
  0
APPID
  5
27B
330
187
100
AcDbSymbolTableRecord
100
AcDbRegAppTableRecord
  2
DESIGNERASSEMBLIES
 70
     0
  0
APPID
  5
283
330
187
100
AcDbSymbolTableRecord
100
AcDbRegAppTableRecord
  2
ACADM_DIM_EDIT
 70
     0
  0
APPID
  5
284
330
187
100
AcDbSymbolTableRecord
100
AcDbRegAppTableRecord
  2
AMDT_DM_ADJ
 70
     0
  0
ENDTAB
  0
TABLE
  2
DIMSTYLE
  5
188
330
0
100
AcDbSymbolTable
 70
     8
100
AcDbDimStyleTable
 71
     1
340
1A4
  0
DIMSTYLE
105
1A4
330
188
100
AcDbSymbolTableRecord
100
AcDbDimStyleTableRecord
  2
STANDARD
 70
     0
340
19F
  0
DIMSTYLE
105
313
330
188
100
AcDbSymbolTableRecord
100
AcDbDimStyleTableRecord
  2
AM_ISO
 70
     0
  4
"
 41
2.5
 42
1.0
 43
10.0
 44
1.0
 47
0.1
 48
0.1
 73
     0
 74
     0
 77
     1
 78
     8
 79
     2
140
3.5
141
0.0
143
0.0393701
146
0.71
147
1.5
172
     1
176
   256
177
   256
178
     2
271
     2
272
     3
274
     4
283
     0
284
     8
340
18D
371
    -1
372
    -1
  0
DIMSTYLE
105
314
330
188
100
AcDbSymbolTableRecord
100
AcDbDimStyleTableRecord
  2
AM_ISO$3
 70
     0
  4
"
 41
2.5
 42
1.0
 43
10.0
 44
1.0
 47
0.1
 48
0.1
 73
     0
 77
     1
 78
     8
 79
     2
140
3.5
141
0.0
143
0.0393701
146
0.71
147
1.5
176
   256
177
   256
178
     2
271
     2
272
     3
274
     4
283
     0
284
     8
288
     1
289
     0
340
18D
371
    -1
372
    -1
  0
DIMSTYLE
105
315
330
188
100
AcDbSymbolTableRecord
100
AcDbDimStyleTableRecord
  2
AM_ISO$4
 70
     0
  4
"
 41
2.5
 42
1.0
 43
10.0
 44
1.0
 47
0.1
 48
0.1
 73
     0
 77
     1
 78
     8
 79
     2
140
3.5
141
0.0
143
0.0393701
146
0.71
147
1.5
176
   256
177
   256
178
     2
271
     2
272
     3
274
     4
283
     0
284
     8
288
     1
289
     0
340
18D
371
    -1
372
    -1
  0
DIMSTYLE
105
316
330
188
100
AcDbSymbolTableRecord
100
AcDbDimStyleTableRecord
  2
AM_ISO$6
 70
     0
  4
"
 41
2.5
 42
1.0
 43
10.0
 44
1.0
 47
0.1
 48
0.1
 73
     0
 74
     0
 78
     8
 79
     2
140
3.5
141
0.0
143
0.0393701
146
0.71
147
1.5
172
     1
176
   256
177
   256
178
     2
271
     2
272
     3
274
     4
283
     0
284
     8
340
18D
371
    -1
372
    -1
  0
DIMSTYLE
105
317
330
188
100
AcDbSymbolTableRecord
100
AcDbDimStyleTableRecord
  2
AM_ISO$7
 70
     0
  4
"
 41
2.5
 42
1.0
 43
10.0
 44
1.0
 47
0.1
 48
0.1
 73
     0
 74
     0
 77
     1
 78
     8
 79
     2
140
5.0
141
0.0
143
0.0393701
146
0.71
147
1.5
172
     1
176
   256
177
   256
178
     2
271
     2
272
     3
274
     4
283
     0
284
     8
340
18D
371
    -1
372
    -1
  0
DIMSTYLE
105
318
330
188
100
AcDbSymbolTableRecord
100
AcDbDimStyleTableRecord
  2
AM_ISO$SF
 70
     0
  4
"
 41
2.5
 42
1.0
 43
10.0
 44
1.0
 47
0.1
 48
0.1
 73
     0
 74
     0
 75
     1
 76
     1
 77
     1
 78
     8
 79
     2
140
3.5
141
0.0
143
0.0393701
146
0.71
147
1.5
172
     1
176
   256
177
   256
178
     2
271
     2
272
     3
274
     4
283
     0
284
     8
340
18D
371
    -1
372
    -1
  0
DIMSTYLE
105
319
330
188
100
AcDbSymbolTableRecord
100
AcDbDimStyleTableRecord
  2
AM_ISO$SH
 70
     0
  4
"
 41
2.5
 42
1.0
 43
10.0
 44
1.0
 47
0.1
 48
0.1
 73
     0
 74
     0
 75
     1
 76
     1
 77
     1
 78
     8
 79
     2
140
3.5
141
0.0
143
0.0393701
144
2.0
146
0.71
147
1.5
172
     1
173
     1
176
   256
177
   256
178
     2
271
     2
272
     3
274
     4
283
     0
284
     8
340
18D
343
2D7
371
    -1
372
    -1
  0
ENDTAB
  0
TABLE
  2
BLOCK_RECORD
  5
17F
330
0
100
AcDbSymbolTable
 70
    22
  0
BLOCK_RECORD
  5
195
102
{ACAD_XDICTIONARY
360
553
102
}
330
17F
100
AcDbSymbolTableRecord
100
AcDbBlockTableRecord
  2
*MODEL_SPACE
340
1C1
  0
BLOCK_RECORD
  5
192
330
17F
100
AcDbSymbolTableRecord
100
AcDbBlockTableRecord
  2
*PAPER_SPACE
340
1C2
  0
BLOCK_RECORD
  5
19A
330
17F
100
AcDbSymbolTableRecord
100
AcDbBlockTableRecord
  2
WAKU
340
0
  0
BLOCK_RECORD
  5
19B
330
17F
100
AcDbSymbolTableRecord
100
AcDbBlockTableRecord
  2
Z
340
0
  0
BLOCK_RECORD
  5
19C
330
17F
100
AcDbSymbolTableRecord
100
AcDbBlockTableRecord
  2
QQ
340
0
  0
BLOCK_RECORD
  5
272
330
17F
100
AcDbSymbolTableRecord
100
AcDbBlockTableRecord
  2
*U3
340
0
  0
BLOCK_RECORD
  5
2A3
330
17F
100
AcDbSymbolTableRecord
100
AcDbBlockTableRecord
  2
*D4
340
0
  0
BLOCK_RECORD
  5
2B0
330
17F
100
AcDbSymbolTableRecord
100
AcDbBlockTableRecord
  2
*D5
340
0
  0
BLOCK_RECORD
  5
2BD
330
17F
100
AcDbSymbolTableRecord
100
AcDbBlockTableRecord
  2
*D6
340
0
  0
BLOCK_RECORD
  5
2CA
330
17F
100
AcDbSymbolTableRecord
100
AcDbBlockTableRecord
  2
*D7
340
0
  0
BLOCK_RECORD
  5
2D7
330
17F
100
AcDbSymbolTableRecord
100
AcDbBlockTableRecord
  2
GENAXEH
340
0
  0
BLOCK_RECORD
  5
2DB
330
17F
100
AcDbSymbolTableRecord
100
AcDbBlockTableRecord
  2
*D9
340
0
  0
BLOCK_RECORD
  5
2E8
330
17F
100
AcDbSymbolTableRecord
100
AcDbBlockTableRecord
  2
*D10
340
0
  0
BLOCK_RECORD
  5
2F1
330
17F
100
AcDbSymbolTableRecord
100
AcDbBlockTableRecord
  2
*D11
340
0
  0
BLOCK_RECORD
  5
2FE
330
17F
100
AcDbSymbolTableRecord
100
AcDbBlockTableRecord
  2
*D12
340
0
  0
BLOCK_RECORD
  5
462
330
17F
100
AcDbSymbolTableRecord
100
AcDbBlockTableRecord
  2
*D14
340
0
  0
BLOCK_RECORD
  5
46F
330
17F
100
AcDbSymbolTableRecord
100
AcDbBlockTableRecord
  2
*D15
340
0
  0
BLOCK_RECORD
  5
478
330
17F
100
AcDbSymbolTableRecord
100
AcDbBlockTableRecord
  2
*D16
340
0
  0
BLOCK_RECORD
  5
485
330
17F
100
AcDbSymbolTableRecord
100
AcDbBlockTableRecord
  2
*D17
340
0
  0
BLOCK_RECORD
  5
491
330
17F
100
AcDbSymbolTableRecord
100
AcDbBlockTableRecord
  2
*D18
340
0
  0
BLOCK_RECORD
  5
49D
330
17F
100
AcDbSymbolTableRecord
100
AcDbBlockTableRecord
  2
*D19
340
0
  0
BLOCK_RECORD
  5
4A9
330
17F
100
AcDbSymbolTableRecord
100
AcDbBlockTableRecord
  2
*D20
340
0
  0
BLOCK_RECORD
  5
4B6
330
17F
100
AcDbSymbolTableRecord
100
AcDbBlockTableRecord
  2
*D21
340
0
  0
ENDTAB
  0
ENDSEC
  0
SECTION
  2
BLOCKS
  0
BLOCK
  5
1AD
330
195
100
AcDbEntity
  8
0
100
AcDbBlockBegin
  2
*MODEL_SPACE
 70
     0
 10
0.0
 20
0.0
 30
0.0
  3
*MODEL_SPACE
  1

  0
ENDBLK
  5
1AE
330
195
100
AcDbEntity
  8
0
100
AcDbBlockEnd
  0
BLOCK
  5
1AB
330
192
100
AcDbEntity
 67
     1
  8
0
100
AcDbBlockBegin
  2
*PAPER_SPACE
 70
     0
 10
0.0
 20
0.0
 30
0.0
  3
*PAPER_SPACE
  1

  0
ENDBLK
  5
1AC
330
192
100
AcDbEntity
 67
     1
  8
0
100
AcDbBlockEnd
  0
BLOCK
  5
31
330
19A
100
AcDbEntity
  8
0
100
AcDbBlockBegin
  2
WAKU
 70
     0
 10
549.0
 20
0.0
 30
0.0
  3
WAKU
  1

  0
LINE
  5
32
330
19A
100
AcDbEntity
  8
11
100
AcDbLine
 10
452.0
 20
12.0
 30
0.0
 11
549.0
 21
12.0
 31
0.0
  0
LINE
  5
33
330
19A
100
AcDbEntity
  8
11
100
AcDbLine
 10
477.0
 20
0.0
 30
0.0
 11
477.0
 21
12.0
 31
0.0
  0
LINE
  5
34
330
19A
100
AcDbEntity
  8
11
100
AcDbLine
 10
452.0
 20
12.0
 30
0.0
 11
452.0
 21
0.0
 31
0.0
  0
TEXT
  5
35
330
19A
100
AcDbEntity
  8
11
100
AcDbText
 10
454.0
 20
8.5
 30
0.0
 40
2.5
  1
尺度
100
AcDbText
  0
TEXT
  5
36
330
19A
100
AcDbEntity
  8
11
100
AcDbText
 10
479.0
 20
8.5
 30
0.0
 40
2.5
  1
図番
100
AcDbText
  0
ENDBLK
  5
37
330
19A
100
AcDbEntity
  8
0
100
AcDbBlockEnd
  0
BLOCK
  5
38
330
19B
100
AcDbEntity
  8
0
100
AcDbBlockBegin
  2
Z
 70
     0
 10
481.110778
 20
136.7870199999999
 30
0.0
  3
Z
  1

  0
TEXT
  5
39
330
19B
100
AcDbEntity
  8
0
100
AcDbText
 10
478.1506833333333
 20
140.067934
 30
0.0
 40
5.5
  1
１
 50
360.0
 41
0.8
  7
K80
 72
     1
 11
480.0573499999999
 21
140.067934
 31
0.0
100
AcDbText
  0
TEXT
  5
3A
330
19B
100
AcDbEntity
  8
0
100
AcDbText
 10
470.108991
 20
139.534665
 30
0.0
 40
6.0
  1
Ｖ
 50
360.0
 41
0.8
  7
K80
 72
     1
 11
472.348991
 21
139.534665
 31
0.0
100
AcDbText
  0
TEXT
  5
3B
330
19B
100
AcDbEntity
  8
0
100
AcDbText
 10
482.8853246666667
 20
140.0478629999999
 30
0.0
 40
5.5
  1
６
 50
360.0
 41
0.8
  7
K80
 72
     1
 11
484.938658
 21
140.0478629999999
 31
0.0
100
AcDbText
  0
LINE
  5
3C
330
19B
100
AcDbEntity
  8
0
100
AcDbLine
 10
474.860778
 20
142.7870199999999
 30
0.0
 11
477.360778
 21
142.7870199999999
 31
0.0
  0
TEXT
  5
3D
330
19B
100
AcDbEntity
  8
0
100
AcDbText
 10
488.0004753333333
 20
140.013502
 30
0.0
 40
5.5
  1
０
 50
360.0
 41
0.8
  7
K80
 72
     1
 11
489.9071419999999
 21
140.013502
 31
0.0
100
AcDbText
  0
ENDBLK
  5
3E
330
19B
100
AcDbEntity
  8
0
100
AcDbBlockEnd
  0
BLOCK
  5
3F
330
19C
100
AcDbEntity
  8
0
100
AcDbBlockBegin
  2
QQ
 70
     0
 10
270.0
 20
0.0
 30
0.0
  3
QQ
  1

  0
LINE
  5
40
330
19C
100
AcDbEntity
  8
11
100
AcDbLine
 10
173.0
 20
36.0
 30
0.0
 11
270.0
 21
36.0
 31
0.0
  0
TEXT
  5
41
330
19C
100
AcDbEntity
  8
11
100
AcDbText
 10
175.0
 20
32.5
 30
0.0
 40
2.5
  1
部品名称
100
AcDbText
  0
LINE
  5
42
330
19C
100
AcDbEntity
  8
11
100
AcDbLine
 10
173.0
 20
36.0
 30
0.0
 11
173.0
 21
0.0
 31
0.0
  0
LINE
  5
43
330
19C
100
AcDbEntity
  8
11
100
AcDbLine
 10
173.0
 20
24.0
 30
0.0
 11
270.0
 21
24.0
 31
0.0
  0
TEXT
  5
44
330
19C
100
AcDbEntity
  8
11
100
AcDbText
 10
175.0
 20
20.5
 30
0.0
 40
2.5
  1
品番
100
AcDbText
  0
LINE
  5
45
330
19C
100
AcDbEntity
  8
11
100
AcDbLine
 10
173.0
 20
12.0
 30
0.0
 11
270.0
 21
12.0
 31
0.0
  0
TEXT
  5
46
330
19C
100
AcDbEntity
  8
11
100
AcDbText
 10
175.0
 20
8.5
 30
0.0
 40
2.5
  1
尺度
100
AcDbText
  0
TEXT
  5
47
330
19C
100
AcDbEntity
  8
11
100
AcDbText
 10
200.0
 20
8.5
 30
0.0
 40
2.5
  1
図番
100
AcDbText
  0
LINE
  5
48
330
19C
100
AcDbEntity
  8
11
100
AcDbLine
 10
198.0
 20
0.0
 30
0.0
 11
198.0
 21
12.0
 31
0.0
  0
ENDBLK
  5
49
330
19C
100
AcDbEntity
  8
0
100
AcDbBlockEnd
  0
BLOCK
  5
273
330
272
100
AcDbEntity
  8
0
100
AcDbBlockBegin
  2
*U3
 70
     1
 10
0.0
 20
0.0
 30
0.0
  3
*U3
  1

  0
ENDBLK
  5
274
330
272
100
AcDbEntity
  8
0
100
AcDbBlockEnd
  0
BLOCK
  5
2AE
330
2A3
100
AcDbEntity
  8
0
100
AcDbBlockBegin
  2
*D4
 70
     1
 10
0.0
 20
0.0
 30
0.0
  3
*D4
  1

  0
LINE
  5
2A4
330
2A3
100
AcDbEntity
  8
0
  6
ByBlock
 62
     0
100
AcDbLine
 10
288.6514945598647
 20
223.7680828484772
 30
0.0
 11
288.6514945598647
 21
245.4684047148444
 31
0.0
  0
LINE
  5
2A5
330
2A3
100
AcDbEntity
  8
0
  6
ByBlock
 62
     0
100
AcDbLine
 10
302.6514945598647
 20
178.7680828484773
 30
0.0
 11
302.6514945598647
 21
245.4684047148444
 31
0.0
  0
LINE
  5
2A6
330
2A3
100
AcDbEntity
  8
0
  6
ByBlock
 62
     0
100
AcDbLine
 10
290.6514945598647
 20
244.4684047148444
 30
0.0
 11
293.4923575374627
 21
244.4684047148444
 31
0.0
  0
LINE
  5
2A7
330
2A3
100
AcDbEntity
  8
0
  6
ByBlock
 62
     0
100
AcDbLine
 10
300.6514945598647
 20
244.4684047148444
 30
0.0
 11
300.0264945598647
 21
244.4684047148444
 31
0.0
  0
SOLID
  5
2A8
330
2A3
100
AcDbEntity
  8
0
  6
ByBlock
 62
     0
100
AcDbTrace
 10
290.6514945598647
 20
244.8017380481777
 30
0.0
 11
290.6514945598647
 21
244.135071381511
 31
0.0
 12
288.6514945598647
 22
244.4684047148444
 32
0.0
 13
288.6514945598647
 23
244.4684047148444
 33
0.0
  0
SOLID
  5
2A9
330
2A3
100
AcDbEntity
  8
0
  6
ByBlock
 62
     0
100
AcDbTrace
 10
300.6514945598647
 20
244.8017380481777
 30
0.0
 11
300.6514945598647
 21
244.135071381511
 31
0.0
 12
302.6514945598647
 22
244.4684047148444
 32
0.0
 13
302.6514945598647
 23
244.4684047148444
 33
0.0
  0
MTEXT
  5
2AA
330
2A3
100
AcDbEntity
  8
0
  6
ByBlock
 62
     0
100
AcDbMText
 10
296.7840242041294
 20
244.4684047148444
 30
0.0
 40
4.0
 41
0.0
 71
     5
 72
     1
  1
\A1;14
 73
     1
 44
1.0
  0
POINT
  5
2AB
330
2A3
100
AcDbEntity
  8
DEFPOINTS
  6
ByBlock
 62
     0
100
AcDbPoint
 10
288.6514945598647
 20
222.7680828484773
 30
0.0
  0
POINT
  5
2AC
330
2A3
100
AcDbEntity
  8
DEFPOINTS
  6
ByBlock
 62
     0
100
AcDbPoint
 10
302.6514945598647
 20
177.7680828484773
 30
0.0
  0
POINT
  5
2AD
330
2A3
100
AcDbEntity
  8
DEFPOINTS
  6
ByBlock
 62
     0
100
AcDbPoint
 10
302.6514945598647
 20
244.4684047148444
 30
0.0
  0
ENDBLK
  5
2AF
330
2A3
100
AcDbEntity
  8
0
100
AcDbBlockEnd
  0
BLOCK
  5
2BB
330
2B0
100
AcDbEntity
  8
0
100
AcDbBlockBegin
  2
*D5
 70
     1
 10
0.0
 20
0.0
 30
0.0
  3
*D5
  1

  0
LINE
  5
2B1
330
2B0
100
AcDbEntity
  8
0
  6
ByBlock
 62
     0
100
AcDbLine
 10
302.6514945598647
 20
178.7680828484773
 30
0.0
 11
302.6514945598647
 21
233.7062676284403
 31
0.0
  0
LINE
  5
2B2
330
2B0
100
AcDbEntity
  8
0
  6
ByBlock
 62
     0
100
AcDbLine
 10
317.6514945598647
 20
173.7680828484773
 30
0.0
 11
317.6514945598647
 21
233.7062676284403
 31
0.0
  0
LINE
  5
2B3
330
2B0
100
AcDbEntity
  8
0
  6
ByBlock
 62
     0
100
AcDbLine
 10
304.6514945598647
 20
232.7062676284403
 30
0.0
 11
307.4842426693939
 21
232.7062676284403
 31
0.0
  0
LINE
  5
2B4
330
2B0
100
AcDbEntity
  8
0
  6
ByBlock
 62
     0
100
AcDbLine
 10
315.6514945598647
 20
232.7062676284403
 30
0.0
 11
314.0675760027273
 21
232.7062676284403
 31
0.0
  0
SOLID
  5
2B5
330
2B0
100
AcDbEntity
  8
0
  6
ByBlock
 62
     0
100
AcDbTrace
 10
304.6514945598647
 20
233.0396009617736
 30
0.0
 11
304.6514945598647
 21
232.3729342951069
 31
0.0
 12
302.6514945598647
 22
232.7062676284403
 32
0.0
 13
302.6514945598647
 23
232.7062676284403
 33
0.0
  0
SOLID
  5
2B6
330
2B0
100
AcDbEntity
  8
0
  6
ByBlock
 62
     0
100
AcDbTrace
 10
315.6514945598647
 20
233.0396009617736
 30
0.0
 11
315.6514945598647
 21
232.3729342951069
 31
0.0
 12
317.6514945598647
 22
232.7062676284403
 32
0.0
 13
317.6514945598647
 23
232.7062676284403
 33
0.0
  0
MTEXT
  5
2B7
330
2B0
100
AcDbEntity
  8
0
  6
ByBlock
 62
     0
100
AcDbMText
 10
310.7759093360606
 20
232.7062676284403
 30
0.0
 40
4.0
 41
0.0
 71
     5
 72
     1
  1
\A1;15
 73
     1
 44
1.0
  0
POINT
  5
2B8
330
2B0
100
AcDbEntity
  8
DEFPOINTS
  6
ByBlock
 62
     0
100
AcDbPoint
 10
302.6514945598647
 20
177.7680828484773
 30
0.0
  0
POINT
  5
2B9
330
2B0
100
AcDbEntity
  8
DEFPOINTS
  6
ByBlock
 62
     0
100
AcDbPoint
 10
317.6514945598647
 20
172.7680828484773
 30
0.0
  0
POINT
  5
2BA
330
2B0
100
AcDbEntity
  8
DEFPOINTS
  6
ByBlock
 62
     0
100
AcDbPoint
 10
317.6514945598647
 20
232.7062676284403
 30
0.0
  0
ENDBLK
  5
2BC
330
2B0
100
AcDbEntity
  8
0
100
AcDbBlockEnd
  0
BLOCK
  5
2C8
330
2BD
100
AcDbEntity
  8
0
100
AcDbBlockBegin
  2
*D6
 70
     1
 10
0.0
 20
0.0
 30
0.0
  3
*D6
  1

  0
LINE
  5
2BE
330
2BD
100
AcDbEntity
  8
0
  6
ByBlock
 62
     0
100
AcDbLine
 10
278.6514945598647
 20
231.7680828484773
 30
0.0
 11
239.8164799557233
 21
231.7680828484773
 31
0.0
  0
LINE
  5
2BF
330
2BD
100
AcDbEntity
  8
0
  6
ByBlock
 62
     0
100
AcDbLine
 10
278.6514945598647
 20
81.76808284847732
 30
0.0
 11
239.8164799557233
 21
81.76808284847732
 31
0.0
  0
LINE
  5
2C0
330
2BD
100
AcDbEntity
  8
0
  6
ByBlock
 62
     0
100
AcDbLine
 10
240.8164799557233
 20
229.7680828484773
 30
0.0
 11
240.8164799557233
 21
161.2107085068911
 31
0.0
  0
LINE
  5
2C1
330
2BD
100
AcDbEntity
  8
0
  6
ByBlock
 62
     0
100
AcDbLine
 10
240.8164799557233
 20
83.76808284847731
 30
0.0
 11
240.8164799557233
 21
151.2940418402244
 31
0.0
  0
SOLID
  5
2C2
330
2BD
100
AcDbEntity
  8
0
  6
ByBlock
 62
     0
100
AcDbTrace
 10
240.48314662239
 20
229.7680828484773
 30
0.0
 11
241.1498132890566
 21
229.7680828484773
 31
0.0
 12
240.8164799557233
 22
231.7680828484773
 32
0.0
 13
240.8164799557233
 23
231.7680828484773
 33
0.0
  0
SOLID
  5
2C3
330
2BD
100
AcDbEntity
  8
0
  6
ByBlock
 62
     0
100
AcDbTrace
 10
240.48314662239
 20
83.76808284847731
 30
0.0
 11
241.1498132890566
 21
83.76808284847731
 31
0.0
 12
240.8164799557233
 22
81.76808284847732
 32
0.0
 13
240.8164799557233
 23
81.76808284847732
 33
0.0
  0
MTEXT
  5
2C4
330
2BD
100
AcDbEntity
  8
0
  6
ByBlock
 62
     0
100
AcDbMText
 10
240.8164799557233
 20
156.2523751735577
 30
0.0
 40
4.0
 41
0.0
 71
     5
 72
     1
  1
\A1;150
 11
0.0000000000000001
 21
1.0
 31
0.0
 73
     1
 44
1.0
  0
POINT
  5
2C5
330
2BD
100
AcDbEntity
  8
DEFPOINTS
  6
ByBlock
 62
     0
100
AcDbPoint
 10
279.6514945598647
 20
231.7680828484773
 30
0.0
  0
POINT
  5
2C6
330
2BD
100
AcDbEntity
  8
DEFPOINTS
  6
ByBlock
 62
     0
100
AcDbPoint
 10
279.6514945598647
 20
81.76808284847732
 30
0.0
  0
POINT
  5
2C7
330
2BD
100
AcDbEntity
  8
DEFPOINTS
  6
ByBlock
 62
     0
100
AcDbPoint
 10
240.8164799557233
 20
81.76808284847732
 30
0.0
  0
ENDBLK
  5
2C9
330
2BD
100
AcDbEntity
  8
0
100
AcDbBlockEnd
  0
BLOCK
  5
2D5
330
2CA
100
AcDbEntity
  8
0
100
AcDbBlockBegin
  2
*D7
 70
     1
 10
0.0
 20
0.0
 30
0.0
  3
*D7
  1

  0
LINE
  5
2CB
330
2CA
100
AcDbEntity
  8
0
  6
ByBlock
 62
     0
100
AcDbLine
 10
284.6514945598647
 20
136.7680828484773
 30
0.0
 11
284.6514945598647
 21
111.3227458871958
 31
0.0
  0
LINE
  5
2CC
330
2CA
100
AcDbEntity
  8
0
  6
ByBlock
 62
     0
100
AcDbLine
 10
317.6514945598647
 20
139.7680828484773
 30
0.0
 11
317.6514945598647
 21
111.3227458871958
 31
0.0
  0
LINE
  5
2CD
330
2CA
100
AcDbEntity
  8
0
  6
ByBlock
 62
     0
100
AcDbLine
 10
286.6514945598647
 20
112.3227458871958
 30
0.0
 11
299.2940076673156
 21
112.3227458871958
 31
0.0
  0
LINE
  5
2CE
330
2CA
100
AcDbEntity
  8
0
  6
ByBlock
 62
     0
100
AcDbLine
 10
315.6514945598647
 20
112.3227458871958
 30
0.0
 11
307.2106743339822
 21
112.3227458871958
 31
0.0
  0
SOLID
  5
2CF
330
2CA
100
AcDbEntity
  8
0
  6
ByBlock
 62
     0
100
AcDbTrace
 10
286.6514945598647
 20
112.6560792205291
 30
0.0
 11
286.6514945598647
 21
111.9894125538624
 31
0.0
 12
284.6514945598647
 22
112.3227458871958
 32
0.0
 13
284.6514945598647
 23
112.3227458871958
 33
0.0
  0
SOLID
  5
2D0
330
2CA
100
AcDbEntity
  8
0
  6
ByBlock
 62
     0
100
AcDbTrace
 10
315.6514945598647
 20
112.6560792205291
 30
0.0
 11
315.6514945598647
 21
111.9894125538624
 31
0.0
 12
317.6514945598647
 22
112.3227458871958
 32
0.0
 13
317.6514945598647
 23
112.3227458871958
 33
0.0
  0
MTEXT
  5
2D1
330
2CA
100
AcDbEntity
  8
0
  6
ByBlock
 62
     0
100
AcDbMText
 10
303.2523410006489
 20
112.3227458871958
 30
0.0
 40
4.0
 41
0.0
 71
     5
 72
     1
  1
\A1;33
 73
     1
 44
1.0
  0
POINT
  5
2D2
330
2CA
100
AcDbEntity
  8
DEFPOINTS
  6
ByBlock
 62
     0
100
AcDbPoint
 10
284.6514945598647
 20
137.7680828484773
 30
0.0
  0
POINT
  5
2D3
330
2CA
100
AcDbEntity
  8
DEFPOINTS
  6
ByBlock
 62
     0
100
AcDbPoint
 10
317.6514945598647
 20
140.7680828484773
 30
0.0
  0
POINT
  5
2D4
330
2CA
100
AcDbEntity
  8
DEFPOINTS
  6
ByBlock
 62
     0
100
AcDbPoint
 10
317.6514945598647
 20
112.3227458871958
 30
0.0
  0
ENDBLK
  5
2D6
330
2CA
100
AcDbEntity
  8
0
100
AcDbBlockEnd
  0
BLOCK
  5
2D9
330
2D7
100
AcDbEntity
  8
0
100
AcDbBlockBegin
  2
GENAXEH
 70
     0
 10
0.0
 20
0.0
 30
0.0
  3
GENAXEH
  1

  0
LINE
  5
2D8
330
2D7
100
AcDbEntity
  8
0
100
AcDbLine
 10
-1.0
 20
0.0
 30
0.0
 11
1.0
 21
0.0
 31
0.0
  0
ENDBLK
  5
2DA
330
2D7
100
AcDbEntity
  8
0
100
AcDbBlockEnd
  0
BLOCK
  5
2E6
330
2DB
100
AcDbEntity
  8
0
100
AcDbBlockBegin
  2
*D9
 70
     1
 10
0.0
 20
0.0
 30
0.0
  3
*D9
  1

  0
LINE
  5
2DC
330
2DB
100
AcDbEntity
  8
0
 62
     0
370
    -2
100
AcDbLine
 10
260.6514945598647
 20
199.0666860096437
 30
0.0
 11
260.6514945598647
 21
215.0962706599473
 31
0.0
  0
LINE
  5
2DD
330
2DB
100
AcDbEntity
  8
0
 62
     0
370
    -2
100
AcDbLine
 10
262.6514945598647
 20
201.3180828484772
 30
0.0
 11
262.6514945598647
 21
215.0962706599473
 31
0.0
  0
LINE
  5
2DE
330
2DB
100
AcDbEntity
  8
0
 62
     0
370
    -2
100
AcDbLine
 10
264.6514945598647
 20
214.0962706599473
 30
0.0
 11
266.6514945598647
 21
214.0962706599473
 31
0.0
  0
LINE
  5
2DF
330
2DB
100
AcDbEntity
  8
0
 62
     0
370
    -2
100
AcDbLine
 10
258.6514945598647
 20
214.0962706599473
 30
0.0
 11
253.829233435994
 21
214.0962706599473
 31
0.0
  0
SOLID
  5
2E0
330
2DB
100
AcDbEntity
  8
0
 62
     0
100
AcDbTrace
 10
264.6514945598647
 20
214.4296039932806
 30
0.0
 11
264.6514945598647
 21
213.7629373266139
 31
0.0
 12
262.6514945598647
 22
214.0962706599473
 32
0.0
 13
262.6514945598647
 23
214.0962706599473
 33
0.0
  0
SOLID
  5
2E1
330
2DB
100
AcDbEntity
  8
0
 62
     0
100
AcDbTrace
 10
258.6514945598647
 20
214.4296039932806
 30
0.0
 11
258.6514945598647
 21
213.7629373266139
 31
0.0
 12
260.6514945598647
 22
214.0962706599473
 32
0.0
 13
260.6514945598647
 23
214.0962706599473
 33
0.0
  0
MTEXT
  5
2E2
330
2DB
100
AcDbEntity
  8
0
 62
     0
100
AcDbMText
 10
251.8709001026607
 20
214.0962706599473
 30
0.0
 40
4.0
 41
0.0
 71
     5
 72
     1
  1
\A1;2
 73
     1
 44
1.0
  0
POINT
  5
2E3
330
2DB
100
AcDbEntity
  8
DEFPOINTS
 62
     0
100
AcDbPoint
 10
260.6514945598647
 20
198.0666860096437
 30
0.0
  0
POINT
  5
2E4
330
2DB
100
AcDbEntity
  8
DEFPOINTS
 62
     0
100
AcDbPoint
 10
262.6514945598647
 20
200.3180828484773
 30
0.0
  0
POINT
  5
2E5
330
2DB
100
AcDbEntity
  8
DEFPOINTS
 62
     0
100
AcDbPoint
 10
262.6514945598647
 20
214.0962706599473
 30
0.0
  0
ENDBLK
  5
2E7
330
2DB
100
AcDbEntity
  8
0
100
AcDbBlockEnd
  0
BLOCK
  5
2EF
330
2E8
100
AcDbEntity
  8
0
100
AcDbBlockBegin
  2
*D10
 70
     1
 10
0.0
 20
0.0
 30
0.0
  3
*D10
  1

  0
LINE
  5
2E9
330
2E8
100
AcDbEntity
  8
0
 62
     0
370
    -2
100
AcDbLine
 10
83.11788386057221
 20
217.1983939568353
 30
0.0
 11
85.11788386057224
 21
217.1983939568355
 31
0.0
  0
LINE
  5
2EA
330
2E8
100
AcDbEntity
  8
0
 62
     0
370
    -2
100
AcDbLine
 10
85.11788386057224
 20
217.1983939568355
 30
0.0
 11
97.12390375593436
 21
200.6837050698131
 31
0.0
  0
MTEXT
  5
2EB
330
2E8
100
AcDbEntity
  8
0
 62
     0
100
AcDbMText
 10
75.82621719390558
 20
217.1983939568346
 30
0.0
 40
4.0
 41
0.0
 71
     5
 72
     1
  1
\A1;\U+220513.1
 73
     1
 44
1.0
  0
SOLID
  5
2EC
330
2E8
100
AcDbEntity
  8
0
 62
     0
100
AcDbTrace
 10
97.39351865735097
 20
200.8797125085628
 30
0.0
 11
96.85428885451774
 21
200.4876976310633
 31
0.0
 12
98.29994838843269
 22
199.0660156613135
 32
0.0
 13
98.29994838843269
 23
199.0660156613135
 33
0.0
  0
POINT
  5
2ED
330
2E8
100
AcDbEntity
  8
DEFPOINTS
 62
     0
100
AcDbPoint
 10
98.29994838843269
 20
199.0660156613135
 30
0.0
  0
POINT
  5
2EE
330
2E8
100
AcDbEntity
  8
DEFPOINTS
 62
     0
100
AcDbPoint
 10
106.0030407312968
 20
188.470150035641
 30
0.0
  0
ENDBLK
  5
2F0
330
2E8
100
AcDbEntity
  8
0
100
AcDbBlockEnd
  0
BLOCK
  5
2FC
330
2F1
100
AcDbEntity
  8
0
100
AcDbBlockBegin
  2
*D11
 70
     1
 10
0.0
 20
0.0
 30
0.0
  3
*D11
  1

  0
LINE
  5
2F2
330
2F1
100
AcDbEntity
  8
0
 62
     0
370
    -2
100
AcDbLine
 10
260.0203011313752
 20
200.3180828484772
 30
0.0
 11
240.1071125285676
 21
200.3180828484772
 31
0.0
  0
LINE
  5
2F3
330
2F1
100
AcDbEntity
  8
0
 62
     0
370
    -2
100
AcDbLine
 10
259.6514945598647
 20
187.2180828484773
 30
0.0
 11
240.1071125285676
 21
187.2180828484773
 31
0.0
  0
LINE
  5
2F4
330
2F1
100
AcDbEntity
  8
0
 62
     0
370
    -2
100
AcDbLine
 10
241.1071125285676
 20
202.3180828484772
 30
0.0
 11
241.1071125285676
 21
204.3180828484772
 31
0.0
  0
LINE
  5
2F5
330
2F1
100
AcDbEntity
  8
0
 62
     0
370
    -2
100
AcDbLine
 10
241.1071125285676
 20
185.2180828484773
 30
0.0
 11
241.1071125285676
 21
183.2180828484773
 31
0.0
  0
SOLID
  5
2F6
330
2F1
100
AcDbEntity
  8
0
 62
     0
100
AcDbTrace
 10
240.7737791952342
 20
202.3180828484772
 30
0.0
 11
241.4404458619009
 21
202.3180828484772
 31
0.0
 12
241.1071125285676
 22
200.3180828484772
 32
0.0
 13
241.1071125285676
 23
200.3180828484772
 33
0.0
  0
SOLID
  5
2F7
330
2F1
100
AcDbEntity
  8
0
 62
     0
100
AcDbTrace
 10
240.7737791952342
 20
185.2180828484773
 30
0.0
 11
241.4404458619009
 21
185.2180828484773
 31
0.0
 12
241.1071125285676
 22
187.2180828484773
 32
0.0
 13
241.1071125285676
 23
187.2180828484773
 33
0.0
  0
MTEXT
  5
2F8
330
2F1
100
AcDbEntity
  8
0
 62
     0
100
AcDbMText
 10
241.1071125285675
 20
194.2825633092227
 30
0.0
 40
4.0
 41
0.0
 71
     5
 72
     1
  1
\A1;13.1
 11
0.0000000000000001
 21
1.0
 31
0.0
 73
     1
 44
1.0
  0
POINT
  5
2F9
330
2F1
100
AcDbEntity
  8
DEFPOINTS
 62
     0
100
AcDbPoint
 10
261.0203011313752
 20
200.3180828484772
 30
0.0
  0
POINT
  5
2FA
330
2F1
100
AcDbEntity
  8
DEFPOINTS
 62
     0
100
AcDbPoint
 10
260.6514945598647
 20
187.2180828484773
 30
0.0
  0
POINT
  5
2FB
330
2F1
100
AcDbEntity
  8
DEFPOINTS
 62
     0
100
AcDbPoint
 10
241.1071125285676
 20
187.2180828484773
 30
0.0
  0
ENDBLK
  5
2FD
330
2F1
100
AcDbEntity
  8
0
100
AcDbBlockEnd
  0
BLOCK
  5
309
330
2FE
100
AcDbEntity
  8
0
100
AcDbBlockBegin
  2
*D12
 70
     1
 10
0.0
 20
0.0
 30
0.0
  3
*D12
  1

  0
LINE
  5
2FF
330
2FE
100
AcDbEntity
  8
0
 62
     0
370
    -2
100
AcDbLine
 10
121.1514945598648
 20
193.7680828484773
 30
0.0
 11
194.1763957773879
 21
193.7680828484772
 31
0.0
  0
LINE
  5
300
330
2FE
100
AcDbEntity
  8
0
 62
     0
370
    -2
100
AcDbLine
 10
189.1514945598648
 20
131.7680828484773
 30
0.0
 11
194.1763957773879
 21
131.7680828484772
 31
0.0
  0
LINE
  5
301
330
2FE
100
AcDbEntity
  8
0
 62
     0
370
    -2
100
AcDbLine
 10
193.1763957773879
 20
191.7680828484773
 30
0.0
 11
193.1763957773879
 21
171.5819421669013
 31
0.0
  0
LINE
  5
302
330
2FE
100
AcDbEntity
  8
0
 62
     0
370
    -2
100
AcDbLine
 10
193.1763957773879
 20
133.7680828484772
 30
0.0
 11
193.1763957773879
 21
163.6652755002346
 31
0.0
  0
SOLID
  5
303
330
2FE
100
AcDbEntity
  8
0
 62
     0
100
AcDbTrace
 10
192.8430624440545
 20
191.7680828484773
 30
0.0
 11
193.5097291107212
 21
191.7680828484773
 31
0.0
 12
193.1763957773879
 22
193.7680828484772
 32
0.0
 13
193.1763957773879
 23
193.7680828484772
 33
0.0
  0
SOLID
  5
304
330
2FE
100
AcDbEntity
  8
0
 62
     0
100
AcDbTrace
 10
192.8430624440545
 20
133.7680828484772
 30
0.0
 11
193.5097291107212
 21
133.7680828484772
 31
0.0
 12
193.1763957773879
 22
131.7680828484772
 32
0.0
 13
193.1763957773879
 23
131.7680828484772
 33
0.0
  0
MTEXT
  5
305
330
2FE
100
AcDbEntity
  8
0
 62
     0
100
AcDbMText
 10
193.1763957773878
 20
167.623608833568
 30
0.0
 40
4.0
 41
0.0
 71
     5
 72
     1
  1
\A1;62
 11
0.0000000000000001
 21
1.0
 31
0.0
 73
     1
 44
1.0
  0
POINT
  5
306
330
2FE
100
AcDbEntity
  8
DEFPOINTS
 62
     0
100
AcDbPoint
 10
120.1514945598648
 20
193.7680828484773
 30
0.0
  0
POINT
  5
307
330
2FE
100
AcDbEntity
  8
DEFPOINTS
 62
     0
100
AcDbPoint
 10
188.1514945598647
 20
131.7680828484773
 30
0.0
  0
POINT
  5
308
330
2FE
100
AcDbEntity
  8
DEFPOINTS
 62
     0
100
AcDbPoint
 10
193.1763957773879
 20
131.7680828484772
 30
0.0
  0
ENDBLK
  5
30A
330
2FE
100
AcDbEntity
  8
0
100
AcDbBlockEnd
  0
BLOCK
  5
46D
330
462
100
AcDbEntity
  8
0
100
AcDbBlockBegin
  2
*D14
 70
     1
 10
0.0
 20
0.0
 30
0.0
  3
*D14
  1

  0
LINE
  5
4CC
330
462
100
AcDbEntity
  8
0
 62
     0
370
    -2
100
AcDbLine
 10
220.4185287886744
 20
230.0148413858963
 30
0.0
 11
293.5609300061976
 21
230.0148413858963
 31
0.0
  0
LINE
  5
4CD
330
462
100
AcDbEntity
  8
0
 62
     0
370
    -2
100
AcDbLine
 10
288.4185287886745
 20
168.0148413858963
 30
0.0
 11
293.5609300061976
 21
168.0148413858963
 31
0.0
  0
LINE
  5
4CE
330
462
100
AcDbEntity
  8
0
 62
     0
370
    -2
100
AcDbLine
 10
293.3809300061976
 20
228.0148413858963
 30
0.0
 11
293.3809300061976
 21
211.460367370987
 31
0.0
  0
LINE
  5
4CF
330
462
100
AcDbEntity
  8
0
 62
     0
370
    -2
100
AcDbLine
 10
293.3809300061976
 20
170.0148413858963
 30
0.0
 11
293.3809300061976
 21
196.280367370987
 31
0.0
  0
SOLID
  5
4D0
330
462
100
AcDbEntity
  8
0
 62
     0
100
AcDbTrace
 10
293.0475966728642
 20
228.0148413858963
 30
0.0
 11
293.7142633395309
 21
228.0148413858963
 31
0.0
 12
293.3809300061976
 22
230.0148413858963
 32
0.0
 13
293.3809300061976
 23
230.0148413858963
 33
0.0
  0
SOLID
  5
4D1
330
462
100
AcDbEntity
  8
0
 62
     0
100
AcDbTrace
 10
293.0475966728642
 20
170.0148413858963
 30
0.0
 11
293.7142633395309
 21
170.0148413858963
 31
0.0
 12
293.3809300061976
 22
168.0148413858963
 32
0.0
 13
293.3809300061976
 23
168.0148413858963
 33
0.0
  0
MTEXT
  5
4D2
330
462
100
AcDbEntity
  8
0
 62
     0
100
AcDbMText
 10
293.3809300061975
 20
203.870367370987
 30
0.0
 40
15.0
 41
0.0
 71
     5
 72
     1
  1
\A1;62.0000
  7
BIGFONT
 73
     1
 44
1.0
  0
POINT
  5
4D3
330
462
100
AcDbEntity
  8
DEFPOINTS
 62
     0
100
AcDbPoint
 10
220.3560287886745
 20
230.0148413858963
 30
0.0
  0
POINT
  5
4D4
330
462
100
AcDbEntity
  8
DEFPOINTS
 62
     0
100
AcDbPoint
 10
288.3560287886745
 20
168.0148413858963
 30
0.0
  0
POINT
  5
4D5
330
462
100
AcDbEntity
  8
DEFPOINTS
 62
     0
100
AcDbPoint
 10
293.3809300061976
 20
168.0148413858963
 30
0.0
  0
ENDBLK
  5
46E
330
462
100
AcDbEntity
  8
0
100
AcDbBlockEnd
  0
BLOCK
  5
476
330
46F
100
AcDbEntity
  8
0
100
AcDbBlockBegin
  2
*D15
 70
     1
 10
0.0
 20
0.0
 30
0.0
  3
*D15
  1

  0
LINE
  5
4DC
330
46F
100
AcDbEntity
  8
0
 62
     0
370
    -2
100
AcDbLine
 10
183.3224180893825
 20
253.4451524942537
 30
0.0
 11
185.3224180893825
 21
253.4451524942537
 31
0.0
  0
LINE
  5
4DD
330
46F
100
AcDbEntity
  8
0
 62
     0
370
    -2
100
AcDbLine
 10
185.3224180893825
 20
253.4451524942537
 30
0.0
 11
197.3284379847441
 21
236.9304636072322
 31
0.0
  0
MTEXT
  5
4DE
330
46F
100
AcDbEntity
  8
0
 62
     0
100
AcDbMText
 10
148.2324180893825
 20
253.4451524942537
 30
0.0
 40
15.0
 41
0.0
 71
     5
 72
     1
  1
\A1;\U+220513.1000
  7
BIGFONT
 73
     1
 44
1.0
  0
SOLID
  5
4DF
330
46F
100
AcDbEntity
  8
0
 62
     0
100
AcDbTrace
 10
197.5980528861606
 20
237.1264710459819
 30
0.0
 11
197.0588230833275
 21
236.7344561684824
 31
0.0
 12
198.5044826172424
 22
235.3127741987325
 32
0.0
 13
198.5044826172424
 23
235.3127741987325
 33
0.0
  0
POINT
  5
4E0
330
46F
100
AcDbEntity
  8
DEFPOINTS
 62
     0
100
AcDbPoint
 10
198.5044826172424
 20
235.3127741987325
 30
0.0
  0
POINT
  5
4E1
330
46F
100
AcDbEntity
  8
DEFPOINTS
 62
     0
100
AcDbPoint
 10
206.2075749601066
 20
224.7169085730601
 30
0.0
  0
ENDBLK
  5
477
330
46F
100
AcDbEntity
  8
0
100
AcDbBlockEnd
  0
BLOCK
  5
483
330
478
100
AcDbEntity
  8
0
100
AcDbBlockBegin
  2
*D16
 70
     1
 10
0.0
 20
0.0
 30
0.0
  3
*D16
  1

  0
LINE
  5
4EC
330
478
100
AcDbEntity
  8
0
 62
     0
370
    -2
100
AcDbLine
 10
369.7935287886745
 20
243.0148413858963
 30
0.0
 11
330.841014184533
 21
243.0148413858963
 31
0.0
  0
LINE
  5
4ED
330
478
100
AcDbEntity
  8
0
 62
     0
370
    -2
100
AcDbLine
 10
369.7935287886745
 20
93.01484138589637
 30
0.0
 11
330.841014184533
 21
93.01484138589639
 31
0.0
  0
LINE
  5
4EE
330
478
100
AcDbEntity
  8
0
 62
     0
370
    -2
100
AcDbLine
 10
331.0210141845331
 20
241.0148413858963
 30
0.0
 11
331.0210141845331
 21
175.0891337109768
 31
0.0
  0
LINE
  5
4EF
330
478
100
AcDbEntity
  8
0
 62
     0
370
    -2
100
AcDbLine
 10
331.021014184533
 20
95.01484138589638
 30
0.0
 11
331.0210141845331
 21
159.9091337109767
 31
0.0
  0
SOLID
  5
4F0
330
478
100
AcDbEntity
  8
0
 62
     0
100
AcDbTrace
 10
330.6876808511997
 20
241.0148413858963
 30
0.0
 11
331.3543475178664
 21
241.0148413858963
 31
0.0
 12
331.0210141845331
 22
243.0148413858963
 32
0.0
 13
331.0210141845331
 23
243.0148413858963
 33
0.0
  0
SOLID
  5
4F1
330
478
100
AcDbEntity
  8
0
 62
     0
100
AcDbTrace
 10
330.6876808511997
 20
95.01484138589638
 30
0.0
 11
331.3543475178663
 21
95.01484138589638
 31
0.0
 12
331.021014184533
 22
93.01484138589639
 32
0.0
 13
331.021014184533
 23
93.01484138589639
 33
0.0
  0
MTEXT
  5
4F2
330
478
100
AcDbEntity
  8
0
 62
     0
100
AcDbMText
 10
331.021014184533
 20
167.4991337109768
 30
0.0
 40
15.0
 41
0.0
 71
     5
 72
     1
  1
\A1;150.0000
  7
BIGFONT
 73
     1
 44
1.0
  0
POINT
  5
4F3
330
478
100
AcDbEntity
  8
DEFPOINTS
 62
     0
100
AcDbPoint
 10
369.8560287886745
 20
243.0148413858963
 30
0.0
  0
POINT
  5
4F4
330
478
100
AcDbEntity
  8
DEFPOINTS
 62
     0
100
AcDbPoint
 10
369.8560287886745
 20
93.01484138589637
 30
0.0
  0
POINT
  5
4F5
330
478
100
AcDbEntity
  8
DEFPOINTS
 62
     0
100
AcDbPoint
 10
331.021014184533
 20
93.01484138589639
 30
0.0
  0
ENDBLK
  5
484
330
478
100
AcDbEntity
  8
0
100
AcDbBlockEnd
  0
BLOCK
  5
48F
330
485
100
AcDbEntity
  8
0
100
AcDbBlockBegin
  2
*D17
 70
     1
 10
0.0
 20
0.0
 30
0.0
  3
*D17
  1

  0
LINE
  5
4FF
330
485
100
AcDbEntity
  8
0
 62
     0
370
    -2
100
AcDbLine
 10
374.8560287886744
 20
148.9523413858963
 30
0.0
 11
374.8560287886744
 21
123.3895044246148
 31
0.0
  0
LINE
  5
500
330
485
100
AcDbEntity
  8
0
 62
     0
370
    -2
100
AcDbLine
 10
407.8560287886744
 20
151.9523413858963
 30
0.0
 11
407.8560287886744
 21
123.3895044246148
 31
0.0
  0
LINE
  5
501
330
485
100
AcDbEntity
  8
0
 62
     0
370
    -2
100
AcDbLine
 10
376.8560287886744
 20
123.5695044246148
 30
0.0
 11
405.8560287886744
 21
123.5695044246148
 31
0.0
  0
SOLID
  5
502
330
485
100
AcDbEntity
  8
0
 62
     0
100
AcDbTrace
 10
376.8560287886744
 20
123.9028377579481
 30
0.0
 11
376.8560287886744
 21
123.2361710912815
 31
0.0
 12
374.8560287886744
 22
123.5695044246148
 32
0.0
 13
374.8560287886744
 23
123.5695044246148
 33
0.0
  0
SOLID
  5
503
330
485
100
AcDbEntity
  8
0
 62
     0
100
AcDbTrace
 10
405.8560287886744
 20
123.9028377579481
 30
0.0
 11
405.8560287886744
 21
123.2361710912815
 31
0.0
 12
407.8560287886744
 22
123.5695044246148
 32
0.0
 13
407.8560287886744
 23
123.5695044246148
 33
0.0
  0
MTEXT
  5
504
330
485
100
AcDbEntity
  8
0
 62
     0
100
AcDbMText
 10
391.3560287886744
 20
123.5695044246148
 30
0.0
 40
15.0
 41
0.0
 71
     5
 72
     1
  1
\A1;33.0000
  7
BIGFONT
 73
     1
 44
1.0
  0
POINT
  5
505
330
485
100
AcDbEntity
  8
DEFPOINTS
 62
     0
100
AcDbPoint
 10
374.8560287886744
 20
149.0148413858963
 30
0.0
  0
POINT
  5
506
330
485
100
AcDbEntity
  8
DEFPOINTS
 62
     0
100
AcDbPoint
 10
407.8560287886744
 20
152.0148413858963
 30
0.0
  0
POINT
  5
507
330
485
100
AcDbEntity
  8
DEFPOINTS
 62
     0
100
AcDbPoint
 10
407.8560287886744
 20
123.5695044246148
 30
0.0
  0
ENDBLK
  5
490
330
485
100
AcDbEntity
  8
0
100
AcDbBlockEnd
  0
BLOCK
  5
49B
330
491
100
AcDbEntity
  8
0
100
AcDbBlockBegin
  2
*D18
 70
     1
 10
0.0
 20
0.0
 30
0.0
  3
*D18
  1

  0
LINE
  5
511
330
491
100
AcDbEntity
  8
0
 62
     0
370
    -2
100
AcDbLine
 10
378.8560287886744
 20
234.0773413858963
 30
0.0
 11
378.8560287886744
 21
255.8951632522635
 31
0.0
  0
LINE
  5
512
330
491
100
AcDbEntity
  8
0
 62
     0
370
    -2
100
AcDbLine
 10
392.8560287886744
 20
189.0773413858963
 30
0.0
 11
392.8560287886744
 21
255.8951632522635
 31
0.0
  0
LINE
  5
513
330
491
100
AcDbEntity
  8
0
 62
     0
370
    -2
100
AcDbLine
 10
380.8560287886744
 20
255.7151632522634
 30
0.0
 11
390.8560287886744
 21
255.7151632522634
 31
0.0
  0
SOLID
  5
514
330
491
100
AcDbEntity
  8
0
 62
     0
100
AcDbTrace
 10
380.8560287886744
 20
256.0484965855968
 30
0.0
 11
380.8560287886744
 21
255.3818299189301
 31
0.0
 12
378.8560287886744
 22
255.7151632522634
 32
0.0
 13
378.8560287886744
 23
255.7151632522634
 33
0.0
  0
SOLID
  5
515
330
491
100
AcDbEntity
  8
0
 62
     0
100
AcDbTrace
 10
390.8560287886744
 20
256.0484965855968
 30
0.0
 11
390.8560287886744
 21
255.3818299189301
 31
0.0
 12
392.8560287886744
 22
255.7151632522634
 32
0.0
 13
392.8560287886744
 23
255.7151632522634
 33
0.0
  0
MTEXT
  5
516
330
491
100
AcDbEntity
  8
0
 62
     0
100
AcDbMText
 10
385.8560287886744
 20
255.7151632522634
 30
0.0
 40
15.0
 41
0.0
 71
     5
 72
     1
  1
\A1;14.0000
  7
BIGFONT
 73
     1
 44
1.0
  0
POINT
  5
517
330
491
100
AcDbEntity
  8
DEFPOINTS
 62
     0
100
AcDbPoint
 10
378.8560287886744
 20
234.0148413858963
 30
0.0
  0
POINT
  5
518
330
491
100
AcDbEntity
  8
DEFPOINTS
 62
     0
100
AcDbPoint
 10
392.8560287886744
 20
189.0148413858963
 30
0.0
  0
POINT
  5
519
330
491
100
AcDbEntity
  8
DEFPOINTS
 62
     0
100
AcDbPoint
 10
392.8560287886744
 20
255.7151632522634
 30
0.0
  0
ENDBLK
  5
49C
330
491
100
AcDbEntity
  8
0
100
AcDbBlockEnd
  0
BLOCK
  5
4A7
330
49D
100
AcDbEntity
  8
0
100
AcDbBlockBegin
  2
*D19
 70
     1
 10
0.0
 20
0.0
 30
0.0
  3
*D19
  1

  0
LINE
  5
523
330
49D
100
AcDbEntity
  8
0
 62
     0
370
    -2
100
AcDbLine
 10
361.162335360185
 20
236.5648413858963
 30
0.0
 11
341.1316467573773
 21
236.5648413858963
 31
0.0
  0
LINE
  5
524
330
49D
100
AcDbEntity
  8
0
 62
     0
370
    -2
100
AcDbLine
 10
360.7935287886745
 20
223.4648413858963
 30
0.0
 11
341.1316467573773
 21
223.4648413858963
 31
0.0
  0
LINE
  5
525
330
49D
100
AcDbEntity
  8
0
 62
     0
370
    -2
100
AcDbLine
 10
341.3116467573773
 20
234.5648413858963
 30
0.0
 11
341.3116467573773
 21
225.4648413858963
 31
0.0
  0
SOLID
  5
526
330
49D
100
AcDbEntity
  8
0
 62
     0
100
AcDbTrace
 10
340.978313424044
 20
234.5648413858963
 30
0.0
 11
341.6449800907106
 21
234.5648413858963
 31
0.0
 12
341.3116467573773
 22
236.5648413858963
 32
0.0
 13
341.3116467573773
 23
236.5648413858963
 33
0.0
  0
SOLID
  5
527
330
49D
100
AcDbEntity
  8
0
 62
     0
100
AcDbTrace
 10
340.978313424044
 20
225.4648413858963
 30
0.0
 11
341.6449800907106
 21
225.4648413858963
 31
0.0
 12
341.3116467573773
 22
223.4648413858963
 32
0.0
 13
341.3116467573773
 23
223.4648413858963
 33
0.0
  0
MTEXT
  5
528
330
49D
100
AcDbEntity
  8
0
 62
     0
100
AcDbMText
 10
341.3116467573772
 20
230.0148413858964
 30
0.0
 40
15.0
 41
0.0
 71
     5
 72
     1
  1
\A1;13.1000
  7
BIGFONT
 73
     1
 44
1.0
  0
POINT
  5
529
330
49D
100
AcDbEntity
  8
DEFPOINTS
 62
     0
100
AcDbPoint
 10
361.224835360185
 20
236.5648413858963
 30
0.0
  0
POINT
  5
52A
330
49D
100
AcDbEntity
  8
DEFPOINTS
 62
     0
100
AcDbPoint
 10
360.8560287886745
 20
223.4648413858963
 30
0.0
  0
POINT
  5
52B
330
49D
100
AcDbEntity
  8
DEFPOINTS
 62
     0
100
AcDbPoint
 10
341.3116467573773
 20
223.4648413858963
 30
0.0
  0
ENDBLK
  5
4A8
330
49D
100
AcDbEntity
  8
0
100
AcDbBlockEnd
  0
BLOCK
  5
4B4
330
4A9
100
AcDbEntity
  8
0
100
AcDbBlockBegin
  2
*D20
 70
     1
 10
0.0
 20
0.0
 30
0.0
  3
*D20
  1

  0
LINE
  5
536
330
4A9
100
AcDbEntity
  8
0
 62
     0
370
    -2
100
AcDbLine
 10
360.8560287886745
 20
234.3759445470627
 30
0.0
 11
360.8560287886745
 21
250.5230291973663
 31
0.0
  0
LINE
  5
537
330
4A9
100
AcDbEntity
  8
0
 62
     0
370
    -2
100
AcDbLine
 10
362.8560287886745
 20
236.6273413858963
 30
0.0
 11
362.8560287886745
 21
250.5230291973663
 31
0.0
  0
LINE
  5
538
330
4A9
100
AcDbEntity
  8
0
 62
     0
370
    -2
100
AcDbLine
 10
364.8560287886745
 20
250.3430291973663
 30
0.0
 11
366.8560287886744
 21
250.3430291973663
 31
0.0
  0
LINE
  5
539
330
4A9
100
AcDbEntity
  8
0
 62
     0
370
    -2
100
AcDbLine
 10
358.8560287886745
 20
250.3430291973663
 30
0.0
 11
356.8560287886744
 21
250.3430291973663
 31
0.0
  0
SOLID
  5
53A
330
4A9
100
AcDbEntity
  8
0
 62
     0
100
AcDbTrace
 10
364.8560287886745
 20
250.6763625306997
 30
0.0
 11
364.8560287886745
 21
250.009695864033
 31
0.0
 12
362.8560287886745
 22
250.3430291973663
 32
0.0
 13
362.8560287886745
 23
250.3430291973663
 33
0.0
  0
SOLID
  5
53B
330
4A9
100
AcDbEntity
  8
0
 62
     0
100
AcDbTrace
 10
358.8560287886745
 20
250.6763625306997
 30
0.0
 11
358.8560287886745
 21
250.009695864033
 31
0.0
 12
360.8560287886745
 22
250.3430291973663
 32
0.0
 13
360.8560287886745
 23
250.3430291973663
 33
0.0
  0
MTEXT
  5
53C
330
4A9
100
AcDbEntity
  8
0
 62
     0
100
AcDbMText
 10
330.7660287886744
 20
250.3430291973663
 30
0.0
 40
15.0
 41
0.0
 71
     5
 72
     1
  1
\A1;2.0000
  7
BIGFONT
 73
     1
 44
1.0
  0
POINT
  5
53D
330
4A9
100
AcDbEntity
  8
DEFPOINTS
 62
     0
100
AcDbPoint
 10
360.8560287886745
 20
234.3134445470627
 30
0.0
  0
POINT
  5
53E
330
4A9
100
AcDbEntity
  8
DEFPOINTS
 62
     0
100
AcDbPoint
 10
362.8560287886745
 20
236.5648413858963
 30
0.0
  0
POINT
  5
53F
330
4A9
100
AcDbEntity
  8
DEFPOINTS
 62
     0
100
AcDbPoint
 10
362.8560287886745
 20
250.3430291973663
 30
0.0
  0
ENDBLK
  5
4B5
330
4A9
100
AcDbEntity
  8
0
100
AcDbBlockEnd
  0
BLOCK
  5
4C0
330
4B6
100
AcDbEntity
  8
0
100
AcDbBlockBegin
  2
*D21
 70
     1
 10
0.0
 20
0.0
 30
0.0
  3
*D21
  1

  0
LINE
  5
549
330
4B6
100
AcDbEntity
  8
0
 62
     0
370
    -2
100
AcDbLine
 10
392.8560287886744
 20
189.0773413858963
 30
0.0
 11
392.8560287886744
 21
244.1330261658594
 31
0.0
  0
LINE
  5
54A
330
4B6
100
AcDbEntity
  8
0
 62
     0
370
    -2
100
AcDbLine
 10
407.8560287886744
 20
184.0773413858963
 30
0.0
 11
407.8560287886744
 21
244.1330261658594
 31
0.0
  0
LINE
  5
54B
330
4B6
100
AcDbEntity
  8
0
 62
     0
370
    -2
100
AcDbLine
 10
394.8560287886744
 20
243.9530261658593
 30
0.0
 11
405.8560287886744
 21
243.9530261658593
 31
0.0
  0
SOLID
  5
54C
330
4B6
100
AcDbEntity
  8
0
 62
     0
100
AcDbTrace
 10
394.8560287886744
 20
244.2863594991927
 30
0.0
 11
394.8560287886744
 21
243.619692832526
 31
0.0
 12
392.8560287886744
 22
243.9530261658593
 32
0.0
 13
392.8560287886744
 23
243.9530261658593
 33
0.0
  0
SOLID
  5
54D
330
4B6
100
AcDbEntity
  8
0
 62
     0
100
AcDbTrace
 10
405.8560287886744
 20
244.2863594991927
 30
0.0
 11
405.8560287886744
 21
243.619692832526
 31
0.0
 12
407.8560287886744
 22
243.9530261658593
 32
0.0
 13
407.8560287886744
 23
243.9530261658593
 33
0.0
  0
MTEXT
  5
54E
330
4B6
100
AcDbEntity
  8
0
 62
     0
100
AcDbMText
 10
400.3560287886744
 20
243.9530261658593
 30
0.0
 40
15.0
 41
0.0
 71
     5
 72
     1
  1
\A1;15.0000
  7
BIGFONT
 73
     1
 44
1.0
  0
POINT
  5
54F
330
4B6
100
AcDbEntity
  8
DEFPOINTS
 62
     0
100
AcDbPoint
 10
392.8560287886744
 20
189.0148413858963
 30
0.0
  0
POINT
  5
550
330
4B6
100
AcDbEntity
  8
DEFPOINTS
 62
     0
100
AcDbPoint
 10
407.8560287886744
 20
184.0148413858963
 30
0.0
  0
POINT
  5
551
330
4B6
100
AcDbEntity
  8
DEFPOINTS
 62
     0
100
AcDbPoint
 10
407.8560287886744
 20
243.9530261658593
 30
0.0
  0
ENDBLK
  5
4C1
330
4B6
100
AcDbEntity
  8
0
100
AcDbBlockEnd
  0
ENDSEC
  0
SECTION
  2
ENTITIES
  0
LINE
  5
3CC
330
195
100
AcDbEntity
  8
1
100
AcDbLine
 10
288.3560287886745
 20
168.0148413858963
 30
0.0
 11
202.3560287886745
 21
168.0148413858963
 31
0.0
  0
LINE
  5
3CD
330
195
100
AcDbEntity
  8
1
100
AcDbLine
 10
202.3560287886744
 20
168.0148413858963
 30
0.0
 11
278.5662643217051
 21
124.0148413858963
 31
0.0
  0
ARC
  5
3CE
330
195
100
AcDbEntity
  8
3
100
AcDbCircle
 10
202.3560287886744
 20
168.0148413858963
 30
0.0
 40
75.0
100
AcDbArc
 50
270.0
 51
90.0
  0
ARC
  5
3CF
330
195
100
AcDbEntity
  8
3
100
AcDbCircle
 10
202.3560287886744
 20
168.0148413858963
 30
0.0
 40
66.0
100
AcDbArc
 50
270.0
 51
76.41730835415721
  0
ARC
  5
3D0
330
195
100
AcDbEntity
  8
3
100
AcDbCircle
 10
202.3560287886743
 20
168.0148413858963
 30
0.0
 40
22.34126028197394
100
AcDbArc
 50
304.835270812163
 51
355.1647291878373
  0
ARC
  5
3D1
330
195
100
AcDbEntity
  8
3
100
AcDbCircle
 10
202.3560287886744
 20
168.0148413858963
 30
0.0
 40
19.0
100
AcDbArc
 50
270.0
 51
90.0
  0
ARC
  5
3D2
330
195
100
AcDbEntity
  8
3
100
AcDbCircle
 10
202.3560287886744
 20
168.0148413858963
 30
0.0
 40
57.0
100
AcDbArc
 50
339.5959304965212
 51
80.40406950347882
  0
LINE
  5
3D3
330
195
100
AcDbEntity
  8
3
100
AcDbLine
 10
225.3278373871216
 20
166.8764171607924
 30
0.0
 11
255.8354202372242
 21
148.1081554515816
 31
0.0
  0
LINE
  5
3D4
330
195
100
AcDbEntity
  8
3
100
AcDbLine
 10
179.3842201902273
 20
166.8764171607924
 30
0.0
 11
148.8766373401248
 21
148.1081554515816
 31
0.0
  0
ARC
  5
3D5
330
195
100
AcDbEntity
  8
3
100
AcDbCircle
 10
202.3560287886744
 20
168.0148413858963
 30
0.0
 40
19.0
100
AcDbArc
 50
90.0
 51
270.0
  0
ARC
  5
3D6
330
195
100
AcDbEntity
  8
3
100
AcDbCircle
 10
202.3560287886745
 20
168.0148413858963
 30
0.0
 40
57.0
100
AcDbArc
 50
99.5959304965212
 51
200.4040695034787
  0
ARC
  5
3D7
330
195
100
AcDbEntity
  8
3
100
AcDbCircle
 10
202.3560287886746
 20
168.0148413858963
 30
0.0
 40
22.34126028197394
100
AcDbArc
 50
184.8352708121627
 51
235.164729187837
  0
LINE
  5
3D8
330
195
100
AcDbEntity
  8
1
100
AcDbLine
 10
202.3560287886744
 20
252.0148413858963
 30
0.0
 11
202.3560287886744
 21
81.01484138589638
 31
0.0
  0
LINE
  5
3D9
330
195
100
AcDbEntity
  8
1
100
AcDbLine
 10
202.3560287886744
 20
168.0148413858963
 30
0.0
 11
126.1457932556438
 21
124.0148413858963
 31
0.0
  0
ARC
  5
3DA
330
195
100
AcDbEntity
  8
3
100
AcDbCircle
 10
202.3560287886745
 20
168.0148413858963
 30
0.0
 40
75.0
100
AcDbArc
 50
90.0
 51
270.0
  0
ARC
  5
3DB
330
195
100
AcDbEntity
  8
3
100
AcDbCircle
 10
202.3560287886744
 20
168.0148413858963
 30
0.0
 40
66.0
100
AcDbArc
 50
103.5826916458427
 51
270.0
  0
ARC
  5
3DC
330
195
100
AcDbEntity
  8
3
100
AcDbCircle
 10
202.3560287886745
 20
168.0148413858963
 30
0.0
 40
57.0
100
AcDbArc
 50
219.595930496521
 51
270.0
  0
LINE
  5
3DD
330
195
100
AcDbEntity
  8
3
100
AcDbLine
 10
189.8842201902273
 20
148.6898836813192
 30
0.0
 11
158.3766373401248
 21
131.6536727796773
 31
0.0
  0
ARC
  5
3DE
330
195
100
AcDbEntity
  8
3
100
AcDbCircle
 10
195.2900377116839
 20
163.9352895355041
 30
0.0
 40
49.84089629921576
100
AcDbArc
 50
200.1806269254141
 51
219.8193730745854
  0
ARC
  5
3DF
330
195
100
AcDbEntity
  8
3
100
AcDbCircle
 10
158.0131732842837
 20
133.0367508649137
 30
0.0
 40
1.430038849035087
100
AcDbArc
 50
225.3899108127759
 51
284.7240398713158
  0
ARC
  5
3E0
330
195
100
AcDbEntity
  8
3
100
AcDbCircle
 10
206.6861558075968
 20
170.5148413858963
 30
0.0
 40
62.84730414348544
100
AcDbArc
 50
217.5497538403633
 51
217.7729863543214
  0
ARC
  5
3E1
330
195
100
AcDbEntity
  8
3
100
AcDbCircle
 10
149.8926860694365
 20
147.1018473032425
 30
0.0
 40
1.430038849035087
100
AcDbArc
 50
135.2759601286841
 51
194.6100891872239
  0
ARC
  5
3E2
330
195
100
AcDbEntity
  8
3
100
AcDbCircle
 10
202.3560287886744
 20
168.0148413858963
 30
0.0
 40
57.0
100
AcDbArc
 50
270.0
 51
320.4040695034789
  0
LINE
  5
3E3
330
195
100
AcDbEntity
  8
3
100
AcDbLine
 10
214.8278373871217
 20
148.6898836813192
 30
0.0
 11
246.3354202372241
 21
131.6536727796773
 31
0.0
  0
ARC
  5
3E4
330
195
100
AcDbEntity
  8
3
100
AcDbCircle
 10
202.3560287886744
 20
168.0148413858963
 30
0.0
 40
23.0
100
AcDbArc
 50
237.1628884221587
 51
270.0
  0
ARC
  5
3E5
330
195
100
AcDbEntity
  8
3
100
AcDbCircle
 10
188.7853526617575
 20
148.903402371317
 30
0.0
 40
1.119419526408067
100
AcDbArc
 50
349.0039953247705
 51
43.72804873369161
  0
ARC
  5
3E6
330
195
100
AcDbEntity
  8
3
100
AcDbCircle
 10
202.3560287886744
 20
168.0148413858963
 30
0.0
 40
23.0
100
AcDbArc
 50
270.0
 51
302.8371115778412
  0
ARC
  5
3E7
330
195
100
AcDbEntity
  8
3
100
AcDbCircle
 10
215.9267049155914
 20
148.903402371317
 30
0.0
 40
1.119419526408067
100
AcDbArc
 50
136.2719512663083
 51
190.9960046752286
  0
ARC
  5
3E8
330
195
100
AcDbEntity
  8
3
100
AcDbCircle
 10
209.4220198656651
 20
163.9352895355041
 30
0.0
 40
49.84089629921576
100
AcDbArc
 50
320.1806269254145
 51
339.8193730745859
  0
ARC
  5
3E9
330
195
100
AcDbEntity
  8
3
100
AcDbCircle
 10
198.0259017697521
 20
170.5148413858963
 30
0.0
 40
62.84730414348544
100
AcDbArc
 50
322.2270136456785
 51
322.4502461596366
  0
ARC
  5
3EA
330
195
100
AcDbEntity
  8
3
100
AcDbCircle
 10
246.6988842930653
 20
133.0367508649137
 30
0.0
 40
1.430038849035087
100
AcDbArc
 50
255.2759601286841
 51
314.610089187224
  0
ARC
  5
3EB
330
195
100
AcDbEntity
  8
3
100
AcDbCircle
 10
254.8193715079124
 20
147.1018473032425
 30
0.0
 40
1.430038849035087
100
AcDbArc
 50
345.3899108127767
 51
44.72403987131587
  0
LINE
  5
3EC
330
195
100
AcDbEntity
  8
1
100
AcDbLine
 10
116.3560287886745
 20
168.0148413858963
 30
0.0
 11
202.3560287886744
 21
168.0148413858963
 31
0.0
  0
CIRCLE
  5
3F0
330
195
100
AcDbEntity
  8
3
100
AcDbCircle
 10
202.3560287886744
 20
230.0148413858963
 30
0.0
 40
6.549999999999999
  0
ARC
  5
3F1
330
195
100
AcDbEntity
  8
3
100
AcDbCircle
 10
202.3560287886744
 20
168.0148413858963
 30
0.0
 40
23.0
100
AcDbArc
 50
357.1628884221591
 51
62.83711157784114
  0
LINE
  5
3F2
330
195
100
AcDbEntity
  8
3
100
AcDbLine
 10
212.8560287886744
 20
188.4782233155775
 30
0.0
 11
211.8560287886745
 21
224.2826959264301
 31
0.0
  0
LINE
  5
3F3
330
195
100
AcDbEntity
  8
3
100
AcDbLine
 10
191.8560287886745
 20
188.4782233155775
 30
0.0
 11
192.8560287886745
 21
224.2826959264301
 31
0.0
  0
ARC
  5
3F4
330
195
100
AcDbEntity
  8
3
100
AcDbCircle
 10
202.3560287886744
 20
168.0148413858963
 30
0.0
 40
22.34126028197394
100
AcDbArc
 50
90.0
 51
115.1647291878373
  0
ARC
  5
3F5
330
195
100
AcDbEntity
  8
3
100
AcDbCircle
 10
202.3560287886744
 20
168.0148413858963
 30
0.0
 40
23.0
100
AcDbArc
 50
117.1628884221588
 51
182.8371115778409
  0
ARC
  5
3F6
330
195
100
AcDbEntity
  8
3
100
AcDbCircle
 10
179.0196990357134
 20
165.8180106207448
 30
0.0
 40
1.119419526408067
100
AcDbArc
 50
16.27195126630876
 51
70.99600467522915
  0
ARC
  5
3F7
330
195
100
AcDbEntity
  8
3
100
AcDbCircle
 10
192.5903751626303
 20
189.3231111656272
 30
0.0
 40
1.119419526408067
100
AcDbArc
 50
229.0039953247714
 51
283.7280487336909
  0
ARC
  5
3F8
330
195
100
AcDbEntity
  8
3
100
AcDbCircle
 10
202.3560287886744
 20
168.0148413858963
 30
0.0
 40
22.34126028197394
100
AcDbArc
 50
64.83527081216266
 51
90.0
  0
ARC
  5
3F9
330
195
100
AcDbEntity
  8
3
100
AcDbCircle
 10
212.1216824147186
 20
189.3231111656272
 30
0.0
 40
1.119419526408067
100
AcDbArc
 50
256.271951266309
 51
310.9960046752285
  0
ARC
  5
3FA
330
195
100
AcDbEntity
  8
3
100
AcDbCircle
 10
194.2355415738273
 20
223.9059259895328
 30
0.0
 40
1.430038849035087
100
AcDbArc
 50
105.3899108127762
 51
164.7240398713163
  0
ARC
  5
3FB
330
195
100
AcDbEntity
  8
3
100
AcDbCircle
 10
202.3560287886744
 20
230.0148413858963
 30
0.0
 40
9.5
100
AcDbArc
 50
186.0423284190542
 51
270.0
  0
LINE
  5
3FC
330
195
100
AcDbEntity
  8
1
100
AcDbLine
 10
183.3560287886745
 20
230.0148413858963
 30
0.0
 11
220.3560287886745
 21
230.0148413858963
 31
0.0
  0
ARC
  5
3FD
330
195
100
AcDbEntity
  8
3
100
AcDbCircle
 10
187.8485616942549
 20
226.6889021656126
 30
0.0
 40
5.569207803271928
100
AcDbArc
 50
24.68585317144137
 51
100.2659787359879
  0
ARC
  5
3FE
330
195
100
AcDbEntity
  8
3
100
AcDbCircle
 10
202.3560287886744
 20
230.0148413858963
 30
0.0
 40
9.5
100
AcDbArc
 50
270.0
 51
353.9576715809457
  0
ARC
  5
3FF
330
195
100
AcDbEntity
  8
3
100
AcDbCircle
 10
202.3560287886744
 20
163.0148413858963
 30
0.0
 40
62.84730414348544
100
AcDbArc
 50
97.54975384036328
 51
97.77298635432217
  0
ARC
  5
400
330
195
100
AcDbEntity
  8
3
100
AcDbCircle
 10
202.3560287886744
 20
176.1739450866806
 30
0.0
 40
49.84089629921576
100
AcDbArc
 50
99.54165625367888
 51
99.81937307458579
  0
CIRCLE
  5
401
330
195
100
AcDbEntity
  8
3
100
AcDbCircle
 10
202.3560287886744
 20
230.0148413858963
 30
0.0
 40
3.299999999999999
  0
CIRCLE
  5
402
330
195
100
AcDbEntity
  8
0
100
AcDbCircle
 10
202.3560287886744
 20
230.0148413858963
 30
0.0
 40
4.0
  0
ARC
  5
403
330
195
100
AcDbEntity
  8
3
100
AcDbCircle
 10
202.3560287886745
 20
176.1739450866806
 30
0.0
 40
49.84089629921576
100
AcDbArc
 50
80.18062692541422
 51
80.45834374632113
  0
ARC
  5
404
330
195
100
AcDbEntity
  8
3
100
AcDbCircle
 10
202.3560287886744
 20
163.0148413858963
 30
0.0
 40
62.84730414348544
100
AcDbArc
 50
82.22701364567784
 51
82.45024615963673
  0
ARC
  5
405
330
195
100
AcDbEntity
  8
3
100
AcDbCircle
 10
210.4765160035217
 20
223.9059259895328
 30
0.0
 40
1.430038849035087
100
AcDbArc
 50
15.27596012868448
 51
74.61008918722376
  0
ARC
  5
406
330
195
100
AcDbEntity
  8
3
100
AcDbCircle
 10
216.8634958830939
 20
226.6889021656126
 30
0.0
 40
5.569207803271928
100
AcDbArc
 50
79.73402126401206
 51
155.3141468285586
  0
ARC
  5
407
330
195
100
AcDbEntity
  8
3
100
AcDbCircle
 10
225.6923585416355
 20
165.8180106207448
 30
0.0
 40
1.119419526408067
100
AcDbArc
 50
109.0039953247708
 51
163.7280487336912
  0
LINE
  5
409
330
195
100
AcDbEntity
  8
3
100
AcDbLine
 10
407.8560287886744
 20
168.0148413858963
 30
0.0
 11
407.8560287886744
 21
152.0148413858963
 31
0.0
  0
LINE
  5
40A
330
195
100
AcDbEntity
  8
2
100
AcDbLine
 10
374.8560287886744
 20
157.6003127520595
 30
0.0
 11
380.3932310668614
 21
165.0990081919792
 31
0.0
  0
LINE
  5
40B
330
195
100
AcDbEntity
  8
1
100
AcDbLine
 10
383.8560287886744
 20
168.0148413858963
 30
0.0
 11
383.8560287886744
 21
136.5148413858963
 31
0.0
  0
LINE
  5
40C
330
195
100
AcDbEntity
  8
3
100
AcDbLine
 10
374.8560287886744
 20
149.0148413858963
 30
0.0
 11
374.8560287886744
 21
168.0148413858963
 31
0.0
  0
ARC
  5
40D
330
195
100
AcDbEntity
  8
2
100
AcDbCircle
 10
395.1696862651682
 20
157.7648413858963
 30
0.0
 40
16.53996993066707
100
AcDbArc
 50
157.7980366804197
 51
202.2019633195802
  0
ARC
  5
40E
330
195
100
AcDbEntity
  8
2
100
AcDbCircle
 10
372.5639369317978
 20
157.7648413858964
 30
0.0
 40
16.52000524694685
100
AcDbArc
 50
337.7697735858653
 51
22.23022641413382
  0
LINE
  5
40F
330
195
100
AcDbEntity
  8
1
100
AcDbLine
 10
369.8560287886745
 20
247.5148413858963
 30
0.0
 11
369.8560287886745
 21
86.01484138589638
 31
0.0
  0
LINE
  5
410
330
195
100
AcDbEntity
  8
3
100
AcDbLine
 10
360.8560287886745
 20
168.0148413858963
 30
0.0
 11
360.8560287886745
 21
102.0148413858963
 31
0.0
  0
MTEXT
  5
412
102
{ACAD_REACTORS
330
411
102
}
330
195
100
AcDbEntity
  8
0
100
AcDbMText
 10
354.3917591603282
 20
77.05254330963068
 30
0.0
 40
4.0
 41
0.0
 71
     9
 72
     1
  1
{\fMS UI Gothic|b0|i0|c128|p2;　}
 73
     1
 44
1.0
  0
ARC
  5
414
330
195
100
AcDbEntity
  8
2
100
AcDbCircle
 10
383.8560287886744
 20
152.9342633394279
 30
0.0
 40
4.244379658108758
100
AcDbArc
 50
199.5375087750162
 51
340.4624912249837
  0
LINE
  5
415
330
195
100
AcDbEntity
  8
2
100
AcDbLine
 10
382.8485060806571
 20
145.0387395772073
 30
0.0
 11
387.3104050475193
 21
150.3864208793141
 31
0.0
  0
ARC
  5
416
330
195
100
AcDbEntity
  8
3
100
AcDbCircle
 10
383.8560287886744
 20
166.2648413858963
 30
0.0
 40
21.25
100
AcDbArc
 50
248.0405323889663
 51
295.0576154183029
  0
MTEXT
  5
418
102
{ACAD_REACTORS
330
417
102
}
330
195
100
AcDbEntity
  8
0
100
AcDbMText
 10
355.0167591603282
 20
77.05254330963068
 30
0.0
 40
4.0
 41
0.0
 71
     9
 72
     1
  1
{\fMS UI Gothic|b0|i0|c128|p2;　}
 73
     1
 44
1.0
  0
LINE
  5
419
330
195
100
AcDbEntity
  8
3
100
AcDbLine
 10
378.8560287886744
 20
102.0148413858963
 30
0.0
 11
378.8560287886744
 21
137.8566274304208
 31
0.0
  0
ARC
  5
41A
330
195
100
AcDbEntity
  8
3
100
AcDbCircle
 10
369.8560287886745
 20
102.0148413858963
 30
0.0
 40
9.0
100
AcDbArc
 50
180.0
 51
0.0
  0
ARC
  5
41B
330
195
100
AcDbEntity
  8
3
100
AcDbCircle
 10
369.8560287886745
 20
105.0148413858963
 30
0.0
 40
6.0
100
AcDbArc
 50
0.940343488609853
 51
179.0596565113901
  0
LINE
  5
41C
330
195
100
AcDbEntity
  8
1
100
AcDbLine
 10
369.8560287886745
 20
102.0148413858963
 30
0.0
 11
382.6700650707463
 21
102.0148413858963
 31
0.0
  0
ARC
  5
41D
330
195
100
AcDbEntity
  8
3
100
AcDbCircle
 10
360.3690312602954
 20
105.4888364426547
 30
0.0
 40
3.50796354699259
100
AcDbArc
 50
277.9799338085512
 51
0.4247441917066443
  0
LINE
  5
41E
330
195
100
AcDbEntity
  8
1
100
AcDbLine
 10
369.8560287886745
 20
102.0148413858963
 30
0.0
 11
358.1730585862386
 21
102.0148413858963
 31
0.0
  0
ARC
  5
41F
330
195
100
AcDbEntity
  8
3
100
AcDbCircle
 10
379.3430263170536
 20
105.4888364426547
 30
0.0
 40
3.50796354699259
100
AcDbArc
 50
179.5752558082933
 51
262.0200661914487
  0
LINE
  5
420
330
195
100
AcDbEntity
  8
3
100
AcDbLine
 10
378.8560287886744
 20
137.8566274304208
 30
0.0
 11
378.8560287886744
 21
140.2953883876453
 31
0.0
  0
ARC
  5
421
330
195
100
AcDbEntity
  8
3
100
AcDbCircle
 10
380.1721540717987
 20
140.0148413858964
 30
0.0
 40
15.06271283132579
100
AcDbArc
 50
156.5258912278376
 51
203.4741087721623
  0
LINE
  5
422
330
195
100
AcDbEntity
  8
3
100
AcDbLine
 10
372.9953854581455
 20
133.3325211048967
 30
0.0
 11
382.8485060806571
 21
145.0387395772073
 31
0.0
  0
ARC
  5
423
330
195
100
AcDbEntity
  8
2
100
AcDbCircle
 10
359.4740298386617
 20
140.0148413858965
 30
0.0
 40
15.12315756871414
100
AcDbArc
 50
336.6253035609738
 51
23.37469643902507
  0
ARC
  5
424
330
195
100
AcDbEntity
  8
3
100
AcDbCircle
 10
369.8560287886745
 20
135.4283115623642
 30
0.0
 40
3.77463878268694
100
AcDbArc
 50
201.9912514948342
 51
326.2734826993684
  0
ARC
  5
427
330
195
100
AcDbEntity
  8
2
100
AcDbCircle
 10
370.3036132660903
 20
135.2144127064597
 30
0.0
 40
3.279666427493991
100
AcDbArc
 50
322.9804936665868
 51
338.545628205376
  0
ARC
  5
428
330
195
100
AcDbEntity
  8
2
100
AcDbCircle
 10
369.8464094118112
 20
144.1194325720616
 30
0.0
 40
3.988734478756093
100
AcDbArc
 50
28.37175553428714
 51
127.7493095296294
  0
LINE
  5
429
330
195
100
AcDbEntity
  8
3
100
AcDbLine
 10
367.4328321553998
 20
147.3390520876688
 30
0.0
 11
374.8560287886744
 21
157.6003127520596
 31
0.0
  0
ARC
  5
42A
330
195
100
AcDbEntity
  8
3
100
AcDbCircle
 10
369.8560287886746
 20
144.1355160731347
 30
0.0
 40
3.972639378446906
100
AcDbArc
 50
129.3281384949641
 51
151.7664211814119
  0
LINE
  5
42B
330
195
100
AcDbEntity
  8
3
100
AcDbLine
 10
374.8560287886744
 20
149.0148413858963
 30
0.0
 11
375.9095787945966
 21
146.5565580387445
 31
0.0
  0
TEXT
  5
42C
330
195
100
AcDbEntity
  8
0
100
AcDbText
 10
394.0864740903407
 20
127.3514739628012
 30
0.0
 40
4.0
  1
%%P0.3
 41
0.7
  7
BIGFONT
100
AcDbText
  0
LINE
  5
42D
330
195
100
AcDbEntity
  8
3
100
AcDbLine
 10
404.8560287886744
 20
149.0148413858963
 30
0.0
 11
392.8560287886744
 21
149.0148413858963
 31
0.0
  0
LINE
  5
42E
330
195
100
AcDbEntity
  8
3
100
AcDbLine
 10
392.8560287886744
 20
149.0148413858963
 30
0.0
 11
392.8560287886744
 21
147.0148413858963
 31
0.0
  0
ARC
  5
42F
330
195
100
AcDbEntity
  8
3
100
AcDbCircle
 10
404.8560287886744
 20
152.0148413858963
 30
0.0
 40
3.0
100
AcDbArc
 50
270.0
 51
0.0
  0
LINE
  5
431
330
195
100
AcDbEntity
  8
3
100
AcDbLine
 10
387.5224366536731
 20
197.6820256558989
 30
0.0
 11
375.8729024966755
 21
219.9810939698943
 31
0.0
  0
ARC
  5
432
330
195
100
AcDbEntity
  8
2
100
AcDbCircle
 10
383.8560287886744
 20
162.6499668029732
 30
0.0
 40
4.226450357819174
100
AcDbArc
 50
18.84059803623823
 51
161.159401963762
  0
LINE
  5
433
330
195
100
AcDbEntity
  8
1
100
AcDbLine
 10
352.464007898286
 20
168.0148413858963
 30
0.0
 11
412.4635763420309
 21
168.0148413858963
 31
0.0
  0
LINE
  5
436
330
195
100
AcDbEntity
  8
3
100
AcDbLine
 10
362.8560287886745
 20
223.4648413858963
 30
0.0
 11
362.8560287886745
 21
236.5648413858963
 31
0.0
  0
ARC
  5
437
330
195
100
AcDbEntity
  8
3
100
AcDbCircle
 10
369.8560287886745
 20
234.0148413858963
 30
0.0
 40
9.0
100
AcDbArc
 50
0.0
 51
180.0
  0
TEXT
  5
438
330
195
100
AcDbEntity
  8
0
100
AcDbText
 10
328.3845079614708
 20
170.7593628704343
 30
0.0
 40
4.0
  1
%%P0.5
 50
90.0
 41
0.7
  7
BIGFONT
100
AcDbText
  0
LINE
  5
439
330
195
100
AcDbEntity
  8
1
100
AcDbLine
 10
383.8560287886744
 20
168.0148413858963
 30
0.0
 11
383.8560287886744
 21
199.5148413858963
 31
0.0
  0
LINE
  5
43A
330
195
100
AcDbEntity
  8
3
100
AcDbLine
 10
366.5290898611643
 20
219.4850984573695
 30
0.0
 11
377.4675799306825
 21
196.9386357287177
 31
0.0
  0
LINE
  5
43B
330
195
100
AcDbEntity
  8
3
100
AcDbLine
 10
360.8560287886745
 20
168.0148413858963
 30
0.0
 11
360.8560287886745
 21
234.0148413858963
 31
0.0
  0
LINE
  5
43C
330
195
100
AcDbEntity
  8
3
100
AcDbLine
 10
374.8560287886744
 20
187.0148413858963
 30
0.0
 11
374.8560287886744
 21
168.0148413858963
 31
0.0
  0
LINE
  5
43D
330
195
100
AcDbEntity
  8
1
100
AcDbLine
 10
372.8560287886744
 20
168.0148413858963
 30
0.0
 11
381.8560287886744
 21
168.0148413858963
 31
0.0
  0
LINE
  5
43E
330
195
100
AcDbEntity
  8
1
100
AcDbLine
 10
372.8560287886744
 20
168.0148413858963
 30
0.0
 11
381.8560287886744
 21
168.0148413858963
 31
0.0
  0
LINE
  5
43F
330
195
100
AcDbEntity
  8
3
100
AcDbLine
 10
374.8560287886744
 20
187.0148413858963
 30
0.0
 11
375.9095787945966
 21
189.4731247330481
 31
0.0
  0
ARC
  5
440
330
195
100
AcDbEntity
  8
3
100
AcDbCircle
 10
366.6060287886744
 20
191.8369980711079
 30
0.0
 40
12.0
100
AcDbArc
 50
0.0
 51
25.15930191603137
  0
ARC
  5
441
330
195
100
AcDbEntity
  8
3
100
AcDbCircle
 10
383.8560287886744
 20
169.7648413858963
 30
0.0
 40
21.25
100
AcDbArc
 50
104.3035365099254
 51
111.9594676110336
  0
LINE
  5
442
330
195
100
AcDbEntity
  8
3
100
AcDbLine
 10
378.6060287886744
 20
190.3561016678703
 30
0.0
 11
378.6060287886744
 21
191.8369980711079
 31
0.0
  0
LINE
  5
443
330
195
100
AcDbEntity
  8
1
100
AcDbLine
 10
354.2476206765878
 20
230.0148413858963
 30
0.0
 11
382.8960636696941
 21
230.0148413858963
 31
0.0
  0
LINE
  5
444
330
195
100
AcDbEntity
  8
3
100
AcDbLine
 10
378.8560287886744
 20
219.0148413858965
 30
0.0
 11
378.8560287886744
 21
214.2709139680095
 31
0.0
  0
LINE
  5
445
330
195
100
AcDbEntity
  8
0
100
AcDbLine
 10
378.8560287886743
 20
234.0148413858963
 30
0.0
 11
362.8560287886745
 21
234.0148413858963
 31
0.0
  0
LINE
  5
446
330
195
100
AcDbEntity
  8
0
100
AcDbLine
 10
362.8560287886745
 20
226.0148413858963
 30
0.0
 11
376.8560287886744
 21
226.0148413858963
 31
0.0
  0
LINE
  5
447
330
195
100
AcDbEntity
  8
3
100
AcDbLine
 10
377.1957583616952
 20
233.3148413858963
 30
0.0
 11
362.8560287886744
 21
233.3148413858963
 31
0.0
  0
LINE
  5
448
330
195
100
AcDbEntity
  8
3
100
AcDbLine
 10
362.8560287886745
 20
226.7148413858963
 30
0.0
 11
376.8560287886744
 21
226.7148413858963
 31
0.0
  0
LINE
  5
449
330
195
100
AcDbEntity
  8
3
100
AcDbLine
 10
360.8560287886745
 20
230.0148413858963
 30
0.0
 11
360.8560287886745
 21
223.4648413858963
 31
0.0
  0
LINE
  5
44A
330
195
100
AcDbEntity
  8
3
100
AcDbLine
 10
360.8560287886745
 20
220.5148413858963
 30
0.0
 11
366.0915242167297
 21
220.5148413858963
 31
0.0
  0
LINE
  5
44B
330
195
100
AcDbEntity
  8
3
100
AcDbLine
 10
360.8560287886745
 20
223.4648413858963
 30
0.0
 11
362.8560287886745
 21
223.4648413858963
 31
0.0
  0
ARC
  5
44C
330
195
100
AcDbEntity
  8
3
100
AcDbCircle
 10
380.1060287886744
 20
225.8621455293818
 30
0.0
 40
15.0
100
AcDbArc
 50
200.8846032256441
 51
205.1593019160321
  0
LINE
  5
44D
330
195
100
AcDbEntity
  8
3
100
AcDbLine
 10
378.8560287886744
 20
234.0148413858963
 30
0.0
 11
378.8560287886744
 21
219.0148413858965
 31
0.0
  0
LINE
  5
44E
330
195
100
AcDbEntity
  8
3
100
AcDbLine
 10
376.8560287886744
 20
233.0148413858963
 30
0.0
 11
376.8560287886744
 21
222.5148413858963
 31
0.0
  0
ARC
  5
44F
330
195
100
AcDbEntity
  8
3
100
AcDbCircle
 10
386.6060287886745
 20
225.3476571158937
 30
0.0
 40
12.0
100
AcDbArc
 50
199.4936236905144
 51
206.565051177078
  0
LINE
  5
450
330
195
100
AcDbEntity
  8
3
100
AcDbLine
 10
376.8560287886744
 20
222.5148413858963
 30
0.0
 11
375.2938851828673
 21
221.3432336815409
 31
0.0
  0
ARC
  5
451
330
195
100
AcDbEntity
  8
3
100
AcDbCircle
 10
379.3430263170536
 20
230.540846329138
 30
0.0
 40
3.50796354699259
100
AcDbArc
 50
97.97993380855123
 51
135.1501685456045
  0
LINE
  5
456
330
195
100
AcDbEntity
  8
3
100
AcDbLine
 10
362.8560287886745
 20
236.5648413858963
 30
0.0
 11
361.224835360185
 21
236.5648413858963
 31
0.0
  0
ARC
  5
458
330
195
100
AcDbEntity
  8
3
100
AcDbCircle
 10
374.1060287886744
 20
190.9738217233995
 30
0.0
 40
15.0
100
AcDbArc
 50
0.0
 51
26.56505117707798
  0
LINE
  5
459
330
195
100
AcDbEntity
  8
3
100
AcDbLine
 10
407.8560287886744
 20
168.0148413858963
 30
0.0
 11
407.8560287886744
 21
184.0148413858963
 31
0.0
  0
LINE
  5
45A
330
195
100
AcDbEntity
  8
3
100
AcDbLine
 10
404.8560287886744
 20
187.0148413858963
 30
0.0
 11
392.8560287886744
 21
187.0148413858963
 31
0.0
  0
LINE
  5
45B
330
195
100
AcDbEntity
  8
3
100
AcDbLine
 10
392.8560287886744
 20
187.0148413858963
 30
0.0
 11
392.8560287886744
 21
189.0148413858963
 31
0.0
  0
ARC
  5
45C
330
195
100
AcDbEntity
  8
3
100
AcDbCircle
 10
383.8560287886744
 20
169.7648413858963
 30
0.0
 40
21.25
100
AcDbArc
 50
64.94238458169707
 51
75.69646349007456
  0
LINE
  5
45D
330
195
100
AcDbEntity
  8
3
100
AcDbLine
 10
389.1060287886744
 20
190.3561016678703
 30
0.0
 11
389.1060287886744
 21
190.9738217233995
 31
0.0
  0
ARC
  5
45E
330
195
100
AcDbEntity
  8
3
100
AcDbCircle
 10
404.8560287886744
 20
184.0148413858963
 30
0.0
 40
3.0
100
AcDbArc
 50
0.0
 51
90.0
  0
TEXT
  5
461
330
195
100
AcDbEntity
  8
0
100
AcDbText
 10
399.7169530501302
 20
247.2466564686282
 30
0.0
 40
4.0
  1
%%P0.3
 41
0.7
  7
BIGFONT
100
AcDbText
  0
ENDSEC
  0
SECTION
  2
OBJECTS
  0
DICTIONARY
  5
18A
330
0
100
AcDbDictionary
281
     1
  3
ACAD_GROUP
350
18B
  3
ACAD_LAYOUT
350
1BF
  3
ACAD_MLINESTYLE
350
198
  3
ACAD_PLOTSETTINGS
350
1C0
  3
ACAD_PLOTSTYLENAME
350
1BD
  3
ACDBVARIABLEDICTIONARY
350
1AF
  3
AcmDictionary
350
27C
  3
AMG
350
1C4
  3
AMGSNAPSETTINGS
350
29A
  3
DWGPROPS
350
2A2
  3
MAPISURF_MODULE
350
24F
  0
DICTIONARY
  5
553
330
195
100
AcDbDictionary
280
     1
281
     1
  3
ACAD_INDEX
360
554
  0
DICTIONARY
  5
18B
102
{ACAD_REACTORS
330
18A
102
}
330
18A
100
AcDbDictionary
281
     1
  0
DICTIONARY
  5
1BF
102
{ACAD_REACTORS
330
18A
102
}
330
18A
100
AcDbDictionary
281
     1
  3
Model
350
1C1
  3
ﾚｲｱｳﾄ1
350
1C2
  0
DICTIONARY
  5
198
102
{ACAD_REACTORS
330
18A
102
}
330
18A
100
AcDbDictionary
281
     1
  3
STANDARD
350
199
  0
DICTIONARY
  5
1C0
102
{ACAD_REACTORS
330
18A
102
}
330
18A
100
AcDbDictionary
281
     1
  0
ACDBDICTIONARYWDFLT
  5
1BD
102
{ACAD_REACTORS
330
18A
102
}
330
18A
100
AcDbDictionary
281
     1
  3
Normal
350
1BE
100
AcDbDictionaryWithDefault
340
1BE
  0
DICTIONARY
  5
1AF
102
{ACAD_REACTORS
330
18A
102
}
330
18A
100
AcDbDictionary
281
     1
  3
DIMADEC
350
1B0
  3
DIMASSOC
350
55F
  3
INDEXCTL
350
55E
  0
DICTIONARY
  5
27C
102
{ACAD_REACTORS
330
18A
102
}
330
18A
100
AcDbDictionary
281
     1
  3
AcmBOMDATA
350
27D
  3
AcmStdDictionary
350
3B4
  0
DICTIONARY
  5
1C4
102
{ACAD_REACTORS
330
18A
102
}
330
18A
100
AcDbDictionary
281
     1
  3
AcMgSettings
350
1C5
  3
AMGLAYCFG
350
289
  0
DICTIONARY
  5
29A
102
{ACAD_REACTORS
330
18A
102
}
330
18A
100
AcDbDictionary
281
     1
  3
DIMENSION
350
29F
  3
FEA
350
29E
  3
HATCH (1)
350
29B
  3
HATCH (2)
350
29C
  3
SIMPLE WELD
350
2A0
  3
SYMBOLS
350
29D
  0
XRECORD
  5
2A2
102
{ACAD_REACTORS
330
18A
102
}
330
18A
100
AcDbXrecord
280
     1
  1
DWGPROPS COOKIE
  2

  3

  4

  6

  7

  8

  9

300
AmdtFileType=84
301
=
302
=
303
=
304
=
305
=
306
=
307
=
308
=
309
=
 40
0.0015818518518519
 41
2450863.959268982
 42
2453551.645883055
  1

 90
        1
  0
DICTIONARY
  5
554
102
{ACAD_REACTORS
330
553
102
}
330
553
100
AcDbDictionary
281
     1
  3
*A1
350
555
  0
LAYOUT
  5
1C1
102
{ACAD_REACTORS
330
1BF
102
}
330
1BF
100
AcDbPlotSettings
  1

  2
\\KONISHIDENXP\SHARP MX-2700FG
  4

  6

 40
0.0
 41
0.0
 42
0.0
 43
0.0
 44
0.0
 45
0.0
 46
0.0
 47
0.0
 48
0.0
 49
0.0
140
0.0
141
0.0
142
1.0
143
1.0
 70
  1712
 72
     0
 73
     0
 74
     0
  7

 75
     0
147
1.0
148
0.0
149
0.0
100
AcDbLayout
  1
Model
 70
     1
 71
     0
 10
0.0
 20
0.0
 11
12.0
 21
9.0
 12
0.0
 22
0.0
 32
0.0
 14
0.0
 24
0.0
 34
0.0
 15
0.0
 25
0.0
 35
0.0
146
0.0
 13
0.0
 23
0.0
 33
0.0
 16
1.0
 26
0.0
 36
0.0
 17
0.0
 27
1.0
 37
0.0
 76
     0
330
195
  0
LAYOUT
  5
1C2
102
{ACAD_REACTORS
330
1BF
102
}
330
1BF
100
AcDbPlotSettings
  1

  2
\\KONISHIDENXP\SHARP MX-2700FG
  4

  6

 40
0.0
 41
0.0
 42
0.0
 43
0.0
 44
0.0
 45
0.0
 46
0.0
 47
0.0
 48
0.0
 49
0.0
140
0.0
141
0.0
142
1.0
143
1.0
 70
   688
 72
     0
 73
     0
 74
     5
  7

 75
    16
147
1.0
148
0.0
149
0.0
100
AcDbLayout
  1
ﾚｲｱｳﾄ1
 70
     0
 71
     1
 10
0.0
 20
0.0
 11
12.0
 21
9.0
 12
0.0
 22
0.0
 32
0.0
 14
1.000000000000000E+20
 24
1.000000000000000E+20
 34
1.000000000000000E+20
 15
-1.000000000000000E+20
 25
-1.000000000000000E+20
 35
-1.000000000000000E+20
146
0.0
 13
0.0
 23
0.0
 33
0.0
 16
1.0
 26
0.0
 36
0.0
 17
0.0
 27
1.0
 37
0.0
 76
     0
330
192
  0
MLINESTYLE
  5
199
102
{ACAD_REACTORS
330
198
102
}
330
198
100
AcDbMlineStyle
  2
STANDARD
 70
     0
  3

 62
   256
 51
90.0
 52
90.0
 71
     2
 49
0.5
 62
   256
  6
BYLAYER
 49
-0.5
 62
   256
  6
BYLAYER
  0
ACDBPLACEHOLDER
  5
1BE
102
{ACAD_REACTORS
330
1BD
102
}
330
1BD
  0
DICTIONARYVAR
  5
1B0
102
{ACAD_REACTORS
330
1AF
102
}
330
1AF
100
DictionaryVariables
280
     0
  1
0
  0
DICTIONARYVAR
  5
55F
102
{ACAD_REACTORS
330
1AF
102
}
330
1AF
100
DictionaryVariables
280
     0
  1
0
  0
DICTIONARYVAR
  5
55E
102
{ACAD_REACTORS
330
1AF
102
}
330
1AF
100
DictionaryVariables
280
     0
  1
1
  0
ACMDATADICTIONARY
  5
27D
102
{ACAD_REACTORS
330
27C
102
}
330
27C
100
AcDbDictionary
281
     1
  3
*A1
350
27E
100
AcmDataDictionary
  0
DICTIONARY
  5
3B4
102
{ACAD_REACTORS
330
27C
102
}
330
27C
100
AcDbDictionary
281
     1
  3
ISO
350
3B5
  0
DICTIONARY
  5
1C5
102
{ACAD_REACTORS
330
1C4
102
}
330
1C4
100
AcDbDictionary
281
     1
  3
DWGSETTINGS
350
1C6
  0
ACAMGFILTERDAT
  5
29F
102
{ACAD_REACTORS
330
29A
102
}
330
29A
100
AcAmgFilterDat
 70
    15
  1
DIMENSION,AMDT_*_DIM
  2
*
  3
*
  4
*
  5
*
290
     1
  0
ACAMGFILTERDAT
  5
29E
102
{ACAD_REACTORS
330
29A
102
}
330
29A
100
AcAmgFilterDat
 70
    15
  1
*
  2
AM_FEA-AM_*
  3
*
  4
*
  5
*
290
     1
  0
ACAMGFILTERDAT
  5
29B
102
{ACAD_REACTORS
330
29A
102
}
330
29A
100
AcAmgFilterDat
 70
    15
  1
HATCH
  2
*
  3
*
  4
*
  5
*
290
     1
  0
ACAMGFILTERDAT
  5
29C
102
{ACAD_REACTORS
330
29A
102
}
330
29A
100
AcAmgFilterDat
 70
    15
  1
LINE
  2
8,8N,*-8,*-8N,AM_8,AM_8N,*-AM_8,*-AM_8N
  3
*
  4
*
  5
INSERT,STDPART2D
290
     1
  0
ACAMGFILTERDAT
  5
2A0
102
{ACAD_REACTORS
330
29A
102
}
330
29A
100
AcAmgFilterDat
 70
    15
  1
ARC
  2
AM_5
  3
*
  4
2
  5
INSERT
290
     0
  0
ACAMGFILTERDAT
  5
29D
102
{ACAD_REACTORS
330
29A
102
}
330
29A
100
AcAmgFilterDat
 70
    15
  1
ACMFCFRAME,ACMDATUMTARGET,ACMDATUMID,ACMWELDSYM,ACMSURFSYM,ACMFEATID,ACMPARTREF,ACMBALLOON,AMDTEDGESYM,AMGSCREWCALCTABLE
  2
*
  3
*
  4
*
  5
*
290
     1
  0
LAYER_INDEX
  5
555
102
{ACAD_REACTORS
330
554
102
}
330
554
100
AcDbIndex
 40
2456448.418015764
100
AcDbLayerIndex
  8
0
360
556
 90
        8
  8
1
360
557
 90
       15
  8
3
360
558
 90
       99
  8
4
360
559
 90
        0
  8
10
360
55A
 90
        0
  8
11
360
55B
 90
        0
  8
2
360
55C
 90
        9
  8
DEFPOINTS
360
55D
 90
        0
  0
ACMDATAENTRYBLOCK
  5
27E
102
{ACAD_REACTORS
330
27D
102
}
330
27D
100
AcmDataEntry
100
AcmDataEntryBlock
  0
IDBUFFER
  5
556
330
0
100
AcDbIdBuffer
330
402
330
412
330
418
330
42C
330
438
330
445
330
446
330
461
  0
IDBUFFER
  5
557
330
0
100
AcDbIdBuffer
330
3CC
330
3CD
330
3D8
330
3D9
330
3EC
330
3FC
330
40B
330
40F
330
41C
330
41E
330
433
330
439
330
43D
330
43E
330
443
  0
IDBUFFER
  5
558
330
0
100
AcDbIdBuffer
330
406
330
407
330
409
330
40C
330
410
330
416
330
419
330
41A
330
41B
330
41D
330
41F
330
420
330
421
330
422
330
424
330
429
330
42A
330
42B
330
42D
330
42E
330
42F
330
431
330
436
330
437
330
43A
330
43B
330
43C
330
43F
330
440
330
441
330
442
330
444
330
447
330
448
330
449
330
44A
330
44B
330
44C
330
44D
330
44E
330
44F
330
450
330
451
330
456
330
458
330
459
330
45A
330
45B
330
45C
330
45D
330
45E
330
3CE
330
3CF
330
3D0
330
3D1
330
3D2
330
3D3
330
3D4
330
3D5
330
3D6
330
3D7
330
3DA
330
3DB
330
3DC
330
3DD
330
3DE
330
3DF
330
3E0
330
3E1
330
3E2
330
3E3
330
3E4
330
3E5
330
3E6
330
3E7
330
3E8
330
3E9
330
3EA
330
3EB
330
3F0
330
3F1
330
3F2
330
3F3
330
3F4
330
3F5
330
3F6
330
3F7
330
3F8
330
3F9
330
3FA
330
3FB
330
3FD
330
3FE
330
3FF
330
400
330
401
330
403
330
404
330
405
  0
IDBUFFER
  5
559
330
0
100
AcDbIdBuffer
  0
IDBUFFER
  5
55A
330
0
100
AcDbIdBuffer
  0
IDBUFFER
  5
55B
330
0
100
AcDbIdBuffer
  0
IDBUFFER
  5
55C
330
0
100
AcDbIdBuffer
330
40A
330
40D
330
40E
330
414
330
415
330
423
330
427
330
428
330
432
  0
IDBUFFER
  5
55D
330
0
100
AcDbIdBuffer
  0
ENDSEC
  0
EOF
