  0
SECTION
  2
HEADER
  9
$ACADVER
  1
AC1014
  9
$ACADMAINTVER
 70
     0
  9
$DWGCODEPAGE
  3
ANSI_932
  9
$INSBASE
 10
0.0
 20
0.0
 30
0.0
  9
$EXTMIN
 10
40.0
 20
70.0
 30
0.0
  9
$EXTMAX
 10
292.5
 20
190.0
 30
0.0
  9
$LIMMIN
 10
0.0
 20
0.0
  9
$LIMMAX
 10
350.0
 20
250.0
  9
$ORTHOMODE
 70
     1
  9
$REGENMODE
 70
     1
  9
$FILLMODE
 70
     1
  9
$QTEXTMODE
 70
     0
  9
$MIRRTEXT
 70
     1
  9
$DRAGMODE
 70
     1
  9
$LTSCALE
 40
20.0
  9
$OSMODE
 70
    33
  9
$ATTMODE
 70
     1
  9
$TEXTSIZE
 40
11.0
  9
$TRACEWID
 40
0.05
  9
$TEXTSTYLE
  7
BIGFONT
  9
$CLAYER
  8
0
  9
$CELTYPE
  6
BYLAYER
  9
$CECOLOR
 62
   256
  9
$CELTSCALE
 40
1.0
  9
$DELOBJ
 70
     1
  9
$DISPSILH
 70
     0
  9
$DIMSCALE
 40
2.0
  9
$DIMASZ
 40
3.0
  9
$DIMEXO
 40
2.0
  9
$DIMDLI
 40
0.38
  9
$DIMRND
 40
0.0
  9
$DIMDLE
 40
0.0
  9
$DIMEXE
 40
2.0
  9
$DIMTP
 40
0.0
  9
$DIMTM
 40
0.0
  9
$DIMTXT
 40
3.2
  9
$DIMCEN
 40
0.09
  9
$DIMTSZ
 40
0.0
  9
$DIMTOL
 70
     0
  9
$DIMLIM
 70
     0
  9
$DIMTIH
 70
     0
  9
$DIMTOH
 70
     0
  9
$DIMSE1
 70
     0
  9
$DIMSE2
 70
     0
  9
$DIMTAD
 70
     1
  9
$DIMZIN
 70
     0
  9
$DIMBLK
  1

  9
$DIMASO
 70
     0
  9
$DIMSHO
 70
     0
  9
$DIMPOST
  1

  9
$DIMAPOST
  1

  9
$DIMALT
 70
     0
  9
$DIMALTD
 70
     2
  9
$DIMALTF
 40
25.4
  9
$DIMLFAC
 40
1.0
  9
$DIMTOFL
 70
     0
  9
$DIMTVP
 40
1.6
  9
$DIMTIX
 70
     1
  9
$DIMSOXD
 70
     0
  9
$DIMSAH
 70
     0
  9
$DIMBLK1
  1

  9
$DIMBLK2
  1

  9
$DIMSTYLE
  2
STANDARD
  9
$DIMCLRD
 70
     0
  9
$DIMCLRE
 70
     0
  9
$DIMCLRT
 70
     0
  9
$DIMTFAC
 40
1.0
  9
$DIMGAP
 40
0.09
  9
$DIMJUST
 70
     0
  9
$DIMSD1
 70
     0
  9
$DIMSD2
 70
     0
  9
$DIMTOLJ
 70
     1
  9
$DIMTZIN
 70
     0
  9
$DIMALTZ
 70
     0
  9
$DIMALTTZ
 70
     0
  9
$DIMFIT
 70
     5
  9
$DIMUPT
 70
     0
  9
$DIMUNIT
 70
     2
  9
$DIMDEC
 70
     4
  9
$DIMTDEC
 70
     4
  9
$DIMALTU
 70
     2
  9
$DIMALTTD
 70
     2
  9
$DIMTXSTY
  7
BIGFONT
  9
$DIMAUNIT
 70
     0
  9
$LUNITS
 70
     2
  9
$LUPREC
 70
     4
  9
$SKETCHINC
 40
0.1
  9
$FILLETRAD
 40
0.0
  9
$AUNITS
 70
     0
  9
$AUPREC
 70
     0
  9
$MENU
  1
ACAD
  9
$ELEVATION
 40
0.0
  9
$PELEVATION
 40
0.0
  9
$THICKNESS
 40
0.0
  9
$LIMCHECK
 70
     0
  9
$BLIPMODE
 70
     0
  9
$CHAMFERA
 40
0.0
  9
$CHAMFERB
 40
0.0
  9
$CHAMFERC
 40
0.0
  9
$CHAMFERD
 40
0.0
  9
$SKPOLY
 70
     0
  9
$TDCREATE
 40
2450857.475395601
  9
$TDUPDATE
 40
2453551.642029074
  9
$TDINDWG
 40
0.0006562847
  9
$TDUSRTIMER
 40
0.0006562847
  9
$USRTIMER
 70
     1
  9
$ANGBASE
 50
0.0
  9
$ANGDIR
 70
     0
  9
$PDMODE
 70
     0
  9
$PDSIZE
 40
0.0
  9
$PLINEWID
 40
0.0
  9
$COORDS
 70
     2
  9
$SPLFRAME
 70
     0
  9
$SPLINETYPE
 70
     6
  9
$SPLINESEGS
 70
     8
  9
$ATTDIA
 70
     0
  9
$ATTREQ
 70
     1
  9
$HANDLING
 70
     1
  9
$HANDSEED
  5
1B6
  9
$SURFTAB1
 70
     6
  9
$SURFTAB2
 70
     6
  9
$SURFTYPE
 70
     6
  9
$SURFU
 70
     6
  9
$SURFV
 70
     6
  9
$UCSNAME
  2

  9
$UCSORG
 10
0.0
 20
0.0
 30
0.0
  9
$UCSXDIR
 10
1.0
 20
0.0
 30
0.0
  9
$UCSYDIR
 10
0.0
 20
1.0
 30
0.0
  9
$PUCSNAME
  2

  9
$PUCSORG
 10
0.0
 20
0.0
 30
0.0
  9
$PUCSXDIR
 10
1.0
 20
0.0
 30
0.0
  9
$PUCSYDIR
 10
0.0
 20
1.0
 30
0.0
  9
$USERI1
 70
     0
  9
$USERI2
 70
     0
  9
$USERI3
 70
     0
  9
$USERI4
 70
     0
  9
$USERI5
 70
     0
  9
$USERR1
 40
0.0
  9
$USERR2
 40
0.0
  9
$USERR3
 40
0.0
  9
$USERR4
 40
0.0
  9
$USERR5
 40
0.0
  9
$WORLDVIEW
 70
     1
  9
$SHADEDGE
 70
     3
  9
$SHADEDIF
 70
    70
  9
$TILEMODE
 70
     1
  9
$MAXACTVP
 70
    16
  9
$PINSBASE
 10
0.0
 20
0.0
 30
0.0
  9
$PLIMCHECK
 70
     0
  9
$PEXTMIN
 10
1.000000E+20
 20
1.000000E+20
 30
1.000000E+20
  9
$PEXTMAX
 10
-1.000000E+20
 20
-1.000000E+20
 30
-1.000000E+20
  9
$PLIMMIN
 10
0.0
 20
0.0
  9
$PLIMMAX
 10
12.0
 20
9.0
  9
$UNITMODE
 70
     0
  9
$VISRETAIN
 70
     0
  9
$PLINEGEN
 70
     1
  9
$PSLTSCALE
 70
     0
  9
$TREEDEPTH
 70
  3020
  9
$PICKSTYLE
 70
     1
  9
$CMLSTYLE
  2
STANDARD
  9
$CMLJUST
 70
     0
  9
$CMLSCALE
 40
1.0
  9
$PROXYGRAPHICS
 70
     1
  9
$MEASUREMENT
 70
     0
  0
ENDSEC
  0
SECTION
  2
CLASSES
  0
CLASS
  1
DICTIONARYVAR
  2
AcDbDictionaryVar
  3
"AutoCAD"
 90
        0
280
     0
281
     0
  0
ENDSEC
  0
SECTION
  2
TABLES
  0
TABLE
  2
VPORT
  5
183
100
AcDbSymbolTable
 70
     2
  0
VPORT
  5
1B5
100
AcDbSymbolTableRecord
100
AcDbViewportTableRecord
  2
*ACTIVE
 70
     0
 10
0.0
 20
0.0
 11
1.0
 21
1.0
 12
221.702756
 22
154.502698
 13
0.0
 23
0.0
 14
10.0
 24
10.0
 15
10.0
 25
10.0
 16
0.0
 26
0.0
 36
1.0
 17
0.0
 27
0.0
 37
0.0
 40
309.005396
 41
1.434944
 42
50.0
 43
0.0
 44
0.0
 50
0.0
 51
0.0
 71
     0
 72
 20000
 73
     1
 74
     1
 75
     0
 76
     0
 77
     0
 78
     2
  0
ENDTAB
  0
TABLE
  2
LTYPE
  5
180
100
AcDbSymbolTable
 70
     4
  0
LTYPE
  5
18C
100
AcDbSymbolTableRecord
100
AcDbLinetypeTableRecord
  2
BYBLOCK
 70
     0
  3

 72
    65
 73
     0
 40
0.0
  0
LTYPE
  5
18D
100
AcDbSymbolTableRecord
100
AcDbLinetypeTableRecord
  2
BYLAYER
 70
     0
  3

 72
    65
 73
     0
 40
0.0
  0
LTYPE
  5
18E
100
AcDbSymbolTableRecord
100
AcDbLinetypeTableRecord
  2
CONTINUOUS
 70
     0
  3
実線
 72
    65
 73
     0
 40
0.0
  0
LTYPE
  5
19D
100
AcDbSymbolTableRecord
100
AcDbLinetypeTableRecord
  2
CENTER
 70
     0
  3
____ _ ____ _ ____ _ ____ _ ____ _ ____ _ ____
 72
    65
 73
     4
 40
2.0
 49
1.25
 74
     0
 49
-0.25
 74
     0
 49
0.25
 74
     0
 49
-0.25
 74
     0
  0
LTYPE
  5
19E
100
AcDbSymbolTableRecord
100
AcDbLinetypeTableRecord
  2
HIDDEN
 70
     0
  3
_ _ _ _ _ _ _ _ _ _ _ _ _ _ _ _ _ _ _ _ _ _ _
 72
    65
 73
     2
 40
0.375
 49
0.25
 74
     0
 49
-0.125
 74
     0
  0
LTYPE
  5
19F
100
AcDbSymbolTableRecord
100
AcDbLinetypeTableRecord
  2
TENSEN1
 70
     0
  3

 72
    65
 73
     2
 40
0.4
 49
0.3
 74
     0
 49
-0.1
 74
     0
  0
ENDTAB
  0
TABLE
  2
LAYER
  5
17D
100
AcDbSymbolTable
 70
     7
  0
LAYER
  5
189
100
AcDbSymbolTableRecord
100
AcDbLayerTableRecord
  2
0
 70
     0
 62
     7
  6
CONTINUOUS
  0
LAYER
  5
1A3
100
AcDbSymbolTableRecord
100
AcDbLayerTableRecord
  2
1
 70
     0
 62
     1
  6
CENTER
  0
LAYER
  5
1A4
100
AcDbSymbolTableRecord
100
AcDbLayerTableRecord
  2
3
 70
     0
 62
     3
  6
CONTINUOUS
  0
LAYER
  5
1A5
100
AcDbSymbolTableRecord
100
AcDbLayerTableRecord
  2
4
 70
     0
 62
     4
  6
CONTINUOUS
  0
LAYER
  5
1A6
100
AcDbSymbolTableRecord
100
AcDbLayerTableRecord
  2
10
 70
     0
 62
     7
  6
CONTINUOUS
  0
LAYER
  5
1A7
100
AcDbSymbolTableRecord
100
AcDbLayerTableRecord
  2
11
 70
     0
 62
     3
  6
CONTINUOUS
  0
LAYER
  5
1A8
100
AcDbSymbolTableRecord
100
AcDbLayerTableRecord
  2
2
 70
     0
 62
     2
  6
HIDDEN
  0
ENDTAB
  0
TABLE
  2
STYLE
  5
17E
100
AcDbSymbolTable
 70
     4
  0
STYLE
  5
18A
100
AcDbSymbolTableRecord
100
AcDbTextStyleTableRecord
  2
STANDARD
 70
     0
 40
0.0
 41
1.0
 50
0.0
 71
     0
 42
0.2
  3
TXT
  4
BIGFONT
  0
STYLE
  5
19A
100
AcDbSymbolTableRecord
100
AcDbTextStyleTableRecord
  2
K80
 70
     0
 40
0.0
 41
0.8
 50
0.0
 71
     0
 42
0.2
  3
TXT
  4
BIGFONT
  0
STYLE
  5
19B
100
AcDbSymbolTableRecord
100
AcDbTextStyleTableRecord
  2
07500
 70
     0
 40
0.0
 41
0.75
 50
0.0
 71
     0
 42
6.0
  3
TXT
  4
BIGFONT
  0
STYLE
  5
19C
100
AcDbSymbolTableRecord
100
AcDbTextStyleTableRecord
  2
BIGFONT
 70
     0
 40
11.0
 41
0.7
 50
0.0
 71
     0
 42
11.0
  3

  4
bigfont
  0
ENDTAB
  0
TABLE
  2
VIEW
  5
181
100
AcDbSymbolTable
 70
     1
  0
VIEW
  5
1A0
100
AcDbSymbolTableRecord
100
AcDbViewTableRecord
  2
ALL
 70
     0
 40
540.0
 10
441.983193
 20
270.0
 41
0.0
 11
0.0
 21
0.0
 31
1.0
 12
0.0
 22
0.0
 32
0.0
 42
0.0
 43
0.0
 44
0.0
 50
0.0
 71
     0
  0
ENDTAB
  0
TABLE
  2
UCS
  5
182
100
AcDbSymbolTable
 70
     0
  0
ENDTAB
  0
TABLE
  2
APPID
  5
184
100
AcDbSymbolTable
 70
     1
  0
APPID
  5
18B
100
AcDbSymbolTableRecord
100
AcDbRegAppTableRecord
  2
ACAD
 70
     0
  0
ENDTAB
  0
TABLE
  2
DIMSTYLE
  5
185
100
AcDbSymbolTable
 70
     1
  0
DIMSTYLE
105
1A2
100
AcDbSymbolTableRecord
100
AcDbDimStyleTableRecord
  2
STANDARD
 70
     0
  3

  4

  5

  6

  7

 40
1.0
 41
0.18
 42
0.0625
 43
0.38
 44
0.18
 45
0.0
 46
0.0
 47
0.0
 48
0.0
140
0.18
141
0.09
142
0.0
143
25.4
144
1.0
145
0.0
146
1.0
147
0.09
 71
     0
 72
     0
 73
     1
 74
     1
 75
     0
 76
     0
 77
     0
 78
     0
170
     0
171
     2
172
     0
173
     0
174
     0
175
     0
176
     0
177
     0
178
     0
270
     2
271
     4
272
     4
273
     2
274
     2
340
19C
275
     0
280
     0
281
     0
282
     0
283
     1
284
     0
285
     0
286
     0
287
     5
288
     0
  0
ENDTAB
  0
TABLE
  2
BLOCK_RECORD
  5
17C
100
AcDbSymbolTable
 70
     3
  0
BLOCK_RECORD
  5
192
100
AcDbSymbolTableRecord
100
AcDbBlockTableRecord
  2
*MODEL_SPACE
  0
BLOCK_RECORD
  5
18F
100
AcDbSymbolTableRecord
100
AcDbBlockTableRecord
  2
*PAPER_SPACE
  0
BLOCK_RECORD
  5
197
100
AcDbSymbolTableRecord
100
AcDbBlockTableRecord
  2
WAKU
  0
BLOCK_RECORD
  5
198
100
AcDbSymbolTableRecord
100
AcDbBlockTableRecord
  2
Z
  0
BLOCK_RECORD
  5
199
100
AcDbSymbolTableRecord
100
AcDbBlockTableRecord
  2
QQ
  0
ENDTAB
  0
ENDSEC
  0
SECTION
  2
BLOCKS
  0
BLOCK
  5
1AB
100
AcDbEntity
  8
0
100
AcDbBlockBegin
  2
*MODEL_SPACE
 70
     0
 10
0.0
 20
0.0
 30
0.0
  3
*MODEL_SPACE
  1

  0
ENDBLK
  5
1AC
100
AcDbEntity
  8
0
100
AcDbBlockEnd
  0
BLOCK
  5
1A9
100
AcDbEntity
 67
     1
  8
0
100
AcDbBlockBegin
  2
*PAPER_SPACE
 70
     0
 10
0.0
 20
0.0
 30
0.0
  3
*PAPER_SPACE
  1

  0
ENDBLK
  5
1AA
100
AcDbEntity
 67
     1
  8
0
100
AcDbBlockEnd
  0
BLOCK
  5
32
100
AcDbEntity
  8
0
100
AcDbBlockBegin
  2
WAKU
 70
     0
 10
549.0
 20
0.0
 30
0.0
  3
WAKU
  1

  0
LINE
  5
33
100
AcDbEntity
  8
11
100
AcDbLine
 10
452.0
 20
12.0
 30
0.0
 11
549.0
 21
12.0
 31
0.0
  0
LINE
  5
34
100
AcDbEntity
  8
11
100
AcDbLine
 10
477.0
 20
0.0
 30
0.0
 11
477.0
 21
12.0
 31
0.0
  0
LINE
  5
35
100
AcDbEntity
  8
11
100
AcDbLine
 10
452.0
 20
12.0
 30
0.0
 11
452.0
 21
0.0
 31
0.0
  0
TEXT
  5
36
100
AcDbEntity
  8
11
100
AcDbText
 10
454.0
 20
8.5
 30
0.0
 40
2.5
  1
尺度
100
AcDbText
  0
TEXT
  5
37
100
AcDbEntity
  8
11
100
AcDbText
 10
479.0
 20
8.5
 30
0.0
 40
2.5
  1
図番
100
AcDbText
  0
ENDBLK
  5
38
100
AcDbEntity
  8
0
100
AcDbBlockEnd
  0
BLOCK
  5
39
100
AcDbEntity
  8
0
100
AcDbBlockBegin
  2
Z
 70
     0
 10
344.168479
 20
97.5
 30
0.0
  3
Z
  1

  0
TEXT
  5
3A
100
AcDbEntity
  8
0
100
AcDbText
 10
349.586653
 20
100.12627
 30
0.0
 40
4.5
  1
０
 50
360.0
 41
0.8
  7
K80
 72
     1
 11
351.146653
 21
100.12627
 31
0.0
100
AcDbText
  0
LINE
  5
3B
100
AcDbEntity
  8
0
100
AcDbLine
 10
339.168479
 20
102.5
 30
0.0
 11
341.168479
 21
102.5
 31
0.0
  0
TEXT
  5
3C
100
AcDbEntity
  8
0
100
AcDbText
 10
345.613578
 20
100.160631
 30
0.0
 40
4.5
  1
０
 50
360.0
 41
0.8
  7
K80
 72
     1
 11
347.173578
 21
100.160631
 31
0.0
100
AcDbText
  0
TEXT
  5
3D
100
AcDbEntity
  8
0
100
AcDbText
 10
335.244716
 20
99.826827
 30
0.0
 40
5.0
  1
Ｖ
 50
360.0
 41
0.8
  7
K80
 72
     1
 11
337.111382
 21
99.826827
 31
0.0
100
AcDbText
  0
TEXT
  5
3E
100
AcDbEntity
  8
0
100
AcDbText
 10
341.502629
 20
100.180702
 30
0.0
 40
4.5
  1
１
 50
360.0
 41
0.8
  7
K80
 72
     1
 11
343.062629
 21
100.180702
 31
0.0
100
AcDbText
  0
ENDBLK
  5
3F
100
AcDbEntity
  8
0
100
AcDbBlockEnd
  0
BLOCK
  5
40
100
AcDbEntity
  8
0
100
AcDbBlockBegin
  2
QQ
 70
     0
 10
270.0
 20
0.0
 30
0.0
  3
QQ
  1

  0
LINE
  5
41
100
AcDbEntity
  8
11
100
AcDbLine
 10
173.0
 20
36.0
 30
0.0
 11
270.0
 21
36.0
 31
0.0
  0
TEXT
  5
42
100
AcDbEntity
  8
11
100
AcDbText
 10
175.0
 20
32.5
 30
0.0
 40
2.5
  1
部品名称
100
AcDbText
  0
LINE
  5
43
100
AcDbEntity
  8
11
100
AcDbLine
 10
173.0
 20
36.0
 30
0.0
 11
173.0
 21
0.0
 31
0.0
  0
LINE
  5
44
100
AcDbEntity
  8
11
100
AcDbLine
 10
173.0
 20
24.0
 30
0.0
 11
270.0
 21
24.0
 31
0.0
  0
TEXT
  5
45
100
AcDbEntity
  8
11
100
AcDbText
 10
175.0
 20
20.5
 30
0.0
 40
2.5
  1
品番
100
AcDbText
  0
LINE
  5
46
100
AcDbEntity
  8
11
100
AcDbLine
 10
173.0
 20
12.0
 30
0.0
 11
270.0
 21
12.0
 31
0.0
  0
TEXT
  5
47
100
AcDbEntity
  8
11
100
AcDbText
 10
175.0
 20
8.5
 30
0.0
 40
2.5
  1
尺度
100
AcDbText
  0
TEXT
  5
48
100
AcDbEntity
  8
11
100
AcDbText
 10
200.0
 20
8.5
 30
0.0
 40
2.5
  1
図番
100
AcDbText
  0
LINE
  5
49
100
AcDbEntity
  8
11
100
AcDbLine
 10
198.0
 20
0.0
 30
0.0
 11
198.0
 21
12.0
 31
0.0
  0
ENDBLK
  5
4A
100
AcDbEntity
  8
0
100
AcDbBlockEnd
  0
ENDSEC
  0
SECTION
  2
ENTITIES
  0
LINE
  5
4B
100
AcDbEntity
  8
1
100
AcDbLine
 10
160.0
 20
130.0
 30
0.0
 11
40.0
 21
130.0
 31
0.0
  0
LINE
  5
4C
100
AcDbEntity
  8
1
100
AcDbLine
 10
100.0
 20
70.0
 30
0.0
 11
100.0
 21
190.0
 31
0.0
  0
LINE
  5
4D
100
AcDbEntity
  8
1
100
AcDbLine
 10
117.0
 20
170.0
 30
0.0
 11
83.0
 21
170.0
 31
0.0
  0
CIRCLE
  5
4E
100
AcDbEntity
  8
0
100
AcDbCircle
 10
100.0
 20
130.0
 30
0.0
 40
50.0
  0
ARC
  5
4F
100
AcDbEntity
  8
0
100
AcDbCircle
 10
100.0
 20
170.0
 30
0.0
 40
7.0
100
AcDbArc
 50
193.02038
 51
346.97962
  0
ARC
  5
64
100
AcDbEntity
  8
0
100
AcDbCircle
 10
99.901617
 20
129.940899
 30
0.0
 40
42.0
100
AcDbArc
 50
103.116649
 51
75.959478
  0
CIRCLE
  5
65
100
AcDbEntity
  8
0
100
AcDbCircle
 10
99.901617
 20
129.940899
 30
0.0
 40
11.0
  0
CIRCLE
  5
66
100
AcDbEntity
  8
0
100
AcDbCircle
 10
99.901617
 20
129.940899
 30
0.0
 40
12.5
  0
ARC
  5
67
100
AcDbEntity
  8
0
100
AcDbCircle
 10
89.449799
 20
160.655657
 30
0.0
 40
3.1758
100
AcDbArc
 50
353.110917
 51
92.520634
  0
ARC
  5
68
100
AcDbEntity
  8
0
100
AcDbCircle
 10
111.046784
 20
159.698848
 30
0.0
 40
3.868347
100
AcDbArc
 50
88.136291
 51
171.438587
  0
ARC
  5
69
100
AcDbEntity
  8
0
100
AcDbCircle
 10
99.901617
 20
129.940899
 30
0.0
 40
35.5
100
AcDbArc
 50
348.777582
 51
70.595192
  0
ARC
  5
6A
100
AcDbEntity
  8
0
100
AcDbCircle
 10
99.901617
 20
129.940899
 30
0.0
 40
35.5
100
AcDbArc
 50
229.638195
 51
310.063821
  0
ARC
  5
6B
100
AcDbEntity
  8
0
100
AcDbCircle
 10
99.901617
 20
129.940899
 30
0.0
 40
35.5
100
AcDbArc
 50
108.431954
 51
190.771964
  0
ARC
  5
6C
100
AcDbEntity
  8
0
100
AcDbCircle
 10
131.621683
 20
123.915779
 30
0.0
 40
3.207739
100
AcDbArc
 50
234.138754
 51
338.955302
  0
LINE
  5
6D
100
AcDbEntity
  8
0
100
AcDbLine
 10
111.720761
 20
163.418948
 30
0.0
 11
111.170122
 21
163.569026
 31
0.0
  0
LINE
  5
6E
100
AcDbEntity
  8
0
100
AcDbLine
 10
88.672701
 20
163.610877
 30
0.0
 11
89.315699
 21
163.82775
 31
0.0
  0
LINE
  5
6F
100
AcDbEntity
  8
0
100
AcDbLine
 10
134.608178
 20
122.735878
 30
0.0
 11
134.710226
 21
123.041827
 31
0.0
  0
LINE
  5
70
100
AcDbEntity
  8
0
100
AcDbLine
 10
129.75065
 20
121.31831
 30
0.0
 11
129.485323
 21
121.481482
 31
0.0
  0
ARC
  5
71
100
AcDbEntity
  8
0
100
AcDbCircle
 10
119.773349
 20
105.530172
 30
0.0
 40
4.037781
100
AcDbArc
 50
316.610715
 51
48.387104
  0
ARC
  5
72
100
AcDbEntity
  8
0
100
AcDbCircle
 10
79.603308
 20
105.466155
 30
0.0
 40
3.720368
100
AcDbArc
 50
127.567268
 51
224.113322
  0
ARC
  5
73
100
AcDbEntity
  8
0
100
AcDbCircle
 10
68.421987
 20
124.620023
 30
0.0
 40
3.643465
100
AcDbArc
 50
201.204143
 51
294.803745
  0
LINE
  5
74
100
AcDbEntity
  8
0
100
AcDbLine
 10
69.892925
 20
121.289668
 30
0.0
 11
69.984985
 21
121.324169
 31
0.0
  0
ARC
  5
75
100
AcDbEntity
  8
0
100
AcDbCircle
 10
109.30694
 20
168.307762
 30
0.0
 40
2.495951
100
AcDbArc
 50
70.232422
 51
177.962307
  0
ARC
  5
76
100
AcDbEntity
  8
0
100
AcDbCircle
 10
90.513439
 20
168.217806
 30
0.0
 40
2.708651
100
AcDbArc
 50
3.782852
 51
88.640974
  0
ARC
  5
77
100
AcDbEntity
  8
0
100
AcDbCircle
 10
99.901617
 20
129.940899
 30
0.0
 40
15.5
100
AcDbArc
 50
12.389971
 51
48.444655
  0
ARC
  5
78
100
AcDbEntity
  8
0
100
AcDbCircle
 10
99.901617
 20
129.940899
 30
0.0
 40
15.5
100
AcDbArc
 50
249.790975
 51
289.572233
  0
ARC
  5
79
100
AcDbEntity
  8
0
100
AcDbCircle
 10
99.901617
 20
129.940899
 30
0.0
 40
15.5
100
AcDbArc
 50
130.157055
 51
170.908242
  0
LINE
  5
7A
100
AcDbEntity
  8
0
100
AcDbLine
 10
108.826228
 20
143.621387
 30
0.0
 11
107.221542
 21
160.274727
 31
0.0
  0
ARC
  5
7B
100
AcDbEntity
  8
0
100
AcDbCircle
 10
113.10932
 20
144.939191
 30
0.0
 40
4.488
100
AcDbArc
 50
196.828331
 51
229.396896
  0
LINE
  5
7C
100
AcDbEntity
  8
0
100
AcDbLine
 10
116.123078
 20
131.088848
 30
0.0
 11
129.480264
 21
121.468231
 31
0.0
  0
ARC
  5
7D
100
AcDbEntity
  8
0
100
AcDbCircle
 10
119.437713
 20
134.100076
 30
0.0
 40
4.474683
100
AcDbArc
 50
190.694763
 51
222.331053
  0
LINE
  5
7E
100
AcDbEntity
  8
0
100
AcDbLine
 10
107.171345
 20
115.523186
 30
0.0
 11
122.498923
 21
108.549259
 31
0.0
  0
ARC
  5
7F
100
AcDbEntity
  8
0
100
AcDbCircle
 10
106.832182
 20
107.753387
 30
0.0
 40
7.775361
100
AcDbArc
 50
87.52305
 51
102.987595
  0
LINE
  5
80
100
AcDbEntity
  8
0
100
AcDbLine
 10
92.915452
 20
115.569186
 30
0.0
 11
77.325289
 21
108.417643
 31
0.0
  0
ARC
  5
81
100
AcDbEntity
  8
0
100
AcDbCircle
 10
93.233552
 20
110.676442
 30
0.0
 40
4.902696
100
AcDbArc
 50
74.304157
 51
93.840283
  0
LINE
  5
82
100
AcDbEntity
  8
0
100
AcDbLine
 10
83.902907
 20
130.823338
 30
0.0
 11
69.949999
 21
121.316105
 31
0.0
  0
ARC
  5
83
100
AcDbEntity
  8
0
100
AcDbCircle
 10
82.128327
 20
132.547981
 30
0.0
 40
2.4744
100
AcDbArc
 50
315.868173
 51
356.876191
  0
LINE
  5
84
100
AcDbEntity
  8
0
100
AcDbLine
 10
90.864334
 20
143.522967
 30
0.0
 11
92.60267
 21
160.274727
 31
0.0
  0
ARC
  5
85
100
AcDbEntity
  8
0
100
AcDbCircle
 10
88.192493
 20
143.841486
 30
0.0
 40
2.679435
100
AcDbArc
 50
309.622423
 51
353.491328
  0
LINE
  5
C9
100
AcDbEntity
  8
2
100
AcDbLine
 10
255.001261
 20
118.018924
 30
0.0
 11
257.001261
 21
116.018924
 31
0.0
  0
LINE
  5
CA
100
AcDbEntity
  8
2
100
AcDbLine
 10
255.001261
 20
142.018924
 30
0.0
 11
257.001261
 21
144.018924
 31
0.0
  0
ARC
  5
CB
100
AcDbEntity
  8
0
100
AcDbCircle
 10
250.001261
 20
88.018924
 30
0.0
 40
8.0
100
AcDbArc
 50
180.0
 51
0.0
  0
ARC
  5
CC
100
AcDbEntity
  8
0
100
AcDbCircle
 10
250.001261
 20
172.018924
 30
0.0
 40
8.0
100
AcDbArc
 50
0.0
 51
180.0
  0
LINE
  5
CD
100
AcDbEntity
  8
1
100
AcDbLine
 10
232.5
 20
130.0
 30
0.0
 11
292.5
 21
130.0
 31
0.0
  0
LINE
  5
CE
100
AcDbEntity
  8
2
100
AcDbLine
 10
255.001261
 20
130.018924
 30
0.0
 11
255.001261
 21
118.018924
 31
0.0
  0
LINE
  5
CF
100
AcDbEntity
  8
0
100
AcDbLine
 10
242.001261
 20
130.018924
 30
0.0
 11
242.001261
 21
88.018924
 31
0.0
  0
LINE
  5
D0
100
AcDbEntity
  8
1
100
AcDbLine
 10
250.0
 20
70.0
 30
0.0
 11
250.0
 21
190.0
 31
0.0
  0
LINE
  5
D1
100
AcDbEntity
  8
0
100
AcDbLine
 10
242.001261
 20
130.018924
 30
0.0
 11
242.001261
 21
172.018924
 31
0.0
  0
LINE
  5
D2
100
AcDbEntity
  8
2
100
AcDbLine
 10
255.001261
 20
130.018924
 30
0.0
 11
255.001261
 21
142.018924
 31
0.0
  0
LINE
  5
D3
100
AcDbEntity
  8
0
100
AcDbLine
 10
272.001261
 20
146.018924
 30
0.0
 11
272.001261
 21
114.018924
 31
0.0
  0
LINE
  5
D4
100
AcDbEntity
  8
0
100
AcDbLine
 10
282.001261
 20
130.018924
 30
0.0
 11
282.001261
 21
116.018924
 31
0.0
  0
LINE
  5
D5
100
AcDbEntity
  8
0
100
AcDbLine
 10
258.001261
 20
130.018924
 30
0.0
 11
258.001261
 21
88.018924
 31
0.0
  0
LINE
  5
D6
100
AcDbEntity
  8
0
100
AcDbLine
 10
281.001261
 20
115.018924
 30
0.0
 11
272.001261
 21
115.018924
 31
0.0
  0
ARC
  5
D7
100
AcDbEntity
  8
0
100
AcDbCircle
 10
280.988797
 20
116.031388
 30
0.0
 40
1.012541
100
AcDbArc
 50
270.705346
 51
359.294654
  0
LINE
  5
D8
100
AcDbEntity
  8
0
100
AcDbLine
 10
258.001261
 20
130.018924
 30
0.0
 11
258.001261
 21
172.018924
 31
0.0
  0
ARC
  5
D9
100
AcDbEntity
  8
0
100
AcDbCircle
 10
266.120309
 20
129.852257
 30
0.0
 40
17.203102
100
AcDbArc
 50
70.010119
 51
79.400343
  0
LINE
  5
DA
100
AcDbEntity
  8
0
100
AcDbLine
 10
282.001261
 20
130.018924
 30
0.0
 11
282.001261
 21
144.018924
 31
0.0
  0
LINE
  5
DB
100
AcDbEntity
  8
0
100
AcDbLine
 10
281.001261
 20
145.018924
 30
0.0
 11
272.001261
 21
145.018924
 31
0.0
  0
ARC
  5
DC
100
AcDbEntity
  8
0
100
AcDbCircle
 10
280.994984
 20
144.012646
 30
0.0
 40
1.006297
100
AcDbArc
 50
0.357413
 51
89.642587
  0
LINE
  5
DD
100
AcDbEntity
  8
0
100
AcDbLine
 10
269.153978
 20
146.821622
 30
0.0
 11
257.947712
 21
158.02069
 31
0.0
  0
ARC
  5
DE
100
AcDbEntity
  8
0
100
AcDbCircle
 10
262.9488
 20
149.3687
 30
0.0
 40
6.874078
100
AcDbArc
 50
269.710994
 51
337.104768
  0
ARC
  5
DF
100
AcDbEntity
  8
0
100
AcDbCircle
 10
263.326178
 20
146.752536
 30
0.0
 40
4.267335
100
AcDbArc
 50
205.54035
 51
266.174507
  0
LINE
  5
E0
100
AcDbEntity
  8
0
100
AcDbLine
 10
259.348495
 20
145.03995
 30
0.0
 11
257.947712
 21
147.203408
 31
0.0
  0
ARC
  5
E1
100
AcDbEntity
  8
0
100
AcDbCircle
 10
269.408667
 20
115.896922
 30
0.0
 40
0.0
100
AcDbArc
 50
0.0
 51
156.993405
  0
LINE
  5
E2
100
AcDbEntity
  8
0
100
AcDbLine
 10
257.947712
 20
108.388457
 30
0.0
 11
268.007881
 21
113.860729
 31
0.0
  0
ARC
  5
E3
100
AcDbEntity
  8
0
100
AcDbCircle
 10
266.899933
 20
115.67652
 30
0.0
 40
2.131469
100
AcDbArc
 50
298.275949
 51
351.421112
  0
ARC
  5
E4
100
AcDbEntity
  8
0
100
AcDbCircle
 10
219.125544
 20
121.780898
 30
0.0
 40
50.29375
100
AcDbArc
 50
352.663502
 51
8.304121
  0
ARC
  5
E5
100
AcDbEntity
  8
0
100
AcDbCircle
 10
265.302743
 20
127.746123
 30
0.0
 40
3.79767
100
AcDbArc
 50
19.070599
 51
101.307024
  0
LINE
  5
E6
100
AcDbEntity
  8
0
100
AcDbLine
 10
264.558148
 20
131.470082
 30
0.0
 11
258.028499
 21
127.312271
 31
0.0
  0
ARC
  5
E7
100
AcDbEntity
  8
0
100
AcDbCircle
 10
266.120309
 20
130.18559
 30
0.0
 40
17.203102
100
AcDbArc
 50
271.72582
 51
289.989881
  0
ARC
  5
E8
100
AcDbEntity
  8
0
100
AcDbCircle
 10
266.120309
 20
129.852257
 30
0.0
 40
17.203102
100
AcDbArc
 50
114.439084
 51
118.161115
  0
LINE
  5
E9
100
AcDbEntity
  8
0
100
AcDbLine
 10
259.475961
 20
144.911917
 30
0.0
 11
259.350152
 21
145.040789
 31
0.0
  0
LINE
  5
EA
100
AcDbEntity
  8
0
100
AcDbLine
 10
259.001032
 20
145.515413
 30
0.0
 11
259.026196
 21
145.527984
 31
0.0
  0
LINE
  5
EB
100
AcDbEntity
  8
0
100
AcDbLine
 10
269.270517
 20
146.691564
 30
0.0
 11
269.288103
 21
146.761865
 31
0.0
  0
LINE
  5
EC
100
AcDbEntity
  8
0
100
AcDbLine
 10
269.288103
 20
146.761865
 30
0.0
 11
269.147407
 21
146.823381
 31
0.0
  0
LINE
  5
F6
100
AcDbEntity
  8
1
100
AcDbLine
 10
173.751261
 20
171.107967
 30
0.0
 11
261.751261
 21
171.107967
 31
0.0
  0
CIRCLE
  5
1B2
100
AcDbEntity
  8
0
100
AcDbCircle
 10
100.0
 20
170.0
 30
0.0
 40
4.0
  0
CIRCLE
  5
1B3
100
AcDbEntity
  8
0
100
AcDbCircle
 10
100.0
 20
170.0
 30
0.0
 40
2.5
  0
CIRCLE
  5
1B4
100
AcDbEntity
  8
0
100
AcDbCircle
 10
100.0
 20
170.0
 30
0.0
 40
2.0
  0
ENDSEC
  0
SECTION
  2
OBJECTS
  0
DICTIONARY
  5
187
100
AcDbDictionary
  3
ACAD_GROUP
350
188
  3
ACAD_MLINESTYLE
350
195
  3
ACDBVARIABLEDICTIONARY
350
1AD
  0
DICTIONARY
  5
188
102
{ACAD_REACTORS
330
187
102
}
100
AcDbDictionary
  0
DICTIONARY
  5
195
102
{ACAD_REACTORS
330
187
102
}
100
AcDbDictionary
  3
STANDARD
350
196
  0
DICTIONARY
  5
1AD
102
{ACAD_REACTORS
330
187
102
}
100
AcDbDictionary
  3
DIMADEC
350
1AE
  0
MLINESTYLE
  5
196
102
{ACAD_REACTORS
330
195
102
}
100
AcDbMlineStyle
  2
STANDARD
 70
     0
  3

 62
   256
 51
90.0
 52
90.0
 71
     2
 49
0.5
 62
   256
  6
BYLAYER
 49
-0.5
 62
   256
  6
BYLAYER
  0
DICTIONARYVAR
  5
1AE
102
{ACAD_REACTORS
330
1AD
102
}
100
DictionaryVariables
280
     0
  1
0
  0
ENDSEC
  0
EOF
