  0
SECTION
  2
HEADER
  9
$ACADVER
  1
AC1015
  9
$ACADMAINTVER
 70
    13
  9
$DWGCODEPAGE
  3
ANSI_932
  9
$INSBASE
 10
0.0
 20
0.0
 30
0.0
  9
$EXTMIN
 10
124.9511757457526
 20
214.9292022629283
 30
-0.0015258207003583
  9
$EXTMAX
 10
1300.000003376044
 20
880.0598168746336
 30
0.0000000349246037
  9
$LIMMIN
 10
0.0
 20
0.0
  9
$LIMMAX
 10
1600.0
 20
1200.0
  9
$ORTHOMODE
 70
     1
  9
$REGENMODE
 70
     1
  9
$FILLMODE
 70
     1
  9
$QTEXTMODE
 70
     0
  9
$MIRRTEXT
 70
     1
  9
$LTSCALE
 40
100.0
  9
$ATTMODE
 70
     1
  9
$TEXTSIZE
 40
55.0
  9
$TRACEWID
 40
0.05
  9
$TEXTSTYLE
  7
BIGFONT
  9
$CLAYER
  8
0
  9
$CELTYPE
  6
BYLAYER
  9
$CECOLOR
 62
   256
  9
$CELTSCALE
 40
1.0
  9
$DISPSILH
 70
     0
  9
$DIMSCALE
 40
10.0
  9
$DIMASZ
 40
3.0
  9
$DIMEXO
 40
2.0
  9
$DIMDLI
 40
0.38
  9
$DIMRND
 40
0.0
  9
$DIMDLE
 40
0.0
  9
$DIMEXE
 40
2.0
  9
$DIMTP
 40
0.0
  9
$DIMTM
 40
0.0
  9
$DIMTXT
 40
3.2
  9
$DIMCEN
 40
0.09
  9
$DIMTSZ
 40
0.0
  9
$DIMTOL
 70
     0
  9
$DIMLIM
 70
     0
  9
$DIMTIH
 70
     0
  9
$DIMTOH
 70
     0
  9
$DIMSE1
 70
     0
  9
$DIMSE2
 70
     0
  9
$DIMTAD
 70
     1
  9
$DIMZIN
 70
     0
  9
$DIMBLK
  1

  9
$DIMASO
 70
     0
  9
$DIMSHO
 70
     0
  9
$DIMPOST
  1

  9
$DIMAPOST
  1

  9
$DIMALT
 70
     0
  9
$DIMALTD
 70
     2
  9
$DIMALTF
 40
25.4
  9
$DIMLFAC
 40
1.0
  9
$DIMTOFL
 70
     0
  9
$DIMTVP
 40
1.6
  9
$DIMTIX
 70
     1
  9
$DIMSOXD
 70
     0
  9
$DIMSAH
 70
     0
  9
$DIMBLK1
  1

  9
$DIMBLK2
  1

  9
$DIMSTYLE
  2
STANDARD
  9
$DIMCLRD
 70
     0
  9
$DIMCLRE
 70
     0
  9
$DIMCLRT
 70
     0
  9
$DIMTFAC
 40
1.0
  9
$DIMGAP
 40
0.09
  9
$DIMJUST
 70
     0
  9
$DIMSD1
 70
     0
  9
$DIMSD2
 70
     0
  9
$DIMTOLJ
 70
     1
  9
$DIMTZIN
 70
     0
  9
$DIMALTZ
 70
     0
  9
$DIMALTTZ
 70
     0
  9
$DIMUPT
 70
     0
  9
$DIMDEC
 70
     4
  9
$DIMTDEC
 70
     4
  9
$DIMALTU
 70
     2
  9
$DIMALTTD
 70
     2
  9
$DIMTXSTY
  7
BIGFONT
  9
$DIMAUNIT
 70
     0
  9
$DIMADEC
 70
     0
  9
$DIMALTRND
 40
0.0
  9
$DIMAZIN
 70
     0
  9
$DIMDSEP
 70
    46
  9
$DIMATFIT
 70
     3
  9
$DIMFRAC
 70
     0
  9
$DIMLDRBLK
  1

  9
$DIMLUNIT
 70
     2
  9
$DIMLWD
 70
    -2
  9
$DIMLWE
 70
    -2
  9
$DIMTMOVE
 70
     0
  9
$LUNITS
 70
     2
  9
$LUPREC
 70
     4
  9
$SKETCHINC
 40
0.1
  9
$FILLETRAD
 40
0.0
  9
$AUNITS
 70
     0
  9
$AUPREC
 70
     0
  9
$MENU
  1
ACAD
  9
$ELEVATION
 40
0.0
  9
$PELEVATION
 40
0.0
  9
$THICKNESS
 40
0.0
  9
$LIMCHECK
 70
     0
  9
$CHAMFERA
 40
0.0
  9
$CHAMFERB
 40
0.0
  9
$CHAMFERC
 40
0.0
  9
$CHAMFERD
 40
0.0
  9
$SKPOLY
 70
     0
  9
$TDCREATE
 40
2450864.021100926
  9
$TDUCREATE
 40
2450863.646100925
  9
$TDUPDATE
 40
2456448.471252523
  9
$TDUUPDATE
 40
2456448.096252523
  9
$TDINDWG
 40
0.0008242940
  9
$TDUSRTIMER
 40
0.0008242940
  9
$USRTIMER
 70
     1
  9
$ANGBASE
 50
0.0
  9
$ANGDIR
 70
     0
  9
$PDMODE
 70
     0
  9
$PDSIZE
 40
0.0
  9
$PLINEWID
 40
0.0
  9
$SPLFRAME
 70
     0
  9
$SPLINETYPE
 70
     6
  9
$SPLINESEGS
 70
     8
  9
$HANDSEED
  5
306
  9
$SURFTAB1
 70
     6
  9
$SURFTAB2
 70
     6
  9
$SURFTYPE
 70
     6
  9
$SURFU
 70
     6
  9
$SURFV
 70
     6
  9
$UCSBASE
  2

  9
$UCSNAME
  2

  9
$UCSORG
 10
0.0
 20
0.0
 30
0.0
  9
$UCSXDIR
 10
1.0
 20
0.0
 30
0.0
  9
$UCSYDIR
 10
0.0
 20
1.0
 30
0.0
  9
$UCSORTHOREF
  2

  9
$UCSORTHOVIEW
 70
     0
  9
$UCSORGTOP
 10
0.0
 20
0.0
 30
0.0
  9
$UCSORGBOTTOM
 10
0.0
 20
0.0
 30
0.0
  9
$UCSORGLEFT
 10
0.0
 20
0.0
 30
0.0
  9
$UCSORGRIGHT
 10
0.0
 20
0.0
 30
0.0
  9
$UCSORGFRONT
 10
0.0
 20
0.0
 30
0.0
  9
$UCSORGBACK
 10
0.0
 20
0.0
 30
0.0
  9
$PUCSBASE
  2

  9
$PUCSNAME
  2

  9
$PUCSORG
 10
0.0
 20
0.0
 30
0.0
  9
$PUCSXDIR
 10
1.0
 20
0.0
 30
0.0
  9
$PUCSYDIR
 10
0.0
 20
1.0
 30
0.0
  9
$PUCSORTHOREF
  2

  9
$PUCSORTHOVIEW
 70
     0
  9
$PUCSORGTOP
 10
0.0
 20
0.0
 30
0.0
  9
$PUCSORGBOTTOM
 10
0.0
 20
0.0
 30
0.0
  9
$PUCSORGLEFT
 10
0.0
 20
0.0
 30
0.0
  9
$PUCSORGRIGHT
 10
0.0
 20
0.0
 30
0.0
  9
$PUCSORGFRONT
 10
0.0
 20
0.0
 30
0.0
  9
$PUCSORGBACK
 10
0.0
 20
0.0
 30
0.0
  9
$USERI1
 70
     0
  9
$USERI2
 70
     0
  9
$USERI3
 70
     0
  9
$USERI4
 70
     0
  9
$USERI5
 70
     0
  9
$USERR1
 40
0.0
  9
$USERR2
 40
0.0
  9
$USERR3
 40
0.0
  9
$USERR4
 40
0.0
  9
$USERR5
 40
0.0
  9
$WORLDVIEW
 70
     1
  9
$SHADEDGE
 70
     3
  9
$SHADEDIF
 70
    70
  9
$TILEMODE
 70
     1
  9
$MAXACTVP
 70
    16
  9
$PINSBASE
 10
0.0
 20
0.0
 30
0.0
  9
$PLIMCHECK
 70
     0
  9
$PEXTMIN
 10
1.000000000000000E+20
 20
1.000000000000000E+20
 30
1.000000000000000E+20
  9
$PEXTMAX
 10
-1.000000000000000E+20
 20
-1.000000000000000E+20
 30
-1.000000000000000E+20
  9
$PLIMMIN
 10
0.0
 20
0.0
  9
$PLIMMAX
 10
12.0
 20
9.0
  9
$UNITMODE
 70
     0
  9
$VISRETAIN
 70
     0
  9
$PLINEGEN
 70
     1
  9
$PSLTSCALE
 70
     0
  9
$TREEDEPTH
 70
  3020
  9
$CMLSTYLE
  2
STANDARD
  9
$CMLJUST
 70
     0
  9
$CMLSCALE
 40
1.0
  9
$PROXYGRAPHICS
 70
     1
  9
$MEASUREMENT
 70
     0
  9
$CELWEIGHT
370
    -1
  9
$ENDCAPS
280
     0
  9
$JOINSTYLE
280
     0
  9
$LWDISPLAY
290
     0
  9
$INSUNITS
 70
     0
  9
$HYPERLINKBASE
  1

  9
$STYLESHEET
  1

  9
$XEDIT
290
     1
  9
$CEPSNTYPE
380
     0
  9
$PSTYLEMODE
290
     1
  9
$FINGERPRINTGUID
  2
{2125715B-4C9D-424F-B533-4BB740E215FE}
  9
$VERSIONGUID
  2
{1D563C9B-7F50-498D-AB0B-C85BD0EF46D6}
  9
$EXTNAMES
290
     1
  9
$PSVPSCALE
 40
0.0
  9
$OLESTARTUP
290
     0
  0
ENDSEC
  0
SECTION
  2
CLASSES
  0
CLASS
  1
DICTIONARYVAR
  2
AcDbDictionaryVar
  3
AutoCAD 2000
 90
        0
280
     0
281
     0
  0
CLASS
  1
ACDBDICTIONARYWDFLT
  2
AcDbDictionaryWithDefault
  3
AutoCAD 2000
 90
        0
280
     0
281
     0
  0
CLASS
  1
ACDBPLACEHOLDER
  2
AcDbPlaceHolder
  3
AutoCAD 2000
 90
        0
280
     0
281
     0
  0
CLASS
  1
LAYOUT
  2
AcDbLayout
  3
AutoCAD 2000
 90
        0
280
     0
281
     0
  0
CLASS
  1
AMGSETTINGSOBJ
  2
AmgSettingsObj
  3
"AcadM|Product Description: AutoCAD Mechanical 2000|Company: Autodesk"
 90
        0
280
     0
281
     0
  0
CLASS
  1
ACME_DOCUMENT
  2
AcMeDbDoc
  3
AcMeServices
 90
        0
280
     0
281
     0
  0
CLASS
  1
ACMESCOPE
  2
AcMeScope
  3
AcMeServices
 90
        0
280
     0
281
     0
  0
CLASS
  1
ACMECOMMANDHISTORY
  2
AcMeCommandHistory
  3
AcMeServices
 90
        0
280
     0
281
     0
  0
CLASS
  1
ACIMSYSVARMAN
  2
AcImSysVarManager
  3
AcMeServices
 90
        0
280
     0
281
     0
  0
CLASS
  1
ACIMREALSYSVAR
  2
AcImRealSysVar
  3
AcMeServices
 90
        0
280
     0
281
     0
  0
CLASS
  1
ACIMINTSYSVAR
  2
AcImIntSysVar
  3
AcMeServices
 90
        0
280
     0
281
     0
  0
CLASS
  1
ACMEDRAWINGMAN
  2
AcMeDrawingMan
  3
AcMeServices
 90
        0
280
     0
281
     0
  0
CLASS
  1
ACMEVIEW
  2
AcMeView
  3
AcMeServices
 90
        0
280
     0
281
     0
  0
CLASS
  1
ACDBENTITYCACHE
  2
AcMeEntityCache
  3
AcMeServices
 90
        0
280
     0
281
     0
  0
CLASS
  1
GSMANAGER
  2
AcMeGSManager
  3
AcMeServices
 90
        0
280
     0
281
     0
  0
CLASS
  1
AMDTINTERNALREACTOR
  2
AmdtInternalReactor
  3
AcMeServices
 90
        0
280
     0
281
     0
  0
CLASS
  1
ACMESTATEMGR
  2
AcMeStateMgr
  3
AcMeServices
 90
        0
280
     0
281
     0
  0
CLASS
  1
ACGREFMASTER
  2
AcGrefMaster
  3
AcAttribServices
 90
        0
280
     0
281
     0
  0
CLASS
  1
AM_DRAWING_MGR
  2
AcDmDwgMgr
  3
AcMechDwgViewMgmt
 90
        0
280
     0
281
     0
  0
CLASS
  1
AM_DWG_DOCUMENT
  2
AcDmDwgDocument
  3
AcMechDwgViewMgmt
 90
        0
280
     0
281
     0
  0
CLASS
  1
AM_DWG_SHEET
  2
AcDmSheet
  3
AcMechDwgViewMgmt
 90
        0
280
     0
281
     0
  0
CLASS
  1
AM_VIEWDIMPARMAP
  2
AcDmViewDimParMap
  3
AcMechDwgViewMgmt
 90
        0
280
     0
281
     0
  0
CLASS
  1
AM_DWGMGR_NAME
  2
AcDmDwgMgrName
  3
AcMechDwgViewMgmt
 90
        0
280
     0
281
     0
  0
CLASS
  1
ACME_DATABASE
  2
AcMeDbDatabase
  3
AcMeServices
 90
        0
280
     0
281
     0
  0
CLASS
  1
ACRFINSADJUSTERMGR
  2
AcRfInsAdjusterMgr
  3
AcMeServices
 90
        0
280
     0
281
     0
  0
CLASS
  1
ACGREFACADMASTER
  2
AcGrefacadMaster
  3
AcGrefServices
 90
        0
280
     0
281
     0
  0
CLASS
  1
AMDTMENUSTATEMGR
  2
AmdtMenuStateMgr
  3
McadcomServices
 90
        0
280
     0
281
     0
  0
CLASS
  1
AMDTMCOMMENUSTATE
  2
AmdtMcomMenuState
  3
McadcomServices
 90
        0
280
     0
281
     0
  0
CLASS
  1
AMIMASTER
  2
AmiMaster
  3
AmiServices
 90
        0
280
     0
281
     0
  0
CLASS
  1
ASAPP
  2
AcAsAppObject
  3
AutoSurfServices
 90
        0
280
     0
281
     0
  0
CLASS
  1
IM_STATIC_MAN
  2
AcImStaticVarManager
  3
AcMeServices
 90
        0
280
     0
281
     0
  0
CLASS
  1
ACIMSTRSYSVAR
  2
AcImStrSysVar
  3
AcMeServices
 90
        0
280
     0
281
     0
  0
CLASS
  1
ACIMDBLSTATICVAR
  2
AcImDblStaticVar
  3
AcMeServices
 90
        0
280
     0
281
     0
  0
CLASS
  1
ACIMSTRSTATICVAR
  2
AcImStrStaticVar
  3
AcMeServices
 90
        0
280
     0
281
     0
  0
CLASS
  1
ACIMINTSTATICVAR
  2
AcImIntStaticVar
  3
AcMeServices
 90
        0
280
     0
281
     0
  0
CLASS
  1
ACASGREFMASTER
  2
AcAsGrefMaster
  3
AutoSurfResolverServices
 90
        0
280
     0
281
     0
  0
CLASS
  1
ACADGREFMODULE
  2
AcAdGrefModule
  3
AdGrefServices
 90
        0
280
     0
281
     0
  0
CLASS
  1
AMDTMAPISURFMOUDULE
  2
AmdtMApiSurfModule
  3
MApiSurfServices
 90
        0
280
     0
281
     0
  0
CLASS
  1
MAPIAMMOUDLE
  2
MApiAmModule
  3
MApiAmServices
 90
        0
280
     0
281
     0
  0
CLASS
  1
AMDTADMENUSTATE
  2
AmdtAdMenuState
  3
DesignerServices
 90
        0
280
     0
281
     0
  0
CLASS
  1
ADAPPL
  2
AcAdAppl
  3
DesignerServices
 90
        0
280
     0
281
     0
  0
CLASS
  1
DEPMGR
  2
AcAdDepMgr
  3
DesignerServices
 90
        0
280
     0
281
     0
  0
CLASS
  1
PARAMMGR
  2
AcAdParamMgr
  3
DesignerServices
 90
        0
280
     0
281
     0
  0
CLASS
  1
PARAMSCOPE
  2
AcAdParamScope
  3
DesignerServices
 90
        0
280
     0
281
     0
  0
CLASS
  1
NAMEDAPPL
  2
AcAdNamedAppl
  3
DesignerServices
 90
        0
280
     0
281
     0
  0
CLASS
  1
AMDTDMMENUSTATE
  2
AmdtDmMenuState
  3
AcMechDwgViewMgmt
 90
        0
280
     0
281
     0
  0
CLASS
  1
MAPIADMODULE
  2
MApiAdModule
  3
MApiAdServices
 90
        0
280
     0
281
     0
  0
CLASS
  1
AMDTAMMENUSTATE
  2
AmdtAmMenuState
  3
DesignerAssemblies
 90
        0
280
     0
281
     0
  0
CLASS
  1
ACAMPROJECT
  2
AcAmProject
  3
DesignerAssemblies
 90
        0
280
     0
281
     0
  0
CLASS
  1
ACAMGRCOMPDEF
  2
AcAmGrCompDef
  3
DesignerAssemblies
 90
        0
280
     0
281
     0
  0
CLASS
  1
ACCMCONTEXT
  2
AcCmContext
  3
DesignerAssemblies
 90
        0
280
     0
281
     0
  0
CLASS
  1
ACAMCOMPDEF
  2
AcAmCompDef
  3
DesignerAssemblies
 90
        0
280
     0
281
     0
  0
CLASS
  1
ACAMCOMPDEFMGR
  2
AcAmCompDefMgr
  3
DesignerAssemblies
 90
        0
280
     0
281
     0
  0
CLASS
  1
AMCONTEXTMGR
  2
AcAmContextMgr
  3
DesignerAssemblies
 90
        0
280
     0
281
     0
  0
CLASS
  1
ACAMCONTEXTMODELER
  2
AcAmContextModeler
  3
DesignerAssemblies
 90
        0
280
     0
281
     0
  0
CLASS
  1
ACMDATADICTIONARY
  2
AcmDataDictionary
  3
"AcmSymBB|Product Description: AutoCAD Mechanical 2000|Company: Autodesk"
 90
        0
280
     0
281
     0
  0
CLASS
  1
ACMDATAENTRYBLOCK
  2
AcmDataEntryBlock
  3
"AcmSymBB|Product Description: AutoCAD Mechanical 2000|Company: Autodesk"
 90
        0
280
     0
281
     0
  0
CLASS
  1
CATALOGSTATE
  2
AcAmCatalogState
  3
DesignerAssemblies
 90
        0
280
     0
281
     0
  0
CLASS
  1
ACAMGRCOMPDEFSET
  2
AcAmGrCompDefSet
  3
DesignerAssemblies
 90
        0
280
     0
281
     0
  0
CLASS
  1
AMDTBROWSERDBTAB
  2
AmdtBrowserDbTab
  3
McadcomServices
 90
        0
280
     0
281
     0
  0
CLASS
  1
CBROWSERAPPOBJECT
  2
CBrowserAppObject
  3
McadcomServices
 90
        0
280
     0
281
     0
  0
CLASS
  1
DM_PLACEHOLDER
  2
AcDmSelsetPlaceholder
  3
AcMechDwgViewMgmt
 90
        0
280
     0
281
     0
  0
CLASS
  1
AMGOBJPROPCFG
  2
AmgObjPropCfg
  3
"AmgLay|Product Description: AutoCAD Mechanical 2000|Company: Autodesk"
 90
        1
280
     0
281
     0
  0
CLASS
  1
ACAMGFILTERDAT
  2
AcAmgFilterDat
  3
"AcadM|Product Description: AutoCAD Mechanical 2000|Company: Autodesk"
 90
        0
280
     0
281
     0
  0
CLASS
  1
LAYER_INDEX
  2
AcDbLayerIndex
  3
AutoCAD 2000
 90
        0
280
     0
281
     0
  0
CLASS
  1
IDBUFFER
  2
AcDbIdBuffer
  3
AutoCAD 2000
 90
        0
280
     0
281
     0
  0
ENDSEC
  0
SECTION
  2
TABLES
  0
TABLE
  2
VPORT
  5
1E4
330
0
100
AcDbSymbolTable
 70
     3
  0
VPORT
  5
305
330
1E4
100
AcDbSymbolTableRecord
100
AcDbViewportTableRecord
  2
*Active
 70
     0
 10
0.0
 20
0.0
 11
1.0
 21
1.0
 12
-30.60745217667296
 22
-160.887544
 13
0.0
 23
0.0
 14
5.0
 24
5.0
 15
10.0
 25
10.0
 16
0.0
 26
0.0
 36
1.0
 17
830.607452176673
 27
760.887544
 37
0.0
 40
1208.695652173913
 41
1.489721886336154
 42
50.0
 43
0.0
 44
0.0
 50
0.0
 51
0.0
 71
     0
 72
 20000
 73
     1
 74
     1
 75
     0
 76
     0
 77
     0
 78
     0
281
     0
 65
     0
110
0.0
120
0.0
130
0.0
111
1.0
121
0.0
131
0.0
112
0.0
122
1.0
132
0.0
 79
     0
146
0.0
  0
ENDTAB
  0
TABLE
  2
LTYPE
  5
1E1
330
0
100
AcDbSymbolTable
 70
    17
  0
LTYPE
  5
1ED
330
1E1
100
AcDbSymbolTableRecord
100
AcDbLinetypeTableRecord
  2
BYBLOCK
 70
     0
  3

 72
    65
 73
     0
 40
0.0
  0
LTYPE
  5
1EE
330
1E1
100
AcDbSymbolTableRecord
100
AcDbLinetypeTableRecord
  2
BYLAYER
 70
     0
  3

 72
    65
 73
     0
 40
0.0
  0
LTYPE
  5
1EF
330
1E1
100
AcDbSymbolTableRecord
100
AcDbLinetypeTableRecord
  2
CONTINUOUS
 70
     0
  3
実線
 72
    65
 73
     0
 40
0.0
  0
LTYPE
  5
1FD
330
1E1
100
AcDbSymbolTableRecord
100
AcDbLinetypeTableRecord
  2
CENTER
 70
     0
  3
____ _ ____ _ ____ _ ____ _ ____ _ ____ _ ____
 72
    65
 73
     4
 40
2.0
 49
1.25
 74
     0
 49
-0.25
 74
     0
 49
0.25
 74
     0
 49
-0.25
 74
     0
  0
LTYPE
  5
1FE
330
1E1
100
AcDbSymbolTableRecord
100
AcDbLinetypeTableRecord
  2
TENSEN1
 70
     0
  3

 72
    65
 73
     2
 40
0.4
 49
0.3
 74
     0
 49
-0.1
 74
     0
  0
LTYPE
  5
242
330
1E1
100
AcDbSymbolTableRecord
100
AcDbLinetypeTableRecord
  2
HIDDEN
 70
     0
  3
Hidden __ __ __ __ __ __ __ __ __ __ __ __ __ _
 72
    65
 73
     2
 40
0.375
 49
0.25
 74
     0
 49
-0.125
 74
     0
  0
LTYPE
  5
243
330
1E1
100
AcDbSymbolTableRecord
100
AcDbLinetypeTableRecord
  2
PHANTOM2
 70
     0
  3
Phantom (.5x) ___ _ _ ___ _ _ ___ _ _ ___ _ _
 72
    65
 73
     6
 40
1.25
 49
0.625
 74
     0
 49
-0.125
 74
     0
 49
0.125
 74
     0
 49
-0.125
 74
     0
 49
0.125
 74
     0
 49
-0.125
 74
     0
  0
LTYPE
  5
2A5
330
1E1
100
AcDbSymbolTableRecord
100
AcDbLinetypeTableRecord
  2
ASULTYPE
 70
     0
  3
実線
 72
    65
 73
     2
 40
3.0
 49
2.5
 74
     0
 49
0.5
 74
     0
  0
LTYPE
  5
2A6
330
1E1
100
AcDbSymbolTableRecord
100
AcDbLinetypeTableRecord
  2
ASVLTYPE
 70
     0
  3
__ __ __ __ __ __ __ __ __ __ __ __ __ __ __ __ __ __ __ __ __
 72
    65
 73
     2
 40
0.75
 49
0.5
 74
     0
 49
-0.25
 74
     0
  0
LTYPE
  5
2E7
330
1E1
100
AcDbSymbolTableRecord
100
AcDbLinetypeTableRecord
  2
AM_ISO02W050
 70
     0
  3
__ __ __ __ __ __ __ __ __ __ __ __ __ __ __
 72
    65
 73
     2
 40
7.5
 49
6.0
 74
     0
 49
-1.5
 74
     0
  0
LTYPE
  5
2E8
330
1E1
100
AcDbSymbolTableRecord
100
AcDbLinetypeTableRecord
  2
AM_ISO08W050
 70
     0
  3
____ . ____ . ____ . ____ . ____ . ____ . ____
 72
    65
 73
     4
 40
18.0
 49
12.0
 74
     0
 49
-1.5
 74
     0
 49
3.0
 74
     0
 49
-1.5
 74
     0
  0
LTYPE
  5
2E9
330
1E1
100
AcDbSymbolTableRecord
100
AcDbLinetypeTableRecord
  2
AM_ISO09W050
 70
     0
  3
_____ . . _____ . . _____ . . ____ .. ____
 72
    65
 73
     6
 40
22.5
 49
12.0
 74
     0
 49
-1.5
 74
     0
 49
3.0
 74
     0
 49
-1.5
 74
     0
 49
3.0
 74
     0
 49
-1.5
 74
     0
  0
LTYPE
  5
2EA
330
1E1
100
AcDbSymbolTableRecord
100
AcDbLinetypeTableRecord
  2
Amconstr
 70
     0
  3
_______________________
 72
    65
 73
     2
 40
9999.0
 49
9999.0
 74
     0
 49
0.0
 74
     0
  0
LTYPE
  5
2EB
330
1E1
100
AcDbSymbolTableRecord
100
AcDbLinetypeTableRecord
  2
AM_ISO08W050x2
 70
     0
  3
__ . __ . __ . __ . __ . __
 72
    65
 73
     4
 40
9.0
 49
6.0
 74
     0
 49
-0.75
 74
     0
 49
1.5
 74
     0
 49
-0.75
 74
     0
  0
LTYPE
  5
2EC
330
1E1
100
AcDbSymbolTableRecord
100
AcDbLinetypeTableRecord
  2
AM_ISO02W050x2
 70
     0
  3
 _ _ _ _ _ _ _ _ _ _ _ _
 72
    65
 73
     2
 40
3.75
 49
3.0
 74
     0
 49
-0.75
 74
     0
  0
LTYPE
  5
2EF
330
1E1
100
AcDbSymbolTableRecord
100
AcDbLinetypeTableRecord
  2
Amzigzag
 70
     0
  3
/\/-/\/-/\/-/\/-/\/-/\/
 72
    65
 73
     2
 40
11.00009999999999
 49
0.0001
 74
     4
 75
   135
340
2EE
 46
0.04
 50
0.0
 44
0.0
 45
0.0
 49
-11.0
 74
     0
  0
LTYPE
  5
2F0
330
1E1
100
AcDbSymbolTableRecord
100
AcDbLinetypeTableRecord
  2
CENTER2
 70
     0
  3
Center (.5x) ___ _ ___ _ ___ _ ___ _ ___ _ ___
 72
    65
 73
     4
 40
1.125
 49
0.75
 74
     0
 49
-0.125
 74
     0
 49
0.125
 74
     0
 49
-0.125
 74
     0
  0
LTYPE
  5
2F1
330
1E1
100
AcDbSymbolTableRecord
100
AcDbLinetypeTableRecord
  2
HIDDEN2
 70
     0
  3
Hidden (.5x) _ _ _ _ _ _ _ _ _ _ _ _ _ _ _ _ _
 72
    65
 73
     2
 40
0.1875
 49
0.125
 74
     0
 49
-0.0625
 74
     0
  0
LTYPE
  5
2F2
330
1E1
100
AcDbSymbolTableRecord
100
AcDbLinetypeTableRecord
  2
Amzigzag2
 70
     0
  3
/\/-/\/-/\/-/\/-/\/-/\/
 72
    65
 73
     2
 40
0.4401
 49
0.0001
 74
     4
 75
   135
340
2EE
 46
0.0016
 50
0.0
 44
0.0
 45
0.0
 49
-0.4400000000000001
 74
     0
  0
ENDTAB
  0
TABLE
  2
LAYER
  5
1DE
330
0
100
AcDbSymbolTable
 70
     5
  0
LAYER
  5
1EA
330
1DE
100
AcDbSymbolTableRecord
100
AcDbLayerTableRecord
  2
0
 70
     0
 62
     7
  6
CONTINUOUS
370
    -3
390
218
  0
LAYER
  5
202
330
1DE
100
AcDbSymbolTableRecord
100
AcDbLayerTableRecord
  2
1
 70
     0
 62
     1
  6
CENTER
370
    -3
390
218
  0
LAYER
  5
203
330
1DE
100
AcDbSymbolTableRecord
100
AcDbLayerTableRecord
  2
10
 70
     0
 62
     7
  6
CONTINUOUS
370
    -3
390
218
  0
LAYER
  5
204
330
1DE
100
AcDbSymbolTableRecord
100
AcDbLayerTableRecord
  2
11
 70
     0
 62
     3
  6
CONTINUOUS
370
    -3
390
218
  0
LAYER
  5
205
330
1DE
100
AcDbSymbolTableRecord
100
AcDbLayerTableRecord
  2
2
 70
     0
 62
     2
  6
TENSEN1
370
    -3
390
218
  0
ENDTAB
  0
TABLE
  2
STYLE
  5
1DF
330
0
100
AcDbSymbolTable
 70
     5
  0
STYLE
  5
1EB
330
1DF
100
AcDbSymbolTableRecord
100
AcDbTextStyleTableRecord
  2
STANDARD
 70
     0
 40
0.0
 41
1.0
 50
0.0
 71
     0
 42
0.2
  3
TXT
  4
bigfont.shx
  0
STYLE
  5
1FA
330
1DF
100
AcDbSymbolTableRecord
100
AcDbTextStyleTableRecord
  2
K80
 70
     0
 40
0.0
 41
0.8
 50
0.0
 71
     0
 42
0.2
  3
TXT
  4
bigfont.shx
  0
STYLE
  5
1FB
330
1DF
100
AcDbSymbolTableRecord
100
AcDbTextStyleTableRecord
  2
07500
 70
     0
 40
0.0
 41
0.75
 50
0.0
 71
     0
 42
0.2
  3
TXT
  4
bigfont.shx
  0
STYLE
  5
1FC
330
1DF
100
AcDbSymbolTableRecord
100
AcDbTextStyleTableRecord
  2
BIGFONT
 70
     0
 40
55.0
 41
1.0
 50
0.0
 71
     0
 42
55.0
  3

  4
bigfont.shx
  0
STYLE
  5
2EE
330
1DF
100
AcDbSymbolTableRecord
100
AcDbTextStyleTableRecord
  2

 70
     1
 40
0.0
 41
1.0
 50
0.0
 71
     0
 42
55.0
  3
ltypeshp.shx
  4

  0
ENDTAB
  0
TABLE
  2
VIEW
  5
1E2
330
0
100
AcDbSymbolTable
 70
     1
  0
VIEW
  5
1FF
330
1E2
100
AcDbSymbolTableRecord
100
AcDbViewTableRecord
  2
ALL
 70
     0
 40
2700.0
 10
2209.915966
 20
1350.0
 41
0.0
 11
0.0
 21
0.0
 31
1.0
 12
0.0
 22
0.0
 32
0.0
 42
50.0
 43
0.0
 44
0.0
 50
0.0
 71
     0
281
     0
 72
     0
  0
ENDTAB
  0
TABLE
  2
UCS
  5
1E3
330
0
100
AcDbSymbolTable
 70
     0
  0
ENDTAB
  0
TABLE
  2
APPID
  5
1E5
330
0
100
AcDbSymbolTable
 70
    12
  0
APPID
  5
1EC
330
1E5
100
AcDbSymbolTableRecord
100
AcDbRegAppTableRecord
  2
ACAD
 70
     0
  0
APPID
  5
221
330
1E5
100
AcDbSymbolTableRecord
100
AcDbRegAppTableRecord
  2
GENIUS_GENDIM_13
 70
     0
  0
APPID
  5
222
330
1E5
100
AcDbSymbolTableRecord
100
AcDbRegAppTableRecord
  2
GENIUS_GENDTOL_13
 70
     0
  0
APPID
  5
223
330
1E5
100
AcDbSymbolTableRecord
100
AcDbRegAppTableRecord
  2
GENIUS_GE3DTOL_13
 70
     0
  0
APPID
  5
225
330
1E5
100
AcDbSymbolTableRecord
100
AcDbRegAppTableRecord
  2
MCAD_NO_VIS
 70
     0
  0
APPID
  5
226
330
1E5
100
AcDbSymbolTableRecord
100
AcDbRegAppTableRecord
  2
ACAD_TEMP_GRAPHIC
 70
     0
  0
APPID
  5
258
330
1E5
100
AcDbSymbolTableRecord
100
AcDbRegAppTableRecord
  2
AD_DRAW
 70
     0
  0
APPID
  5
25B
330
1E5
100
AcDbSymbolTableRecord
100
AcDbRegAppTableRecord
  2
ACATTRIBSERVICES
 70
     0
  0
APPID
  5
2A7
330
1E5
100
AcDbSymbolTableRecord
100
AcDbRegAppTableRecord
  2
ASURF_PCURVE_APPNAME
 70
     0
  0
APPID
  5
2D6
330
1E5
100
AcDbSymbolTableRecord
100
AcDbRegAppTableRecord
  2
DESIGNERASSEMBLIES
 70
     0
  0
APPID
  5
2DE
330
1E5
100
AcDbSymbolTableRecord
100
AcDbRegAppTableRecord
  2
ACADM_DIM_EDIT
 70
     0
  0
APPID
  5
2DF
330
1E5
100
AcDbSymbolTableRecord
100
AcDbRegAppTableRecord
  2
AMDT_DM_ADJ
 70
     0
  0
ENDTAB
  0
TABLE
  2
DIMSTYLE
  5
1E6
330
0
100
AcDbSymbolTable
 70
     1
100
AcDbDimStyleTable
 71
     0
  0
DIMSTYLE
105
201
330
1E6
100
AcDbSymbolTableRecord
100
AcDbDimStyleTableRecord
  2
STANDARD
 70
     0
340
1FC
  0
ENDTAB
  0
TABLE
  2
BLOCK_RECORD
  5
1DD
330
0
100
AcDbSymbolTable
 70
     3
  0
BLOCK_RECORD
  5
1F3
102
{ACAD_XDICTIONARY
360
2FB
102
}
330
1DD
100
AcDbSymbolTableRecord
100
AcDbBlockTableRecord
  2
*MODEL_SPACE
340
21B
  0
BLOCK_RECORD
  5
1F0
330
1DD
100
AcDbSymbolTableRecord
100
AcDbBlockTableRecord
  2
*PAPER_SPACE
340
21C
  0
BLOCK_RECORD
  5
1F8
330
1DD
100
AcDbSymbolTableRecord
100
AcDbBlockTableRecord
  2
WAKU
340
0
  0
BLOCK_RECORD
  5
1F9
330
1DD
100
AcDbSymbolTableRecord
100
AcDbBlockTableRecord
  2
QQ
340
0
  0
BLOCK_RECORD
  5
2CD
330
1DD
100
AcDbSymbolTableRecord
100
AcDbBlockTableRecord
  2
*U2
340
0
  0
ENDTAB
  0
ENDSEC
  0
SECTION
  2
BLOCKS
  0
BLOCK
  5
208
330
1F3
100
AcDbEntity
  8
0
100
AcDbBlockBegin
  2
*MODEL_SPACE
 70
     0
 10
0.0
 20
0.0
 30
0.0
  3
*MODEL_SPACE
  1

  0
ENDBLK
  5
209
330
1F3
100
AcDbEntity
  8
0
100
AcDbBlockEnd
  0
BLOCK
  5
206
330
1F0
100
AcDbEntity
 67
     1
  8
0
100
AcDbBlockBegin
  2
*PAPER_SPACE
 70
     0
 10
0.0
 20
0.0
 30
0.0
  3
*PAPER_SPACE
  1

  0
ENDBLK
  5
207
330
1F0
100
AcDbEntity
 67
     1
  8
0
100
AcDbBlockEnd
  0
BLOCK
  5
2E
330
1F8
100
AcDbEntity
  8
0
100
AcDbBlockBegin
  2
WAKU
 70
     0
 10
549.0
 20
0.0
 30
0.0
  3
WAKU
  1

  0
LINE
  5
2F
330
1F8
100
AcDbEntity
  8
11
100
AcDbLine
 10
452.0
 20
12.0
 30
0.0
 11
549.0
 21
12.0
 31
0.0
  0
LINE
  5
30
330
1F8
100
AcDbEntity
  8
11
100
AcDbLine
 10
477.0
 20
0.0
 30
0.0
 11
477.0
 21
12.0
 31
0.0
  0
LINE
  5
31
330
1F8
100
AcDbEntity
  8
11
100
AcDbLine
 10
452.0
 20
12.0
 30
0.0
 11
452.0
 21
0.0
 31
0.0
  0
TEXT
  5
32
330
1F8
100
AcDbEntity
  8
11
100
AcDbText
 10
454.0
 20
8.5
 30
0.0
 40
2.5
  1
尺度
100
AcDbText
  0
TEXT
  5
33
330
1F8
100
AcDbEntity
  8
11
100
AcDbText
 10
479.0
 20
8.5
 30
0.0
 40
2.5
  1
図番
100
AcDbText
  0
ENDBLK
  5
34
330
1F8
100
AcDbEntity
  8
0
100
AcDbBlockEnd
  0
BLOCK
  5
35
330
1F9
100
AcDbEntity
  8
0
100
AcDbBlockBegin
  2
QQ
 70
     0
 10
270.0
 20
0.0
 30
0.0
  3
QQ
  1

  0
LINE
  5
36
330
1F9
100
AcDbEntity
  8
11
100
AcDbLine
 10
173.0
 20
36.0
 30
0.0
 11
270.0
 21
36.0
 31
0.0
  0
TEXT
  5
37
330
1F9
100
AcDbEntity
  8
11
100
AcDbText
 10
175.0
 20
32.5
 30
0.0
 40
2.5
  1
部品名称
100
AcDbText
  0
LINE
  5
38
330
1F9
100
AcDbEntity
  8
11
100
AcDbLine
 10
173.0
 20
36.0
 30
0.0
 11
173.0
 21
0.0
 31
0.0
  0
LINE
  5
39
330
1F9
100
AcDbEntity
  8
11
100
AcDbLine
 10
173.0
 20
24.0
 30
0.0
 11
270.0
 21
24.0
 31
0.0
  0
TEXT
  5
3A
330
1F9
100
AcDbEntity
  8
11
100
AcDbText
 10
175.0
 20
20.5
 30
0.0
 40
2.5
  1
品番
100
AcDbText
  0
LINE
  5
3B
330
1F9
100
AcDbEntity
  8
11
100
AcDbLine
 10
173.0
 20
12.0
 30
0.0
 11
270.0
 21
12.0
 31
0.0
  0
TEXT
  5
3C
330
1F9
100
AcDbEntity
  8
11
100
AcDbText
 10
175.0
 20
8.5
 30
0.0
 40
2.5
  1
尺度
100
AcDbText
  0
TEXT
  5
3D
330
1F9
100
AcDbEntity
  8
11
100
AcDbText
 10
200.0
 20
8.5
 30
0.0
 40
2.5
  1
図番
100
AcDbText
  0
LINE
  5
3E
330
1F9
100
AcDbEntity
  8
11
100
AcDbLine
 10
198.0
 20
0.0
 30
0.0
 11
198.0
 21
12.0
 31
0.0
  0
ENDBLK
  5
3F
330
1F9
100
AcDbEntity
  8
0
100
AcDbBlockEnd
  0
BLOCK
  5
2CE
330
2CD
100
AcDbEntity
  8
0
100
AcDbBlockBegin
  2
*U2
 70
     1
 10
0.0
 20
0.0
 30
0.0
  3
*U2
  1

  0
ENDBLK
  5
2CF
330
2CD
100
AcDbEntity
  8
0
100
AcDbBlockEnd
  0
ENDSEC
  0
SECTION
  2
ENTITIES
  0
POINT
  5
46
330
1F3
100
AcDbEntity
  8
1
100
AcDbPoint
 10
847.3008380000001
 20
549.0103309999999
 30
0.0
  0
POINT
  5
47
330
1F3
100
AcDbEntity
  8
1
100
AcDbPoint
 10
489.755953
 20
867.5659509999999
 30
0.0
  0
LINE
  5
49
330
1F3
100
AcDbEntity
  8
1
100
AcDbLine
 10
490.0
 20
875.0
 30
0.0
 11
490.0
 21
215.0
 31
0.0
  0
LINE
  5
4A
330
1F3
100
AcDbEntity
  8
1
100
AcDbLine
 10
125.0
 20
550.0
 30
0.0
 11
870.0
 21
550.0
 31
0.0
  0
CIRCLE
  5
4B
330
1F3
100
AcDbEntity
  8
0
100
AcDbCircle
 10
490.0
 20
550.0
 30
0.0
 40
315.0
  0
ARC
  5
4C
330
1F3
100
AcDbEntity
  8
0
100
AcDbCircle
 10
490.0
 20
550.0
 30
0.0
 40
294.4999999999999
100
AcDbArc
 50
95.564829
 51
84.29733
  0
ARC
  5
4D
330
1F3
100
AcDbEntity
  8
0
100
AcDbCircle
 10
490.0
 20
550.0
 30
0.0
 40
274.0
100
AcDbArc
 50
95.338328
 51
143.946705
  0
CIRCLE
  5
4E
330
1F3
100
AcDbEntity
  8
0
100
AcDbCircle
 10
490.0
 20
550.0
 30
0.0
 40
51.0
  0
LINE
  5
4F
330
1F3
100
AcDbEntity
  8
0
100
AcDbLine
 10
467.7320509999999
 20
611.7320509999999
 30
0.0
 11
469.7320509999999
 21
817.7320509999999
 31
0.0
  0
LINE
  5
50
330
1F3
100
AcDbEntity
  8
0
100
AcDbLine
 10
511.7320509999999
 20
611.7320509999999
 30
0.0
 11
509.7320509999999
 21
817.7320509999999
 31
0.0
  0
LINE
  5
51
330
1F3
100
AcDbEntity
  8
0
100
AcDbLine
 10
532.7320509999999
 20
599.7320509999999
 30
0.0
 11
711.7320509999999
 21
701.7320509999999
 31
0.0
  0
LINE
  5
52
330
1F3
100
AcDbEntity
  8
0
100
AcDbLine
 10
554.7320509999999
 20
561.7320509999999
 30
0.0
 11
731.732051
 21
666.7320509999999
 31
0.0
  0
LINE
  5
53
330
1F3
100
AcDbEntity
  8
0
100
AcDbLine
 10
447.7320509999999
 20
600.7320509999999
 30
0.0
 11
268.7320509999999
 21
701.7320509999999
 31
0.0
  0
LINE
  5
54
330
1F3
100
AcDbEntity
  8
0
100
AcDbLine
 10
424.7320509999999
 20
562.7320509999999
 30
0.0
 11
247.7320509999999
 21
666.7320509999999
 31
0.0
  0
LINE
  5
55
330
1F3
100
AcDbEntity
  8
0
100
AcDbLine
 10
424.7320509999999
 20
537.7320509999999
 30
0.0
 11
247.7320509999999
 21
432.7320509999999
 31
0.0
  0
LINE
  5
56
330
1F3
100
AcDbEntity
  8
0
100
AcDbLine
 10
446.7320509999999
 20
498.7320509999999
 30
0.0
 11
267.7320509999999
 21
398.7320509999999
 31
0.0
  0
LINE
  5
57
330
1F3
100
AcDbEntity
  8
0
100
AcDbLine
 10
467.366025
 20
487.098076
 30
0.0
 11
469.3212980000001
 21
281.794458
 31
0.0
  0
LINE
  5
58
330
1F3
100
AcDbEntity
  8
0
100
AcDbLine
 10
512.366025
 20
488.0980759999999
 30
0.0
 11
510.3660249999999
 21
281.0980759999999
 31
0.0
  0
LINE
  5
59
330
1F3
100
AcDbEntity
  8
0
100
AcDbLine
 10
555.366025
 20
539.0980759999999
 30
0.0
 11
732.366025
 21
434.0980759999999
 31
0.0
  0
LINE
  5
5A
330
1F3
100
AcDbEntity
  8
0
100
AcDbLine
 10
532.366025
 20
500.098076
 30
0.0
 11
712.366025
 21
399.0980759999999
 31
0.0
  0
ARC
  5
5B
330
1F3
100
AcDbEntity
  8
0
100
AcDbCircle
 10
490.0
 20
550.0
 30
0.0
 40
274.0
100
AcDbArc
 50
155.357797
 51
204.721496
  0
ARC
  5
5C
330
1F3
100
AcDbEntity
  8
0
100
AcDbCircle
 10
490.0
 20
550.0
 30
0.0
 40
274.0
100
AcDbArc
 50
215.4330049999999
 51
264.3725549999999
  0
ARC
  5
5D
330
1F3
100
AcDbEntity
  8
0
100
AcDbCircle
 10
490.0
 20
550.0
 30
0.0
 40
274.0
100
AcDbArc
 50
335.7313029999999
 51
24.669914
  0
ARC
  5
5E
330
1F3
100
AcDbEntity
  8
0
100
AcDbCircle
 10
490.0
 20
550.0
 30
0.0
 40
274.0
100
AcDbArc
 50
35.749865
 51
84.55908199999999
  0
ARC
  5
5F
330
1F3
100
AcDbEntity
  8
0
100
AcDbCircle
 10
464.531728
 20
817.6120239999999
 30
0.0
 40
5.192105
100
AcDbArc
 50
359.609529
 51
90.42725700000001
  0
ARC
  5
60
330
1F3
100
AcDbEntity
  8
0
100
AcDbCircle
 10
515.1683659999999
 20
817.415053
 30
0.0
 40
5.436533999999999
100
AcDbArc
 50
80.66133499999999
 51
177.0543189999999
  0
ARC
  5
61
330
1F3
100
AcDbEntity
  8
0
100
AcDbCircle
 10
707.7231279999999
 20
706.26637
 30
0.0
 40
6.05444
100
AcDbArc
 50
310.9390029999999
 51
28.172845
  0
LINE
  5
62
330
1F3
100
AcDbEntity
  8
0
100
AcDbLine
 10
713.060282
 20
709.124871
 30
0.0
 11
712.4242360000001
 21
710.1027719999999
 31
0.0
  0
ARC
  5
63
330
1F3
100
AcDbEntity
  8
0
100
AcDbCircle
 10
734.187036
 20
661.1604940000001
 30
0.0
 40
6.116202999999999
100
AcDbArc
 50
46.37913799999999
 51
114.0937669999999
  0
LINE
  5
64
330
1F3
100
AcDbEntity
  8
0
100
AcDbLine
 10
738.4509739999999
 20
665.5436919999999
 30
0.0
 11
739.029194
 21
664.29909
 31
0.0
  0
ARC
  5
65
330
1F3
100
AcDbEntity
  8
0
100
AcDbCircle
 10
734.758816
 20
439.062251
 30
0.0
 40
5.476113999999999
100
AcDbArc
 50
243.470964
 51
323.531929
  0
LINE
  5
66
330
1F3
100
AcDbEntity
  8
0
100
AcDbLine
 10
739.1181539999999
 20
435.807388
 30
0.0
 11
739.785334
 21
437.36314
 31
0.0
  0
ARC
  5
67
330
1F3
100
AcDbEntity
  8
0
100
AcDbCircle
 10
708.294924
 20
394.6236269999999
 30
0.0
 40
6.12413
100
AcDbArc
 50
326.179383
 51
48.079788
  0
LINE
  5
68
330
1F3
100
AcDbEntity
  8
0
100
AcDbLine
 10
712.510976
 20
390.094825
 30
0.0
 11
713.3827539999999
 21
391.214969
 31
0.0
  0
ARC
  5
69
330
1F3
100
AcDbEntity
  8
0
100
AcDbCircle
 10
490.0
 20
550.0
 30
0.0
 40
274.0
100
AcDbArc
 50
275.426274
 51
324.3125979999999
  0
ARC
  5
6A
330
1F3
100
AcDbEntity
  8
0
100
AcDbCircle
 10
514.533898
 20
281.216354
 30
0.0
 40
4.167628999999999
100
AcDbArc
 50
181.2683919999999
 51
284.856147
  0
LINE
  5
6B
330
1F3
100
AcDbEntity
  8
0
100
AcDbLine
 10
515.60245
 20
277.188038
 30
0.0
 11
515.944921
 21
277.236931
 31
0.0
  0
ARC
  5
6C
330
1F3
100
AcDbEntity
  8
0
100
AcDbCircle
 10
464.3723129999999
 20
282.108131
 30
0.0
 40
4.939280999999999
100
AcDbArc
 50
254.762248
 51
356.27831
  0
ARC
  5
6D
330
1F3
100
AcDbEntity
  8
0
100
AcDbCircle
 10
272.781689
 20
394.204566
 30
0.0
 40
6.750521
100
AcDbArc
 50
137.6825699999999
 51
206.160945
  0
ARC
  5
6E
330
1F3
100
AcDbEntity
  8
0
100
AcDbCircle
 10
245.7939249999999
 20
437.4584719999999
 30
0.0
 40
5.101882999999999
100
AcDbArc
 50
203.84174
 51
292.818877
  0
ARC
  5
6F
330
1F3
100
AcDbEntity
  8
0
100
AcDbCircle
 10
245.685985
 20
661.803714
 30
0.0
 40
5.321633
100
AcDbArc
 50
67.227378
 51
151.8464459999999
  0
ARC
  5
70
330
1F3
100
AcDbEntity
  8
0
100
AcDbCircle
 10
276.2972509999999
 20
706.712929
 30
0.0
 40
9.041385999999999
100
AcDbArc
 50
149.507841
 51
213.676399
  0
ARC
  5
71
330
1F3
100
AcDbEntity
  8
0
100
AcDbCircle
 10
522.558911
 20
613.566936
 30
0.0
 40
10.947447
100
AcDbArc
 50
189.231425
 51
226.480981
  0
ARC
  5
72
330
1F3
100
AcDbEntity
  8
0
100
AcDbCircle
 10
452.299798
 20
610.9822889999999
 30
0.0
 40
11.240771
100
AcDbArc
 50
245.954109
 51
285.994482
  0
ARC
  5
73
330
1F3
100
AcDbEntity
  8
0
100
AcDbCircle
 10
562.722782
 20
552.518462
 30
0.0
 40
12.215208
100
AcDbArc
 50
130.768594
 51
168.40185
  0
ARC
  5
74
330
1F3
100
AcDbEntity
  8
0
100
AcDbCircle
 10
490.0
 20
550.0
 30
0.0
 40
61.0
100
AcDbArc
 50
115.2353799999999
 51
124.329626
  0
ARC
  5
75
330
1F3
100
AcDbEntity
  8
0
100
AcDbCircle
 10
490.0
 20
550.0
 30
0.0
 40
61.0
100
AcDbArc
 50
175.616228
 51
185.17176
  0
ARC
  5
76
330
1F3
100
AcDbEntity
  8
0
100
AcDbCircle
 10
490.0
 20
550.0
 30
0.0
 40
61.0
100
AcDbArc
 50
236.9016119999999
 51
243.495945
  0
ARC
  5
77
330
1F3
100
AcDbEntity
  8
0
100
AcDbCircle
 10
490.0
 20
550.0
 30
0.0
 40
61.0
100
AcDbArc
 50
295.9534049999999
 51
306.171681
  0
ARC
  5
78
330
1F3
100
AcDbEntity
  8
0
100
AcDbCircle
 10
490.0
 20
550.0
 30
0.0
 40
61.0
100
AcDbArc
 50
356.1078709999999
 51
4.425759999999999
  0
LINE
  5
79
330
1F3
100
AcDbEntity
  8
0
100
AcDbLine
 10
455.328655
 20
600.14175
 30
0.0
 11
455.635584
 21
600.3871379999999
 31
0.0
  0
ARC
  5
7A
330
1F3
100
AcDbEntity
  8
0
100
AcDbCircle
 10
461.6476469999999
 20
610.8928039999999
 30
0.0
 40
6.139370999999999
100
AcDbArc
 50
292.060316
 51
7.897766999999999
  0
ARC
  5
7B
330
1F3
100
AcDbEntity
  8
0
100
AcDbCircle
 10
529.1352349999999
 20
607.2037339999999
 30
0.0
 40
8.304992
100
AcDbArc
 50
236.150063
 51
295.246506
  0
LINE
  5
7C
330
1F3
100
AcDbEntity
  8
0
100
AcDbLine
 10
524.494582
 20
600.3145379999999
 30
0.0
 11
514.988575
 21
605.693476
 31
0.0
  0
ARC
  5
7D
330
1F3
100
AcDbEntity
  8
0
100
AcDbCircle
 10
558.9662459999999
 20
546.3607249999999
 30
0.0
 40
8.120877999999999
100
AcDbArc
 50
183.9927679999999
 51
243.2237819999999
  0
LINE
  5
7E
330
1F3
100
AcDbEntity
  8
0
100
AcDbLine
 10
550.815168
 20
554.7247439999999
 30
0.0
 11
550.815168
 21
555.073939
 31
0.0
  0
ARC
  5
7F
330
1F3
100
AcDbEntity
  8
0
100
AcDbCircle
 10
528.207583
 20
491.6221469999999
 30
0.0
 40
9.393750999999999
100
AcDbArc
 50
63.60980600000001
 51
103.816845
  0
ARC
  5
80
330
1F3
100
AcDbEntity
  8
0
100
AcDbCircle
 10
520.466412
 20
487.987232
 30
0.0
 40
8.098255999999999
100
AcDbArc
 50
117.999651
 51
179.4403189999999
  0
ARC
  5
81
330
1F3
100
AcDbEntity
  8
0
100
AcDbCircle
 10
458.9283980000001
 20
487.8607409999999
 30
0.0
 40
8.463827
100
AcDbArc
 50
354.415814
 51
63.23685
  0
ARC
  5
82
330
1F3
100
AcDbEntity
  8
0
100
AcDbCircle
 10
451.910772
 20
489.725719
 30
0.0
 40
10.36323099999999
100
AcDbArc
 50
62.16530600000002
 51
119.8916449999999
  0
ARC
  5
83
330
1F3
100
AcDbEntity
  8
0
100
AcDbCircle
 10
418.72354
 20
546.6998
 30
0.0
 40
10.74108999999999
100
AcDbArc
 50
303.5586859999999
 51
348.808843
  0
ARC
  5
84
330
1F3
100
AcDbEntity
  8
0
100
AcDbCircle
 10
419.4495719999999
 20
554.5050639999999
 30
0.0
 40
9.75631
100
AcDbArc
 50
1.236952999999999
 51
57.31693599999999
  0
ARC
  5
86
330
1F3
100
AcDbEntity
  8
0
100
AcDbCircle
 10
490.0432809999999
 20
839.6760830000001
 30
0.0
 40
23.13055299999999
100
AcDbArc
 50
184.071308
 51
355.928692
  0
ARC
  5
87
330
1F3
100
AcDbEntity
  8
0
100
AcDbCircle
 10
459.6787919999999
 20
827.8221009999999
 30
0.0
 40
15.392379
100
AcDbArc
 50
78.472675
 51
83.447262
  0
ARC
  5
88
330
1F3
100
AcDbEntity
  8
0
100
AcDbCircle
 10
518.985084
 20
837.1228869999999
 30
0.0
 40
5.931227999999999
100
AcDbArc
 50
87.204531
 51
171.287248
  0
ARC
  5
89
330
1F3
100
AcDbEntity
  8
0
100
AcDbCircle
 10
460.974471
 20
837.0828190000001
 30
0.0
 40
6.076216999999999
100
AcDbArc
 50
9.121441
 51
73.14940799999999
  0
LINE
  5
DD
330
1F3
100
AcDbEntity
  8
1
100
AcDbLine
 10
1300.0
 20
550.0
 30
0.0
 11
1120.0
 21
550.0
 31
0.0
  0
ARC
  5
DE
330
1F3
100
AcDbEntity
  8
0
100
AcDbCircle
 10
1127.716335
 20
581.48287
 30
0.0
 40
90.589837
100
AcDbArc
 50
350.838941
 51
6.533134999999999
  0
LINE
  5
DF
330
1F3
100
AcDbEntity
  8
2
100
AcDbLine
 10
1181.499999999999
 20
550.0
 30
0.0
 11
1181.499999999999
 21
601.0
 31
0.0
  0
LINE
  5
E0
330
1F3
100
AcDbEntity
  8
0
100
AcDbLine
 10
1225.5
 20
550.0
 30
0.0
 11
1225.5
 21
606.0
 31
0.0
  0
LINE
  5
E1
330
1F3
100
AcDbEntity
  8
0
100
AcDbLine
 10
1263.5
 20
550.0
 30
0.0
 11
1263.5
 21
596.0
 31
0.0
  0
LINE
  5
E2
330
1F3
100
AcDbEntity
  8
0
100
AcDbLine
 10
1190.499999999999
 20
550.0
 30
0.0
 11
1190.499999999999
 21
830.0
 31
0.0
  0
LINE
  5
E3
330
1F3
100
AcDbEntity
  8
0
100
AcDbLine
 10
1149.5
 20
550.0
 30
0.0
 11
1149.5
 21
830.0
 31
0.0
  0
LINE
  5
E4
330
1F3
100
AcDbEntity
  8
1
100
AcDbLine
 10
1170.0
 20
550.0
 30
0.0
 11
1170.0
 21
880.0
 31
0.0
  0
LINE
  5
E5
330
1F3
100
AcDbEntity
  8
0
100
AcDbLine
 10
1217.686929
 20
491.370873
 30
0.0
 11
1190.555722
 21
341.3413199999999
 31
0.0
  0
LINE
  5
E6
330
1F3
100
AcDbEntity
  8
1
100
AcDbLine
 10
1170.0
 20
550.0
 30
0.0
 11
1170.0
 21
220.0
 31
0.0
  0
LINE
  5
E7
330
1F3
100
AcDbEntity
  8
0
100
AcDbLine
 10
1149.5
 20
550.0
 30
0.0
 11
1149.5
 21
270.0
 31
0.0
  0
LINE
  5
E8
330
1F3
100
AcDbEntity
  8
0
100
AcDbLine
 10
1190.499999999999
 20
550.0
 30
0.0
 11
1190.499999999999
 21
270.0
 31
0.0
  0
LINE
  5
E9
330
1F3
100
AcDbEntity
  8
0
100
AcDbLine
 10
1190.499999999999
 20
270.0
 30
0.0
 11
1190.499999999999
 21
255.5
 31
0.0
  0
LINE
  5
EA
330
1F3
100
AcDbEntity
  8
0
100
AcDbLine
 10
1149.5
 20
270.0
 30
0.0
 11
1149.5
 21
255.5
 31
0.0
  0
ARC
  5
EB
330
1F3
100
AcDbEntity
  8
0
100
AcDbCircle
 10
1170.0
 20
255.5
 30
0.0
 40
20.5
100
AcDbArc
 50
180.0
 51
0.0
  0
LINE
  5
EC
330
1F3
100
AcDbEntity
  8
0
100
AcDbLine
 10
1190.558875
 20
341.3498759999999
 30
0.0
 11
1190.499198
 21
341.051655
 31
0.0
  0
LINE
  5
ED
330
1F3
100
AcDbEntity
  8
0
100
AcDbLine
 10
1217.686929
 20
508.241669
 30
0.0
 11
1190.555722
 21
425.695282
 31
0.0
  0
LINE
  5
EE
330
1F3
100
AcDbEntity
  8
0
100
AcDbLine
 10
1192.967392
 20
540.175667
 30
0.0
 11
1190.555722
 21
532.945329
 31
0.0
  0
LINE
  5
EF
330
1F3
100
AcDbEntity
  8
0
100
AcDbLine
 10
1192.967392
 20
559.824333
 30
0.0
 11
1190.555722
 21
567.0546709999999
 31
0.0
  0
LINE
  5
F0
330
1F3
100
AcDbEntity
  8
2
100
AcDbLine
 10
1181.499999999999
 20
550.0
 30
0.0
 11
1181.499999999999
 21
499.0
 31
0.0
  0
LINE
  5
F1
330
1F3
100
AcDbEntity
  8
2
100
AcDbLine
 10
1181.499999999999
 20
499.0
 30
0.0
 11
1186.0
 21
494.0
 31
0.0
  0
LINE
  5
F2
330
1F3
100
AcDbEntity
  8
2
100
AcDbLine
 10
1186.0
 20
494.0
 30
0.0
 11
1190.499999999999
 21
493.0
 31
0.0
  0
LINE
  5
F3
330
1F3
100
AcDbEntity
  8
0
100
AcDbLine
 10
1190.553099
 20
532.945922
 30
0.0
 11
1190.500856
 21
532.774371
 31
0.0
  0
LINE
  5
F4
330
1F3
100
AcDbEntity
  8
0
100
AcDbLine
 10
1190.553099
 20
567.054078
 30
0.0
 11
1190.500856
 21
567.2256289999999
 31
0.0
  0
LINE
  5
F5
330
1F3
100
AcDbEntity
  8
0
100
AcDbLine
 10
1263.5
 20
550.0
 30
0.0
 11
1263.5
 21
504.0
 31
0.0
  0
LINE
  5
F6
330
1F3
100
AcDbEntity
  8
0
100
AcDbLine
 10
1225.5
 20
550.0
 30
0.0
 11
1225.5
 21
494.0
 31
0.0
  0
ARC
  5
F7
330
1F3
100
AcDbEntity
  8
0
100
AcDbCircle
 10
1127.716335
 20
518.5171299999999
 30
0.0
 40
90.589837
100
AcDbArc
 50
353.4668649999999
 51
9.161058999999999
  0
LINE
  5
F8
330
1F3
100
AcDbEntity
  8
0
100
AcDbLine
 10
1258.5
 20
499.0
 30
0.0
 11
1225.5
 21
499.0
 31
0.0
  0
ARC
  5
F9
330
1F3
100
AcDbEntity
  8
0
100
AcDbCircle
 10
1209.017857
 20
492.673278
 30
0.0
 40
8.765610999999999
100
AcDbArc
 50
351.6645589999999
 51
27.98627399999999
  0
ARC
  5
FA
330
1F3
100
AcDbEntity
  8
0
100
AcDbCircle
 10
1213.858138
 20
493.484542
 30
0.0
 40
4.394929
100
AcDbArc
 50
48.706606
 51
84.14620300000001
  0
LINE
  5
FB
330
1F3
100
AcDbEntity
  8
0
100
AcDbLine
 10
1217.687251
 20
491.37039
 30
0.0
 11
1217.690936
 21
491.4036489999999
 31
0.0
  0
ARC
  5
FC
330
1F3
100
AcDbEntity
  8
0
100
AcDbCircle
 10
1206.585784
 20
542.997549
 30
0.0
 40
52.521494
100
AcDbArc
 50
282.2427879999999
 51
291.107771
  0
ARC
  5
FD
330
1F3
100
AcDbEntity
  8
0
100
AcDbCircle
 10
1258.3885
 20
504.1114999999999
 30
0.0
 40
5.112716
100
AcDbArc
 50
271.2496279999999
 51
358.750372
  0
ARC
  5
FE
330
1F3
100
AcDbEntity
  8
0
100
AcDbCircle
 10
1206.961796
 20
531.904882
 30
0.0
 40
10.234398
100
AcDbArc
 50
5.406049999999999
 51
63.81291799999999
  0
ARC
  5
FF
330
1F3
100
AcDbEntity
  8
0
100
AcDbCircle
 10
1201.587019
 20
505.4018179999999
 30
0.0
 40
37.03238499999999
100
AcDbArc
 50
74.508383
 51
94.997813
  0
ARC
  5
100
330
1F3
100
AcDbEntity
  8
0
100
AcDbCircle
 10
1199.783358
 20
531.0508019999999
 30
0.0
 40
11.32356
100
AcDbArc
 50
96.85530899999999
 51
126.978434
  0
ARC
  5
101
330
1F3
100
AcDbEntity
  8
0
100
AcDbCircle
 10
1199.783358
 20
568.949198
 30
0.0
 40
11.32356
100
AcDbArc
 50
233.0215659999999
 51
263.144691
  0
ARC
  5
102
330
1F3
100
AcDbEntity
  8
0
100
AcDbCircle
 10
1201.587019
 20
594.598182
 30
0.0
 40
37.03238499999999
100
AcDbArc
 50
265.0021869999999
 51
285.491617
  0
ARC
  5
103
330
1F3
100
AcDbEntity
  8
0
100
AcDbCircle
 10
1206.961796
 20
568.095118
 30
0.0
 40
10.234398
100
AcDbArc
 50
296.1870819999999
 51
354.59395
  0
LINE
  5
104
330
1F3
100
AcDbEntity
  8
0
100
AcDbLine
 10
1217.686929
 20
608.6291269999999
 30
0.0
 11
1190.555722
 21
758.65868
 31
0.0
  0
LINE
  5
105
330
1F3
100
AcDbEntity
  8
0
100
AcDbLine
 10
1217.686929
 20
591.758331
 30
0.0
 11
1190.555722
 21
674.3047179999999
 31
0.0
  0
LINE
  5
106
330
1F3
100
AcDbEntity
  8
2
100
AcDbLine
 10
1186.0
 20
606.0
 30
0.0
 11
1190.499999999999
 21
607.0
 31
0.0
  0
LINE
  5
107
330
1F3
100
AcDbEntity
  8
2
100
AcDbLine
 10
1181.499999999999
 20
601.0
 30
0.0
 11
1186.0
 21
606.0
 31
0.0
  0
LINE
  5
108
330
1F3
100
AcDbEntity
  8
0
100
AcDbLine
 10
1258.5
 20
601.0
 30
0.0
 11
1225.5
 21
601.0
 31
0.0
  0
ARC
  5
109
330
1F3
100
AcDbEntity
  8
0
100
AcDbCircle
 10
1206.585784
 20
557.0024509999999
 30
0.0
 40
52.521494
100
AcDbArc
 50
68.892229
 51
77.75721199999999
  0
LINE
  5
10A
330
1F3
100
AcDbEntity
  8
0
100
AcDbLine
 10
1217.687251
 20
608.6296099999999
 30
0.0
 11
1217.690936
 21
608.596351
 31
0.0
  0
ARC
  5
10B
330
1F3
100
AcDbEntity
  8
0
100
AcDbCircle
 10
1213.858138
 20
606.5154579999999
 30
0.0
 40
4.394929
100
AcDbArc
 50
275.853797
 51
311.293394
  0
ARC
  5
10C
330
1F3
100
AcDbEntity
  8
0
100
AcDbCircle
 10
1209.017857
 20
607.3267219999999
 30
0.0
 40
8.765610999999999
100
AcDbArc
 50
332.0137259999999
 51
8.335441000000001
  0
ARC
  5
10D
330
1F3
100
AcDbEntity
  8
0
100
AcDbCircle
 10
1258.3885
 20
595.8885
 30
0.0
 40
5.112716
100
AcDbArc
 50
1.249627999999999
 51
88.75037199999999
  0
LINE
  5
10E
330
1F3
100
AcDbEntity
  8
0
100
AcDbLine
 10
1190.558875
 20
758.650124
 30
0.0
 11
1190.499198
 21
758.948345
 31
0.0
  0
ARC
  5
10F
330
1F3
100
AcDbEntity
  8
0
100
AcDbCircle
 10
1170.0
 20
844.5
 30
0.0
 40
20.5
100
AcDbArc
 50
0.0
 51
180.0
  0
LINE
  5
111
330
1F3
100
AcDbEntity
  8
0
100
AcDbLine
 10
1190.499999999999
 20
830.0
 30
0.0
 11
1190.499999999999
 21
844.5
 31
0.0
  0
ENDSEC
  0
SECTION
  2
OBJECTS
  0
DICTIONARY
  5
1E8
330
0
100
AcDbDictionary
281
     1
  3
ACAD_GROUP
350
1E9
  3
ACAD_LAYOUT
350
219
  3
ACAD_MLINESTYLE
350
1F6
  3
ACAD_PLOTSETTINGS
350
21A
  3
ACAD_PLOTSTYLENAME
350
217
  3
ACDBVARIABLEDICTIONARY
350
20A
  3
AcmDictionary
350
2D7
  3
AMG
350
21E
  3
AMGSNAPSETTINGS
350
2F4
  3
DWGPROPS
350
2DA
  3
MAPISURF_MODULE
350
2AA
  0
DICTIONARY
  5
2FB
330
1F3
100
AcDbDictionary
280
     1
281
     1
  3
ACAD_INDEX
360
2FC
  0
DICTIONARY
  5
1E9
102
{ACAD_REACTORS
330
1E8
102
}
330
1E8
100
AcDbDictionary
281
     1
  0
DICTIONARY
  5
219
102
{ACAD_REACTORS
330
1E8
102
}
330
1E8
100
AcDbDictionary
281
     1
  3
Model
350
21B
  3
ﾚｲｱｳﾄ1
350
21C
  0
DICTIONARY
  5
1F6
102
{ACAD_REACTORS
330
1E8
102
}
330
1E8
100
AcDbDictionary
281
     1
  3
STANDARD
350
1F7
  0
DICTIONARY
  5
21A
102
{ACAD_REACTORS
330
1E8
102
}
330
1E8
100
AcDbDictionary
281
     1
  0
ACDBDICTIONARYWDFLT
  5
217
102
{ACAD_REACTORS
330
1E8
102
}
330
1E8
100
AcDbDictionary
281
     1
  3
Normal
350
218
100
AcDbDictionaryWithDefault
340
218
  0
DICTIONARY
  5
20A
102
{ACAD_REACTORS
330
1E8
102
}
330
1E8
100
AcDbDictionary
281
     1
  3
DIMADEC
350
20B
  3
DIMASSOC
350
304
  3
INDEXCTL
350
303
  0
DICTIONARY
  5
2D7
102
{ACAD_REACTORS
330
1E8
102
}
330
1E8
100
AcDbDictionary
281
     1
  3
AcmBOMDATA
350
2D8
  0
DICTIONARY
  5
21E
102
{ACAD_REACTORS
330
1E8
102
}
330
1E8
100
AcDbDictionary
281
     1
  3
AcMgSettings
350
21F
  3
AMGLAYCFG
350
2E4
  0
DICTIONARY
  5
2F4
102
{ACAD_REACTORS
330
1E8
102
}
330
1E8
100
AcDbDictionary
281
     1
  3
DIMENSION
350
2F9
  3
FEA
350
2F8
  3
HATCH (1)
350
2F5
  3
HATCH (2)
350
2F6
  3
SIMPLE WELD
350
2FA
  3
SYMBOLS
350
2F7
  0
XRECORD
  5
2DA
102
{ACAD_REACTORS
330
1E8
102
}
330
1E8
100
AcDbXrecord
280
     1
  1
DWGPROPS COOKIE
  2

  3

  4

  6

  7

  8

  9

300
AmdtFileType=84
301
=
302
=
303
=
304
=
305
=
306
=
307
=
308
=
309
=
 40
0.0003851967592593
 41
2450864.021100926
 42
2453551.65613353
  1

 90
        1
  0
DICTIONARY
  5
2FC
102
{ACAD_REACTORS
330
2FB
102
}
330
2FB
100
AcDbDictionary
281
     1
  3
*A1
350
2FD
  0
LAYOUT
  5
21B
102
{ACAD_REACTORS
330
219
102
}
330
219
100
AcDbPlotSettings
  1

  2
\\KONISHIDENXP\SHARP MX-2700FG
  4

  6

 40
0.0
 41
0.0
 42
0.0
 43
0.0
 44
0.0
 45
0.0
 46
0.0
 47
0.0
 48
0.0
 49
0.0
140
0.0
141
0.0
142
1.0
143
1.0
 70
  1712
 72
     0
 73
     0
 74
     0
  7

 75
     0
147
1.0
148
0.0
149
0.0
100
AcDbLayout
  1
Model
 70
     1
 71
     0
 10
0.0
 20
0.0
 11
12.0
 21
9.0
 12
0.0
 22
0.0
 32
0.0
 14
0.0
 24
0.0
 34
0.0
 15
0.0
 25
0.0
 35
0.0
146
0.0
 13
0.0
 23
0.0
 33
0.0
 16
1.0
 26
0.0
 36
0.0
 17
0.0
 27
1.0
 37
0.0
 76
     0
330
1F3
  0
LAYOUT
  5
21C
102
{ACAD_REACTORS
330
219
102
}
330
219
100
AcDbPlotSettings
  1

  2
\\KONISHIDENXP\SHARP MX-2700FG
  4

  6

 40
0.0
 41
0.0
 42
0.0
 43
0.0
 44
0.0
 45
0.0
 46
0.0
 47
0.0
 48
0.0
 49
0.0
140
0.0
141
0.0
142
1.0
143
1.0
 70
   688
 72
     0
 73
     0
 74
     5
  7

 75
    16
147
1.0
148
0.0
149
0.0
100
AcDbLayout
  1
ﾚｲｱｳﾄ1
 70
     0
 71
     1
 10
0.0
 20
0.0
 11
12.0
 21
9.0
 12
0.0
 22
0.0
 32
0.0
 14
1.000000000000000E+20
 24
1.000000000000000E+20
 34
1.000000000000000E+20
 15
-1.000000000000000E+20
 25
-1.000000000000000E+20
 35
-1.000000000000000E+20
146
0.0
 13
0.0
 23
0.0
 33
0.0
 16
1.0
 26
0.0
 36
0.0
 17
0.0
 27
1.0
 37
0.0
 76
     0
330
1F0
  0
MLINESTYLE
  5
1F7
102
{ACAD_REACTORS
330
1F6
102
}
330
1F6
100
AcDbMlineStyle
  2
STANDARD
 70
     0
  3

 62
   256
 51
90.0
 52
90.0
 71
     2
 49
0.5
 62
   256
  6
BYLAYER
 49
-0.5
 62
   256
  6
BYLAYER
  0
ACDBPLACEHOLDER
  5
218
102
{ACAD_REACTORS
330
217
102
}
330
217
  0
DICTIONARYVAR
  5
20B
102
{ACAD_REACTORS
330
20A
102
}
330
20A
100
DictionaryVariables
280
     0
  1
0
  0
DICTIONARYVAR
  5
304
102
{ACAD_REACTORS
330
20A
102
}
330
20A
100
DictionaryVariables
280
     0
  1
0
  0
DICTIONARYVAR
  5
303
102
{ACAD_REACTORS
330
20A
102
}
330
20A
100
DictionaryVariables
280
     0
  1
1
  0
ACMDATADICTIONARY
  5
2D8
102
{ACAD_REACTORS
330
2D7
102
}
330
2D7
100
AcDbDictionary
281
     1
  3
*A1
350
2D9
100
AcmDataDictionary
  0
DICTIONARY
  5
21F
102
{ACAD_REACTORS
330
21E
102
}
330
21E
100
AcDbDictionary
281
     1
  3
DWGSETTINGS
350
220
  0
ACAMGFILTERDAT
  5
2F9
102
{ACAD_REACTORS
330
2F4
102
}
330
2F4
100
AcAmgFilterDat
 70
    15
  1
DIMENSION,AMDT_*_DIM
  2
*
  3
*
  4
*
  5
*
290
     1
  0
ACAMGFILTERDAT
  5
2F8
102
{ACAD_REACTORS
330
2F4
102
}
330
2F4
100
AcAmgFilterDat
 70
    15
  1
*
  2
AM_FEA-AM_*
  3
*
  4
*
  5
*
290
     1
  0
ACAMGFILTERDAT
  5
2F5
102
{ACAD_REACTORS
330
2F4
102
}
330
2F4
100
AcAmgFilterDat
 70
    15
  1
HATCH
  2
*
  3
*
  4
*
  5
*
290
     1
  0
ACAMGFILTERDAT
  5
2F6
102
{ACAD_REACTORS
330
2F4
102
}
330
2F4
100
AcAmgFilterDat
 70
    15
  1
LINE
  2
8,8N,*-8,*-8N,AM_8,AM_8N,*-AM_8,*-AM_8N
  3
*
  4
*
  5
INSERT,STDPART2D
290
     1
  0
ACAMGFILTERDAT
  5
2FA
102
{ACAD_REACTORS
330
2F4
102
}
330
2F4
100
AcAmgFilterDat
 70
    15
  1
ARC
  2
AM_5
  3
*
  4
2
  5
INSERT
290
     0
  0
ACAMGFILTERDAT
  5
2F7
102
{ACAD_REACTORS
330
2F4
102
}
330
2F4
100
AcAmgFilterDat
 70
    15
  1
ACMFCFRAME,ACMDATUMTARGET,ACMDATUMID,ACMWELDSYM,ACMSURFSYM,ACMFEATID,ACMPARTREF,ACMBALLOON,AMDTEDGESYM,AMGSCREWCALCTABLE
  2
*
  3
*
  4
*
  5
*
290
     1
  0
LAYER_INDEX
  5
2FD
102
{ACAD_REACTORS
330
2FC
102
}
330
2FC
100
AcDbIndex
 40
2456448.471252523
100
AcDbLayerIndex
  8
0
360
2FE
 90
      105
  8
1
360
2FF
 90
        7
  8
10
360
300
 90
        0
  8
11
360
301
 90
        0
  8
2
360
302
 90
        6
  0
ACMDATAENTRYBLOCK
  5
2D9
102
{ACAD_REACTORS
330
2D8
102
}
330
2D8
100
AcmDataEntry
100
AcmDataEntryBlock
  0
IDBUFFER
  5
2FE
330
0
100
AcDbIdBuffer
330
7B
330
7C
330
7D
330
7E
330
7F
330
80
330
81
330
82
330
83
330
84
330
86
330
87
330
88
330
89
330
DE
330
E0
330
E1
330
E2
330
E3
330
E5
330
E7
330
E8
330
E9
330
EA
330
EB
330
EC
330
ED
330
EE
330
EF
330
F3
330
F4
330
F5
330
F6
330
F7
330
F8
330
F9
330
FA
330
FB
330
FC
330
FD
330
FE
330
FF
330
100
330
101
330
102
330
103
330
104
330
105
330
108
330
109
330
10A
330
10B
330
10C
330
10D
330
10E
330
10F
330
111
330
4B
330
4C
330
4D
330
4E
330
4F
330
50
330
51
330
52
330
53
330
54
330
55
330
56
330
57
330
58
330
59
330
5A
330
5B
330
5C
330
5D
330
5E
330
5F
330
60
330
61
330
62
330
63
330
64
330
65
330
66
330
67
330
68
330
69
330
6A
330
6B
330
6C
330
6D
330
6E
330
6F
330
70
330
71
330
72
330
73
330
74
330
75
330
76
330
77
330
78
330
79
330
7A
  0
IDBUFFER
  5
2FF
330
0
100
AcDbIdBuffer
330
46
330
47
330
49
330
4A
330
DD
330
E4
330
E6
  0
IDBUFFER
  5
300
330
0
100
AcDbIdBuffer
  0
IDBUFFER
  5
301
330
0
100
AcDbIdBuffer
  0
IDBUFFER
  5
302
330
0
100
AcDbIdBuffer
330
DF
330
F0
330
F1
330
F2
330
106
330
107
  0
ENDSEC
  0
EOF
