  0
SECTION
  2
HEADER
  9
$ACADVER
  1
AC1015
  9
$ACADMAINTVER
 70
    13
  9
$DWGCODEPAGE
  3
ANSI_932
  9
$INSBASE
 10
0.0
 20
0.0
 30
0.0
  9
$EXTMIN
 10
81.00057623070695
 20
88.61140184701531
 30
-0.0000000000000027
  9
$EXTMAX
 10
379.229690789701
 20
277.3856096833117
 30
0.0
  9
$LIMMIN
 10
0.0
 20
0.0
  9
$LIMMAX
 10
500.0
 20
320.0
  9
$ORTHOMODE
 70
     1
  9
$REGENMODE
 70
     1
  9
$FILLMODE
 70
     1
  9
$QTEXTMODE
 70
     0
  9
$MIRRTEXT
 70
     1
  9
$LTSCALE
 40
30.0
  9
$ATTMODE
 70
     1
  9
$TEXTSIZE
 40
18.0
  9
$TRACEWID
 40
0.05
  9
$TEXTSTYLE
  7
BIGFONT
  9
$CLAYER
  8
0
  9
$CELTYPE
  6
BYLAYER
  9
$CECOLOR
 62
   256
  9
$CELTSCALE
 40
1.0
  9
$DISPSILH
 70
     0
  9
$DIMSCALE
 40
3.0
  9
$DIMASZ
 40
3.0
  9
$DIMEXO
 40
2.0
  9
$DIMDLI
 40
0.38
  9
$DIMRND
 40
0.0
  9
$DIMDLE
 40
0.0
  9
$DIMEXE
 40
2.0
  9
$DIMTP
 40
0.0
  9
$DIMTM
 40
0.0
  9
$DIMTXT
 40
3.2
  9
$DIMCEN
 40
0.09
  9
$DIMTSZ
 40
0.0
  9
$DIMTOL
 70
     0
  9
$DIMLIM
 70
     0
  9
$DIMTIH
 70
     0
  9
$DIMTOH
 70
     0
  9
$DIMSE1
 70
     0
  9
$DIMSE2
 70
     0
  9
$DIMTAD
 70
     1
  9
$DIMZIN
 70
     0
  9
$DIMBLK
  1

  9
$DIMASO
 70
     0
  9
$DIMSHO
 70
     0
  9
$DIMPOST
  1

  9
$DIMAPOST
  1

  9
$DIMALT
 70
     0
  9
$DIMALTD
 70
     2
  9
$DIMALTF
 40
25.4
  9
$DIMLFAC
 40
1.0
  9
$DIMTOFL
 70
     0
  9
$DIMTVP
 40
1.6
  9
$DIMTIX
 70
     1
  9
$DIMSOXD
 70
     0
  9
$DIMSAH
 70
     0
  9
$DIMBLK1
  1

  9
$DIMBLK2
  1

  9
$DIMSTYLE
  2
STANDARD
  9
$DIMCLRD
 70
     0
  9
$DIMCLRE
 70
     0
  9
$DIMCLRT
 70
     0
  9
$DIMTFAC
 40
1.0
  9
$DIMGAP
 40
0.09
  9
$DIMJUST
 70
     0
  9
$DIMSD1
 70
     0
  9
$DIMSD2
 70
     0
  9
$DIMTOLJ
 70
     1
  9
$DIMTZIN
 70
     0
  9
$DIMALTZ
 70
     0
  9
$DIMALTTZ
 70
     0
  9
$DIMUPT
 70
     0
  9
$DIMDEC
 70
     4
  9
$DIMTDEC
 70
     4
  9
$DIMALTU
 70
     2
  9
$DIMALTTD
 70
     2
  9
$DIMTXSTY
  7
BIGFONT
  9
$DIMAUNIT
 70
     0
  9
$DIMADEC
 70
     0
  9
$DIMALTRND
 40
0.0
  9
$DIMAZIN
 70
     0
  9
$DIMDSEP
 70
    46
  9
$DIMATFIT
 70
     3
  9
$DIMFRAC
 70
     0
  9
$DIMLDRBLK
  1

  9
$DIMLUNIT
 70
     2
  9
$DIMLWD
 70
    -2
  9
$DIMLWE
 70
    -2
  9
$DIMTMOVE
 70
     0
  9
$LUNITS
 70
     2
  9
$LUPREC
 70
     4
  9
$SKETCHINC
 40
0.1
  9
$FILLETRAD
 40
0.0
  9
$AUNITS
 70
     0
  9
$AUPREC
 70
     0
  9
$MENU
  1
ACAD
  9
$ELEVATION
 40
0.0
  9
$PELEVATION
 40
0.0
  9
$THICKNESS
 40
0.0
  9
$LIMCHECK
 70
     0
  9
$CHAMFERA
 40
0.0
  9
$CHAMFERB
 40
0.0
  9
$CHAMFERC
 40
0.0
  9
$CHAMFERD
 40
0.0
  9
$SKPOLY
 70
     0
  9
$TDCREATE
 40
2450863.963102546
  9
$TDUCREATE
 40
2450863.588102546
  9
$TDUPDATE
 40
2456448.458327361
  9
$TDUUPDATE
 40
2456448.083327360
  9
$TDINDWG
 40
0.0032740278
  9
$TDUSRTIMER
 40
0.0032740278
  9
$USRTIMER
 70
     1
  9
$ANGBASE
 50
0.0
  9
$ANGDIR
 70
     0
  9
$PDMODE
 70
     0
  9
$PDSIZE
 40
0.0
  9
$PLINEWID
 40
0.0
  9
$SPLFRAME
 70
     0
  9
$SPLINETYPE
 70
     6
  9
$SPLINESEGS
 70
     8
  9
$HANDSEED
  5
6A1
  9
$SURFTAB1
 70
     6
  9
$SURFTAB2
 70
     6
  9
$SURFTYPE
 70
     6
  9
$SURFU
 70
     6
  9
$SURFV
 70
     6
  9
$UCSBASE
  2

  9
$UCSNAME
  2

  9
$UCSORG
 10
0.0
 20
0.0
 30
0.0
  9
$UCSXDIR
 10
1.0
 20
0.0
 30
0.0
  9
$UCSYDIR
 10
0.0
 20
1.0
 30
0.0
  9
$UCSORTHOREF
  2

  9
$UCSORTHOVIEW
 70
     0
  9
$UCSORGTOP
 10
0.0
 20
0.0
 30
0.0
  9
$UCSORGBOTTOM
 10
0.0
 20
0.0
 30
0.0
  9
$UCSORGLEFT
 10
0.0
 20
0.0
 30
0.0
  9
$UCSORGRIGHT
 10
0.0
 20
0.0
 30
0.0
  9
$UCSORGFRONT
 10
0.0
 20
0.0
 30
0.0
  9
$UCSORGBACK
 10
0.0
 20
0.0
 30
0.0
  9
$PUCSBASE
  2

  9
$PUCSNAME
  2

  9
$PUCSORG
 10
0.0
 20
0.0
 30
0.0
  9
$PUCSXDIR
 10
1.0
 20
0.0
 30
0.0
  9
$PUCSYDIR
 10
0.0
 20
1.0
 30
0.0
  9
$PUCSORTHOREF
  2

  9
$PUCSORTHOVIEW
 70
     0
  9
$PUCSORGTOP
 10
0.0
 20
0.0
 30
0.0
  9
$PUCSORGBOTTOM
 10
0.0
 20
0.0
 30
0.0
  9
$PUCSORGLEFT
 10
0.0
 20
0.0
 30
0.0
  9
$PUCSORGRIGHT
 10
0.0
 20
0.0
 30
0.0
  9
$PUCSORGFRONT
 10
0.0
 20
0.0
 30
0.0
  9
$PUCSORGBACK
 10
0.0
 20
0.0
 30
0.0
  9
$USERI1
 70
     0
  9
$USERI2
 70
     0
  9
$USERI3
 70
     0
  9
$USERI4
 70
     0
  9
$USERI5
 70
     0
  9
$USERR1
 40
0.0
  9
$USERR2
 40
0.0
  9
$USERR3
 40
0.0
  9
$USERR4
 40
0.0
  9
$USERR5
 40
0.0
  9
$WORLDVIEW
 70
     1
  9
$SHADEDGE
 70
     3
  9
$SHADEDIF
 70
    70
  9
$TILEMODE
 70
     1
  9
$MAXACTVP
 70
    16
  9
$PINSBASE
 10
0.0
 20
0.0
 30
0.0
  9
$PLIMCHECK
 70
     0
  9
$PEXTMIN
 10
1.000000000000000E+20
 20
1.000000000000000E+20
 30
1.000000000000000E+20
  9
$PEXTMAX
 10
-1.000000000000000E+20
 20
-1.000000000000000E+20
 30
-1.000000000000000E+20
  9
$PLIMMIN
 10
0.0
 20
0.0
  9
$PLIMMAX
 10
12.0
 20
9.0
  9
$UNITMODE
 70
     0
  9
$VISRETAIN
 70
     0
  9
$PLINEGEN
 70
     1
  9
$PSLTSCALE
 70
     0
  9
$TREEDEPTH
 70
  3020
  9
$CMLSTYLE
  2
STANDARD
  9
$CMLJUST
 70
     0
  9
$CMLSCALE
 40
1.0
  9
$PROXYGRAPHICS
 70
     1
  9
$MEASUREMENT
 70
     0
  9
$CELWEIGHT
370
    -1
  9
$ENDCAPS
280
     0
  9
$JOINSTYLE
280
     0
  9
$LWDISPLAY
290
     0
  9
$INSUNITS
 70
     0
  9
$HYPERLINKBASE
  1

  9
$STYLESHEET
  1

  9
$XEDIT
290
     1
  9
$CEPSNTYPE
380
     0
  9
$PSTYLEMODE
290
     1
  9
$FINGERPRINTGUID
  2
{6D0955ED-7600-4EA6-982D-887A0D8B4FC1}
  9
$VERSIONGUID
  2
{F70760D2-2327-45AB-8BBC-64A2722442D5}
  9
$EXTNAMES
290
     1
  9
$PSVPSCALE
 40
0.0
  9
$OLESTARTUP
290
     0
  0
ENDSEC
  0
SECTION
  2
CLASSES
  0
CLASS
  1
DICTIONARYVAR
  2
AcDbDictionaryVar
  3
AutoCAD 2000
 90
        0
280
     0
281
     0
  0
CLASS
  1
ACDBDICTIONARYWDFLT
  2
AcDbDictionaryWithDefault
  3
AutoCAD 2000
 90
        0
280
     0
281
     0
  0
CLASS
  1
ACDBPLACEHOLDER
  2
AcDbPlaceHolder
  3
AutoCAD 2000
 90
        0
280
     0
281
     0
  0
CLASS
  1
LAYOUT
  2
AcDbLayout
  3
AutoCAD 2000
 90
        0
280
     0
281
     0
  0
CLASS
  1
AMGSETTINGSOBJ
  2
AmgSettingsObj
  3
"AcadM|Product Description: AutoCAD Mechanical 2000|Company: Autodesk"
 90
        0
280
     0
281
     0
  0
CLASS
  1
ACME_DOCUMENT
  2
AcMeDbDoc
  3
AcMeServices
 90
        0
280
     0
281
     0
  0
CLASS
  1
ACMESCOPE
  2
AcMeScope
  3
AcMeServices
 90
        0
280
     0
281
     0
  0
CLASS
  1
ACMECOMMANDHISTORY
  2
AcMeCommandHistory
  3
AcMeServices
 90
        0
280
     0
281
     0
  0
CLASS
  1
ACIMSYSVARMAN
  2
AcImSysVarManager
  3
AcMeServices
 90
        0
280
     0
281
     0
  0
CLASS
  1
ACIMREALSYSVAR
  2
AcImRealSysVar
  3
AcMeServices
 90
        0
280
     0
281
     0
  0
CLASS
  1
ACIMINTSYSVAR
  2
AcImIntSysVar
  3
AcMeServices
 90
        0
280
     0
281
     0
  0
CLASS
  1
ACMEDRAWINGMAN
  2
AcMeDrawingMan
  3
AcMeServices
 90
        0
280
     0
281
     0
  0
CLASS
  1
ACMEVIEW
  2
AcMeView
  3
AcMeServices
 90
        0
280
     0
281
     0
  0
CLASS
  1
ACDBENTITYCACHE
  2
AcMeEntityCache
  3
AcMeServices
 90
        0
280
     0
281
     0
  0
CLASS
  1
GSMANAGER
  2
AcMeGSManager
  3
AcMeServices
 90
        0
280
     0
281
     0
  0
CLASS
  1
AMDTINTERNALREACTOR
  2
AmdtInternalReactor
  3
AcMeServices
 90
        0
280
     0
281
     0
  0
CLASS
  1
ACMESTATEMGR
  2
AcMeStateMgr
  3
AcMeServices
 90
        0
280
     0
281
     0
  0
CLASS
  1
ACGREFMASTER
  2
AcGrefMaster
  3
AcAttribServices
 90
        0
280
     0
281
     0
  0
CLASS
  1
AM_DRAWING_MGR
  2
AcDmDwgMgr
  3
AcMechDwgViewMgmt
 90
        0
280
     0
281
     0
  0
CLASS
  1
AM_DWG_DOCUMENT
  2
AcDmDwgDocument
  3
AcMechDwgViewMgmt
 90
        0
280
     0
281
     0
  0
CLASS
  1
AM_DWG_SHEET
  2
AcDmSheet
  3
AcMechDwgViewMgmt
 90
        0
280
     0
281
     0
  0
CLASS
  1
AM_VIEWDIMPARMAP
  2
AcDmViewDimParMap
  3
AcMechDwgViewMgmt
 90
        0
280
     0
281
     0
  0
CLASS
  1
AM_DWGMGR_NAME
  2
AcDmDwgMgrName
  3
AcMechDwgViewMgmt
 90
        0
280
     0
281
     0
  0
CLASS
  1
ACME_DATABASE
  2
AcMeDbDatabase
  3
AcMeServices
 90
        0
280
     0
281
     0
  0
CLASS
  1
ACRFINSADJUSTERMGR
  2
AcRfInsAdjusterMgr
  3
AcMeServices
 90
        0
280
     0
281
     0
  0
CLASS
  1
ACGREFACADMASTER
  2
AcGrefacadMaster
  3
AcGrefServices
 90
        0
280
     0
281
     0
  0
CLASS
  1
AMDTMENUSTATEMGR
  2
AmdtMenuStateMgr
  3
McadcomServices
 90
        0
280
     0
281
     0
  0
CLASS
  1
AMDTMCOMMENUSTATE
  2
AmdtMcomMenuState
  3
McadcomServices
 90
        0
280
     0
281
     0
  0
CLASS
  1
AMIMASTER
  2
AmiMaster
  3
AmiServices
 90
        0
280
     0
281
     0
  0
CLASS
  1
ASAPP
  2
AcAsAppObject
  3
AutoSurfServices
 90
        0
280
     0
281
     0
  0
CLASS
  1
IM_STATIC_MAN
  2
AcImStaticVarManager
  3
AcMeServices
 90
        0
280
     0
281
     0
  0
CLASS
  1
ACIMSTRSYSVAR
  2
AcImStrSysVar
  3
AcMeServices
 90
        0
280
     0
281
     0
  0
CLASS
  1
ACIMDBLSTATICVAR
  2
AcImDblStaticVar
  3
AcMeServices
 90
        0
280
     0
281
     0
  0
CLASS
  1
ACIMSTRSTATICVAR
  2
AcImStrStaticVar
  3
AcMeServices
 90
        0
280
     0
281
     0
  0
CLASS
  1
ACIMINTSTATICVAR
  2
AcImIntStaticVar
  3
AcMeServices
 90
        0
280
     0
281
     0
  0
CLASS
  1
ACASGREFMASTER
  2
AcAsGrefMaster
  3
AutoSurfResolverServices
 90
        0
280
     0
281
     0
  0
CLASS
  1
ACADGREFMODULE
  2
AcAdGrefModule
  3
AdGrefServices
 90
        0
280
     0
281
     0
  0
CLASS
  1
AMDTMAPISURFMOUDULE
  2
AmdtMApiSurfModule
  3
MApiSurfServices
 90
    32768
280
     0
281
     0
  0
CLASS
  1
MAPIAMMOUDLE
  2
MApiAmModule
  3
MApiAmServices
 90
        0
280
     0
281
     0
  0
CLASS
  1
AMDTADMENUSTATE
  2
AmdtAdMenuState
  3
DesignerServices
 90
        0
280
     0
281
     0
  0
CLASS
  1
ADAPPL
  2
AcAdAppl
  3
DesignerServices
 90
        0
280
     0
281
     0
  0
CLASS
  1
DEPMGR
  2
AcAdDepMgr
  3
DesignerServices
 90
        0
280
     0
281
     0
  0
CLASS
  1
PARAMMGR
  2
AcAdParamMgr
  3
DesignerServices
 90
        0
280
     0
281
     0
  0
CLASS
  1
PARAMSCOPE
  2
AcAdParamScope
  3
DesignerServices
 90
        0
280
     0
281
     0
  0
CLASS
  1
NAMEDAPPL
  2
AcAdNamedAppl
  3
DesignerServices
 90
        0
280
     0
281
     0
  0
CLASS
  1
AMDTDMMENUSTATE
  2
AmdtDmMenuState
  3
AcMechDwgViewMgmt
 90
        0
280
     0
281
     0
  0
CLASS
  1
MAPIADMODULE
  2
MApiAdModule
  3
MApiAdServices
 90
        0
280
     0
281
     0
  0
CLASS
  1
AMDTAMMENUSTATE
  2
AmdtAmMenuState
  3
DesignerAssemblies
 90
        0
280
     0
281
     0
  0
CLASS
  1
ACAMPROJECT
  2
AcAmProject
  3
DesignerAssemblies
 90
        0
280
     0
281
     0
  0
CLASS
  1
ACAMGRCOMPDEF
  2
AcAmGrCompDef
  3
DesignerAssemblies
 90
        0
280
     0
281
     0
  0
CLASS
  1
ACCMCONTEXT
  2
AcCmContext
  3
DesignerAssemblies
 90
        0
280
     0
281
     0
  0
CLASS
  1
ACAMCOMPDEF
  2
AcAmCompDef
  3
DesignerAssemblies
 90
        0
280
     0
281
     0
  0
CLASS
  1
ACAMCOMPDEFMGR
  2
AcAmCompDefMgr
  3
DesignerAssemblies
 90
        0
280
     0
281
     0
  0
CLASS
  1
AMCONTEXTMGR
  2
AcAmContextMgr
  3
DesignerAssemblies
 90
        0
280
     0
281
     0
  0
CLASS
  1
ACAMCONTEXTMODELER
  2
AcAmContextModeler
  3
DesignerAssemblies
 90
        0
280
     0
281
     0
  0
CLASS
  1
ACMDATADICTIONARY
  2
AcmDataDictionary
  3
"AcmSymBB|Product Description: AutoCAD Mechanical 2000|Company: Autodesk"
 90
        0
280
     0
281
     0
  0
CLASS
  1
ACMDATAENTRYBLOCK
  2
AcmDataEntryBlock
  3
"AcmSymBB|Product Description: AutoCAD Mechanical 2000|Company: Autodesk"
 90
        0
280
     0
281
     0
  0
CLASS
  1
CATALOGSTATE
  2
AcAmCatalogState
  3
DesignerAssemblies
 90
        0
280
     0
281
     0
  0
CLASS
  1
ACAMGRCOMPDEFSET
  2
AcAmGrCompDefSet
  3
DesignerAssemblies
 90
        0
280
     0
281
     0
  0
CLASS
  1
AMDTBROWSERDBTAB
  2
AmdtBrowserDbTab
  3
McadcomServices
 90
        0
280
     0
281
     0
  0
CLASS
  1
CBROWSERAPPOBJECT
  2
CBrowserAppObject
  3
McadcomServices
 90
        0
280
     0
281
     0
  0
CLASS
  1
DM_PLACEHOLDER
  2
AcDmSelsetPlaceholder
  3
AcMechDwgViewMgmt
 90
        0
280
     0
281
     0
  0
CLASS
  1
AMGOBJPROPCFG
  2
AmgObjPropCfg
  3
"AmgLay|Product Description: AutoCAD Mechanical 2000|Company: Autodesk"
 90
        1
280
     0
281
     0
  0
CLASS
  1
ACAMGFILTERDAT
  2
AcAmgFilterDat
  3
"AcadM|Product Description: AutoCAD Mechanical 2000|Company: Autodesk"
 90
        0
280
     0
281
     0
  0
CLASS
  1
ACMSTANDARDISO
  2
AcmStandardISO
  3
"Amdt_StdImp|Product Description: AutoCAD Mechanical 2000|Company: Autodesk"
 90
    32768
280
     0
281
     0
  0
CLASS
  1
AMDTEDGESTANDARDISO
  2
AmdtEdgeStdISO
  3
"Amdt_StdImp|Product Description: AutoCAD Mechanical 2000|Company: Autodesk"
 90
    32768
280
     0
281
     0
  0
CLASS
  1
ACMSURFSTANDARDISO
  2
AcmSurfTextStdISO
  3
"Amdt_StdImp|Product Description: AutoCAD Mechanical 2000|Company: Autodesk"
 90
    32768
280
     0
281
     0
  0
CLASS
  1
ACMFCFSTANDARDISO
  2
AcmFCFStdISO
  3
"Amdt_StdImp|Product Description: AutoCAD Mechanical 2000|Company: Autodesk"
 90
    32768
280
     0
281
     0
  0
CLASS
  1
ACMWELDSTANDARDISO
  2
AcmWeldingStdISO
  3
"Amdt_StdImp|Product Description: AutoCAD Mechanical 2000|Company: Autodesk"
 90
    32768
280
     0
281
     0
  0
CLASS
  1
ACMIDSTANDARDISO
  2
AcmIdStdISO
  3
"Amdt_StdImp|Product Description: AutoCAD Mechanical 2000|Company: Autodesk"
 90
    32768
280
     0
281
     0
  0
CLASS
  1
ACMDATUMSTANDARDISO
  2
AcmDatumStdISO
  3
"Amdt_StdImp|Product Description: AutoCAD Mechanical 2000|Company: Autodesk"
 90
    32768
280
     0
281
     0
  0
CLASS
  1
ACMBOMSTANDARDISO
  2
AcmBOMStdISO
  3
"Amdt_StdImp|Product Description: AutoCAD Mechanical 2000|Company: Autodesk"
 90
    32768
280
     0
281
     0
  0
CLASS
  1
ACMDETAILSTANDARDISO
  2
AmdtDetailSymStdISO
  3
"Amdt_StdImp|Product Description: AutoCAD Mechanical 2000|Company: Autodesk"
 90
    32768
280
     0
281
     0
  0
CLASS
  1
ACMSECTIONSTANDARDISO
  2
AmdtSectionSymStdISO
  3
"Amdt_StdImp|Product Description: AutoCAD Mechanical 2000|Company: Autodesk"
 90
    32768
280
     0
281
     0
  0
CLASS
  1
ACMCENTERLINESTANDARDISO
  2
AmdtCenterLineStdISO
  3
"Amdt_StdImp|Product Description: AutoCAD Mechanical 2000|Company: Autodesk"
 90
    32768
280
     0
281
     0
  0
CLASS
  1
ACMTHREADLINESTANDARDISO
  2
AmdtThreadLineStdISO
  3
"Amdt_StdImp|Product Description: AutoCAD Mechanical 2000|Company: Autodesk"
 90
    32768
280
     0
281
     0
  0
CLASS
  1
ACMNOTESTANDARDISO
  2
AmdtNoteStdISO
  3
"Amdt_StdImp|Product Description: AutoCAD Mechanical 2000|Company: Autodesk"
 90
    32768
280
     0
281
     0
  0
CLASS
  1
ACAMGLAYSTD
  2
AcAmgLayStd
  3
"AcAmgLayStd|Product Description: AutoCAD Mechanical 2000|Company: Autodesk"
 90
    32768
280
     0
281
     0
  0
CLASS
  1
ACAMGDIMSTD
  2
AcAmgDimStd
  3
"AcAmgDimStd|Product Description: AutoCAD Mechanical 2000|Company: Autodesk"
 90
    32768
280
     0
281
     0
  0
CLASS
  1
ACAMGHOLECHARTSTDISO
  2
AcAmgHoleChartStdISO
  3
ACMSYMBB_MODULE_NAME
 90
    32768
280
     0
281
     0
  0
CLASS
  1
ACAMGTITLESTD
  2
AcAmgTitleStd
  3
"TITLEAPP"
 90
    32768
280
     0
281
     0
  0
CLASS
  1
AMDTFORMULAUPDATEDISPATCHER
  2
AmdtFormulaUpdateDispatcher
  3
AcMeServices
 90
        0
280
     0
281
     0
  0
CLASS
  1
LAYER_INDEX
  2
AcDbLayerIndex
  3
AutoCAD 2000
 90
        0
280
     0
281
     0
  0
CLASS
  1
IDBUFFER
  2
AcDbIdBuffer
  3
AutoCAD 2000
 90
        0
280
     0
281
     0
  0
ENDSEC
  0
SECTION
  2
TABLES
  0
TABLE
  2
VPORT
  5
1D6
330
0
100
AcDbSymbolTable
 70
     3
  0
VPORT
  5
6A0
330
1D6
100
AcDbSymbolTableRecord
100
AcDbViewportTableRecord
  2
*Active
 70
     0
 10
0.0
 20
0.0
 11
1.0
 21
1.0
 12
0.0
 22
0.0
 13
0.0
 23
0.0
 14
5.0
 24
5.0
 15
10.0
 25
10.0
 16
0.0
 26
0.0
 36
1.0
 17
294.6125919498795
 27
197.7634529999999
 37
0.0
 40
395.526906
 41
1.489721886336154
 42
50.0
 43
0.0
 44
0.0
 50
0.0
 51
0.0
 71
     0
 72
  1000
 73
     1
 74
     1
 75
     0
 76
     0
 77
     0
 78
     0
281
     0
 65
     0
110
0.0
120
0.0
130
0.0
111
1.0
121
0.0
131
0.0
112
0.0
122
1.0
132
0.0
 79
     0
146
0.0
  0
ENDTAB
  0
TABLE
  2
LTYPE
  5
1D3
330
0
100
AcDbSymbolTable
 70
    21
  0
LTYPE
  5
1DF
330
1D3
100
AcDbSymbolTableRecord
100
AcDbLinetypeTableRecord
  2
BYBLOCK
 70
     0
  3

 72
    65
 73
     0
 40
0.0
  0
LTYPE
  5
1E0
330
1D3
100
AcDbSymbolTableRecord
100
AcDbLinetypeTableRecord
  2
BYLAYER
 70
     0
  3

 72
    65
 73
     0
 40
0.0
  0
LTYPE
  5
1E1
330
1D3
100
AcDbSymbolTableRecord
100
AcDbLinetypeTableRecord
  2
CONTINUOUS
 70
     0
  3
実線
 72
    65
 73
     0
 40
0.0
  0
LTYPE
  5
1FE
330
1D3
100
AcDbSymbolTableRecord
100
AcDbLinetypeTableRecord
  2
CENTER
 70
     0
  3
____ _ ____ _ ____ _ ____ _ ____ _ ____ _ ____
 72
    65
 73
     4
 40
2.0
 49
1.25
 74
     0
 49
-0.25
 74
     0
 49
0.25
 74
     0
 49
-0.25
 74
     0
  0
LTYPE
  5
1FF
330
1D3
100
AcDbSymbolTableRecord
100
AcDbLinetypeTableRecord
  2
TENSEN1
 70
     0
  3

 72
    65
 73
     2
 40
0.4
 49
0.3
 74
     0
 49
-0.1
 74
     0
  0
LTYPE
  5
24A
330
1D3
100
AcDbSymbolTableRecord
100
AcDbLinetypeTableRecord
  2
HIDDEN
 70
     0
  3
Hidden __ __ __ __ __ __ __ __ __ __ __ __ __ _
 72
    65
 73
     2
 40
0.375
 49
0.25
 74
     0
 49
-0.125
 74
     0
  0
LTYPE
  5
24B
330
1D3
100
AcDbSymbolTableRecord
100
AcDbLinetypeTableRecord
  2
PHANTOM2
 70
     0
  3
Phantom (.5x) ___ _ _ ___ _ _ ___ _ _ ___ _ _
 72
    65
 73
     6
 40
1.25
 49
0.625
 74
     0
 49
-0.125
 74
     0
 49
0.125
 74
     0
 49
-0.125
 74
     0
 49
0.125
 74
     0
 49
-0.125
 74
     0
  0
LTYPE
  5
2AD
330
1D3
100
AcDbSymbolTableRecord
100
AcDbLinetypeTableRecord
  2
ASULTYPE
 70
     0
  3
実線
 72
    65
 73
     2
 40
3.0
 49
2.5
 74
     0
 49
0.5
 74
     0
  0
LTYPE
  5
2AE
330
1D3
100
AcDbSymbolTableRecord
100
AcDbLinetypeTableRecord
  2
ASVLTYPE
 70
     0
  3
__ __ __ __ __ __ __ __ __ __ __ __ __ __ __ __ __ __ __ __ __
 72
    65
 73
     2
 40
0.75
 49
0.5
 74
     0
 49
-0.25
 74
     0
  0
LTYPE
  5
2EF
330
1D3
100
AcDbSymbolTableRecord
100
AcDbLinetypeTableRecord
  2
AM_ISO02W050
 70
     0
  3
__ __ __ __ __ __ __ __ __ __ __ __ __ __ __
 72
    65
 73
     2
 40
7.5
 49
6.0
 74
     0
 49
-1.5
 74
     0
  0
LTYPE
  5
2F0
330
1D3
100
AcDbSymbolTableRecord
100
AcDbLinetypeTableRecord
  2
AM_ISO08W050
 70
     0
  3
____ . ____ . ____ . ____ . ____ . ____ . ____
 72
    65
 73
     4
 40
18.0
 49
12.0
 74
     0
 49
-1.5
 74
     0
 49
3.0
 74
     0
 49
-1.5
 74
     0
  0
LTYPE
  5
2F1
330
1D3
100
AcDbSymbolTableRecord
100
AcDbLinetypeTableRecord
  2
AM_ISO09W050
 70
     0
  3
_____ . . _____ . . _____ . . ____ .. ____
 72
    65
 73
     6
 40
22.5
 49
12.0
 74
     0
 49
-1.5
 74
     0
 49
3.0
 74
     0
 49
-1.5
 74
     0
 49
3.0
 74
     0
 49
-1.5
 74
     0
  0
LTYPE
  5
2F2
330
1D3
100
AcDbSymbolTableRecord
100
AcDbLinetypeTableRecord
  2
Amconstr
 70
     0
  3
_______________________
 72
    65
 73
     2
 40
9999.0
 49
9999.0
 74
     0
 49
0.0
 74
     0
  0
LTYPE
  5
2F3
330
1D3
100
AcDbSymbolTableRecord
100
AcDbLinetypeTableRecord
  2
AM_ISO08W050x2
 70
     0
  3
__ . __ . __ . __ . __ . __
 72
    65
 73
     4
 40
9.0
 49
6.0
 74
     0
 49
-0.75
 74
     0
 49
1.5
 74
     0
 49
-0.75
 74
     0
  0
LTYPE
  5
2F4
330
1D3
100
AcDbSymbolTableRecord
100
AcDbLinetypeTableRecord
  2
AM_ISO02W050x2
 70
     0
  3
 _ _ _ _ _ _ _ _ _ _ _ _
 72
    65
 73
     2
 40
3.75
 49
3.0
 74
     0
 49
-0.75
 74
     0
  0
LTYPE
  5
2F7
330
1D3
100
AcDbSymbolTableRecord
100
AcDbLinetypeTableRecord
  2
Amzigzag
 70
     0
  3
/\/-/\/-/\/-/\/-/\/-/\/
 72
    65
 73
     2
 40
11.00009999999999
 49
0.0001
 74
     4
 75
   135
340
2F6
 46
0.04
 50
0.0
 44
0.0
 45
0.0
 49
-11.0
 74
     0
  0
LTYPE
  5
2F8
330
1D3
100
AcDbSymbolTableRecord
100
AcDbLinetypeTableRecord
  2
CENTER2
 70
     0
  3
Center (.5x) ___ _ ___ _ ___ _ ___ _ ___ _ ___
 72
    65
 73
     4
 40
1.125
 49
0.75
 74
     0
 49
-0.125
 74
     0
 49
0.125
 74
     0
 49
-0.125
 74
     0
  0
LTYPE
  5
2F9
330
1D3
100
AcDbSymbolTableRecord
100
AcDbLinetypeTableRecord
  2
HIDDEN2
 70
     0
  3
Hidden (.5x) _ _ _ _ _ _ _ _ _ _ _ _ _ _ _ _ _
 72
    65
 73
     2
 40
0.1875
 49
0.125
 74
     0
 49
-0.0625
 74
     0
  0
LTYPE
  5
2FA
330
1D3
100
AcDbSymbolTableRecord
100
AcDbLinetypeTableRecord
  2
Amzigzag2
 70
     0
  3
/\/-/\/-/\/-/\/-/\/-/\/
 72
    65
 73
     2
 40
0.4401
 49
0.0001
 74
     4
 75
   135
340
2F6
 46
0.0016
 50
0.0
 44
0.0
 45
0.0
 49
-0.4400000000000002
 74
     0
  0
LTYPE
  5
37A
330
1D3
100
AcDbSymbolTableRecord
100
AcDbLinetypeTableRecord
  2
ITTEN1
 70
     0
  3

 72
    65
 73
     4
 40
8.199999999999999
 49
5.0
 74
     0
 49
-1.0
 74
     0
 49
1.199999999999999
 74
     0
 49
-1.0
 74
     0
  0
LTYPE
  5
37B
330
1D3
100
AcDbSymbolTableRecord
100
AcDbLinetypeTableRecord
  2
ACISOWELD
 70
     0
  3
_ _ _ _ _
 72
    65
 73
     2
 40
2.0
 49
2.0
 74
     0
 49
-1.0
 74
     0
  0
LTYPE
  5
37C
330
1D3
100
AcDbSymbolTableRecord
100
AcDbLinetypeTableRecord
  2
ACISOTGB
 70
     0
  3
__ . . __ . .
 72
    65
 73
     6
 40
9.0
 49
4.0
 74
     0
 49
-1.0
 74
     0
 49
1.0
 74
     0
 49
-1.0
 74
     0
 49
1.0
 74
     0
 49
-1.0
 74
     0
  0
LTYPE
  5
37D
330
1D3
100
AcDbSymbolTableRecord
100
AcDbLinetypeTableRecord
  2
ACISOTGL
 70
     0
  3
_ _ _ _ _
 72
    65
 73
     2
 40
3.0
 49
2.0
 74
     0
 49
-1.0
 74
     0
  0
ENDTAB
  0
TABLE
  2
LAYER
  5
1D0
330
0
100
AcDbSymbolTable
 70
     7
  0
LAYER
  5
1DC
330
1D0
100
AcDbSymbolTableRecord
100
AcDbLayerTableRecord
  2
0
 70
     0
 62
     7
  6
CONTINUOUS
370
    -3
390
220
  0
LAYER
  5
204
330
1D0
100
AcDbSymbolTableRecord
100
AcDbLayerTableRecord
  2
1
 70
     0
 62
     1
  6
CENTER
370
    -3
390
220
  0
LAYER
  5
205
330
1D0
100
AcDbSymbolTableRecord
100
AcDbLayerTableRecord
  2
3
 70
     0
 62
     7
  6
CONTINUOUS
370
    -3
390
220
  0
LAYER
  5
206
330
1D0
100
AcDbSymbolTableRecord
100
AcDbLayerTableRecord
  2
4
 70
     0
 62
     7
  6
CONTINUOUS
370
    -3
390
220
  0
LAYER
  5
207
330
1D0
100
AcDbSymbolTableRecord
100
AcDbLayerTableRecord
  2
10
 70
     0
 62
     7
  6
CONTINUOUS
370
    -3
390
220
  0
LAYER
  5
208
330
1D0
100
AcDbSymbolTableRecord
100
AcDbLayerTableRecord
  2
11
 70
     0
 62
     7
  6
CONTINUOUS
370
    -3
390
220
  0
LAYER
  5
37E
330
1D0
100
AcDbSymbolTableRecord
100
AcDbLayerTableRecord
  2
DEFPOINTS
 70
     0
 62
     7
  6
CONTINUOUS
290
     0
370
    -3
390
220
  0
ENDTAB
  0
TABLE
  2
STYLE
  5
1D1
330
0
100
AcDbSymbolTable
 70
    14
  0
STYLE
  5
1DD
330
1D1
100
AcDbSymbolTableRecord
100
AcDbTextStyleTableRecord
  2
STANDARD
 70
     0
 40
0.0
 41
1.0
 50
0.0
 71
     0
 42
0.2
  3
TXT
  4
BIGFONT
  0
STYLE
  5
1F4
330
1D1
100
AcDbSymbolTableRecord
100
AcDbTextStyleTableRecord
  2
KANJI100
 70
     0
 40
2.5
 41
1.0
 50
0.0
 71
     0
 42
2.399999999999999
  3

  4
BIGFONT
  0
STYLE
  5
1F5
330
1D1
100
AcDbSymbolTableRecord
100
AcDbTextStyleTableRecord
  2
KANJI102
 70
     0
 40
2.75
 41
1.75
 50
0.0
 71
     0
 42
2.399999999999999
  3

  4
BIGFONT
  0
STYLE
  5
1F6
330
1D1
100
AcDbSymbolTableRecord
100
AcDbTextStyleTableRecord
  2
KANJI103
 70
     0
 40
6.0
 41
1.75
 50
0.0
 71
     0
 42
2.399999999999999
  3

  4
BIGFONT
  0
STYLE
  5
1F7
330
1D1
100
AcDbSymbolTableRecord
100
AcDbTextStyleTableRecord
  2
KANJI
 70
     0
 40
0.0
 41
1.0
 50
0.0
 71
     0
 42
3.0
  3
TXT
  4
BIGFONT
  0
STYLE
  5
1F8
330
1D1
100
AcDbSymbolTableRecord
100
AcDbTextStyleTableRecord
  2
K75
 70
     0
 40
0.0
 41
0.75
 50
0.0
 71
     0
 42
3.0
  3
TXT
  4
BIGFONT
  0
STYLE
  5
1F9
330
1D1
100
AcDbSymbolTableRecord
100
AcDbTextStyleTableRecord
  2
K60
 70
     0
 40
0.0
 41
0.6
 50
0.0
 71
     0
 42
3.0
  3
TXT
  4
BIGFONT
  0
STYLE
  5
1FA
330
1D1
100
AcDbSymbolTableRecord
100
AcDbTextStyleTableRecord
  2
S75
 70
     0
 40
0.0
 41
0.75
 50
0.0
 71
     0
 42
3.0
  3
TXT
  4

  0
STYLE
  5
1FB
330
1D1
100
AcDbSymbolTableRecord
100
AcDbTextStyleTableRecord
  2
K80
 70
     0
 40
0.0
 41
0.8
 50
0.0
 71
     0
 42
0.2
  3
TXT
  4
BIGFONT
  0
STYLE
  5
1FC
330
1D1
100
AcDbSymbolTableRecord
100
AcDbTextStyleTableRecord
  2
07500
 70
     0
 40
0.0
 41
0.75
 50
0.0
 71
     0
 42
0.2
  3
TXT
  4
BIGFONT
  0
STYLE
  5
1FD
330
1D1
100
AcDbSymbolTableRecord
100
AcDbTextStyleTableRecord
  2
BIGFONT
 70
     0
 40
18.0
 41
0.8
 50
0.0
 71
     0
 42
18.0
  3

  4
bigfont
  0
STYLE
  5
2F6
330
1D1
100
AcDbSymbolTableRecord
100
AcDbTextStyleTableRecord
  2

 70
     1
 40
0.0
 41
1.0
 50
0.0
 71
     0
 42
18.0
  3
ltypeshp.shx
  4

  0
STYLE
  5
37F
330
1D1
100
AcDbSymbolTableRecord
100
AcDbTextStyleTableRecord
  2
ACISOTS
 70
     0
 40
1.0
 41
1.0
 50
0.0
 71
     0
 42
5.0
  3
isocp.shx
  4
extfont.shx
  0
STYLE
  5
380
330
1D1
100
AcDbSymbolTableRecord
100
AcDbTextStyleTableRecord
  2
ACISOGDT
 70
     0
 40
0.0
 41
1.0
 50
0.0
 71
     0
 42
5.0
  3
amgdt.shx
  4

  0
ENDTAB
  0
TABLE
  2
VIEW
  5
1D4
330
0
100
AcDbSymbolTable
 70
     1
  0
VIEW
  5
200
330
1D4
100
AcDbSymbolTableRecord
100
AcDbViewTableRecord
  2
ALL
 70
     0
 40
810.0
 10
662.9747899999999
 20
405.0
 41
0.0
 11
0.0
 21
0.0
 31
1.0
 12
0.0
 22
0.0
 32
0.0
 42
50.0
 43
0.0
 44
0.0
 50
0.0
 71
     0
281
     0
 72
     0
  0
ENDTAB
  0
TABLE
  2
UCS
  5
1D5
330
0
100
AcDbSymbolTable
 70
     0
  0
ENDTAB
  0
TABLE
  2
APPID
  5
1D7
330
0
100
AcDbSymbolTable
 70
    12
  0
APPID
  5
1DE
330
1D7
100
AcDbSymbolTableRecord
100
AcDbRegAppTableRecord
  2
ACAD
 70
     0
  0
APPID
  5
229
330
1D7
100
AcDbSymbolTableRecord
100
AcDbRegAppTableRecord
  2
GENIUS_GENDIM_13
 70
     0
  0
APPID
  5
22A
330
1D7
100
AcDbSymbolTableRecord
100
AcDbRegAppTableRecord
  2
GENIUS_GENDTOL_13
 70
     0
  0
APPID
  5
22B
330
1D7
100
AcDbSymbolTableRecord
100
AcDbRegAppTableRecord
  2
GENIUS_GE3DTOL_13
 70
     0
  0
APPID
  5
22D
330
1D7
100
AcDbSymbolTableRecord
100
AcDbRegAppTableRecord
  2
MCAD_NO_VIS
 70
     0
  0
APPID
  5
22E
330
1D7
100
AcDbSymbolTableRecord
100
AcDbRegAppTableRecord
  2
ACAD_TEMP_GRAPHIC
 70
     0
  0
APPID
  5
260
330
1D7
100
AcDbSymbolTableRecord
100
AcDbRegAppTableRecord
  2
AD_DRAW
 70
     0
  0
APPID
  5
263
330
1D7
100
AcDbSymbolTableRecord
100
AcDbRegAppTableRecord
  2
ACATTRIBSERVICES
 70
     0
  0
APPID
  5
2AF
330
1D7
100
AcDbSymbolTableRecord
100
AcDbRegAppTableRecord
  2
ASURF_PCURVE_APPNAME
 70
     0
  0
APPID
  5
2DE
330
1D7
100
AcDbSymbolTableRecord
100
AcDbRegAppTableRecord
  2
DESIGNERASSEMBLIES
 70
     0
  0
APPID
  5
2E6
330
1D7
100
AcDbSymbolTableRecord
100
AcDbRegAppTableRecord
  2
ACADM_DIM_EDIT
 70
     0
  0
APPID
  5
2E7
330
1D7
100
AcDbSymbolTableRecord
100
AcDbRegAppTableRecord
  2
AMDT_DM_ADJ
 70
     0
  0
ENDTAB
  0
TABLE
  2
DIMSTYLE
  5
1D8
330
0
100
AcDbSymbolTable
 70
     8
100
AcDbDimStyleTable
 71
     0
  0
DIMSTYLE
105
203
330
1D8
100
AcDbSymbolTableRecord
100
AcDbDimStyleTableRecord
  2
STANDARD
 70
     0
340
1FD
  0
DIMSTYLE
105
381
330
1D8
100
AcDbSymbolTableRecord
100
AcDbDimStyleTableRecord
  2
AM_ISO
 70
     0
  4
"
 41
2.5
 42
1.0
 43
10.0
 44
1.0
 47
0.1
 48
0.1
 73
     0
 74
     0
 77
     1
 78
     8
 79
     2
140
3.5
141
0.0
143
0.0393701
146
0.71
147
1.5
172
     1
176
   256
177
   256
178
     2
271
     2
272
     3
274
     4
283
     0
284
     8
340
1DD
371
    -1
372
    -1
  0
DIMSTYLE
105
382
330
1D8
100
AcDbSymbolTableRecord
100
AcDbDimStyleTableRecord
  2
AM_ISO$3
 70
     0
  4
"
 41
2.5
 42
1.0
 43
10.0
 44
1.0
 47
0.1
 48
0.1
 73
     0
 77
     1
 78
     8
 79
     2
140
3.5
141
0.0
143
0.0393701
146
0.71
147
1.5
176
   256
177
   256
178
     2
271
     2
272
     3
274
     4
283
     0
284
     8
288
     1
289
     0
340
1DD
371
    -1
372
    -1
  0
DIMSTYLE
105
383
330
1D8
100
AcDbSymbolTableRecord
100
AcDbDimStyleTableRecord
  2
AM_ISO$4
 70
     0
  4
"
 41
2.5
 42
1.0
 43
10.0
 44
1.0
 47
0.1
 48
0.1
 73
     0
 77
     1
 78
     8
 79
     2
140
3.5
141
0.0
143
0.0393701
146
0.71
147
1.5
176
   256
177
   256
178
     2
271
     2
272
     3
274
     4
283
     0
284
     8
288
     1
289
     0
340
1DD
371
    -1
372
    -1
  0
DIMSTYLE
105
384
330
1D8
100
AcDbSymbolTableRecord
100
AcDbDimStyleTableRecord
  2
AM_ISO$6
 70
     0
  4
"
 41
2.5
 42
1.0
 43
10.0
 44
1.0
 47
0.1
 48
0.1
 73
     0
 74
     0
 78
     8
 79
     2
140
3.5
141
0.0
143
0.0393701
146
0.71
147
1.5
172
     1
176
   256
177
   256
178
     2
271
     2
272
     3
274
     4
283
     0
284
     8
340
1DD
371
    -1
372
    -1
  0
DIMSTYLE
105
385
330
1D8
100
AcDbSymbolTableRecord
100
AcDbDimStyleTableRecord
  2
AM_ISO$7
 70
     0
  4
"
 41
2.5
 42
1.0
 43
10.0
 44
1.0
 47
0.1
 48
0.1
 73
     0
 74
     0
 77
     1
 78
     8
 79
     2
140
5.0
141
0.0
143
0.0393701
146
0.71
147
1.5
172
     1
176
   256
177
   256
178
     2
271
     2
272
     3
274
     4
283
     0
284
     8
340
1DD
371
    -1
372
    -1
  0
DIMSTYLE
105
386
330
1D8
100
AcDbSymbolTableRecord
100
AcDbDimStyleTableRecord
  2
AM_ISO$SF
 70
     0
  4
"
 41
2.5
 42
1.0
 43
10.0
 44
1.0
 47
0.1
 48
0.1
 73
     0
 74
     0
 75
     1
 76
     1
 77
     1
 78
     8
 79
     2
140
3.5
141
0.0
143
0.0393701
146
0.71
147
1.5
172
     1
176
   256
177
   256
178
     2
271
     2
272
     3
274
     4
283
     0
284
     8
340
1DD
371
    -1
372
    -1
  0
DIMSTYLE
105
387
330
1D8
100
AcDbSymbolTableRecord
100
AcDbDimStyleTableRecord
  2
AM_ISO$SH
 70
     0
  4
"
 41
2.5
 42
1.0
 43
10.0
 44
1.0
 47
0.1
 48
0.1
 73
     0
 74
     0
 75
     1
 76
     1
 77
     1
 78
     8
 79
     2
140
3.5
141
0.0
143
0.0393701
144
2.0
146
0.71
147
1.5
172
     1
173
     1
176
   256
177
   256
178
     2
271
     2
272
     3
274
     4
283
     0
284
     8
340
1DD
341
342
343
342
371
    -1
372
    -1
  0
ENDTAB
  0
TABLE
  2
BLOCK_RECORD
  5
1CF
330
0
100
AcDbSymbolTable
 70
    31
  0
BLOCK_RECORD
  5
1E5
102
{ACAD_XDICTIONARY
360
5CE
102
}
330
1CF
100
AcDbSymbolTableRecord
100
AcDbBlockTableRecord
  2
*MODEL_SPACE
340
223
  0
BLOCK_RECORD
  5
1E2
330
1CF
100
AcDbSymbolTableRecord
100
AcDbBlockTableRecord
  2
*PAPER_SPACE
340
224
  0
BLOCK_RECORD
  5
1EA
330
1CF
100
AcDbSymbolTableRecord
100
AcDbBlockTableRecord
  2
DEL-1
340
0
  0
BLOCK_RECORD
  5
1EB
330
1CF
100
AcDbSymbolTableRecord
100
AcDbBlockTableRecord
  2
DEL-2
340
0
  0
BLOCK_RECORD
  5
1EC
330
1CF
100
AcDbSymbolTableRecord
100
AcDbBlockTableRecord
  2
DEL-3
340
0
  0
BLOCK_RECORD
  5
1ED
330
1CF
100
AcDbSymbolTableRecord
100
AcDbBlockTableRecord
  2
NA-2
340
0
  0
BLOCK_RECORD
  5
1EE
330
1CF
100
AcDbSymbolTableRecord
100
AcDbBlockTableRecord
  2
MOJI
340
0
  0
BLOCK_RECORD
  5
1EF
330
1CF
100
AcDbSymbolTableRecord
100
AcDbBlockTableRecord
  2
WAVE-2
340
0
  0
BLOCK_RECORD
  5
1F0
330
1CF
100
AcDbSymbolTableRecord
100
AcDbBlockTableRecord
  2
DELTA-1
340
0
  0
BLOCK_RECORD
  5
1F1
330
1CF
100
AcDbSymbolTableRecord
100
AcDbBlockTableRecord
  2
DELTA-2
340
0
  0
BLOCK_RECORD
  5
1F2
330
1CF
100
AcDbSymbolTableRecord
100
AcDbBlockTableRecord
  2
WAKU
340
0
  0
BLOCK_RECORD
  5
1F3
330
1CF
100
AcDbSymbolTableRecord
100
AcDbBlockTableRecord
  2
QQ
340
0
  0
BLOCK_RECORD
  5
2D5
330
1CF
100
AcDbSymbolTableRecord
100
AcDbBlockTableRecord
  2
*U10
340
0
  0
BLOCK_RECORD
  5
305
330
1CF
100
AcDbSymbolTableRecord
100
AcDbBlockTableRecord
  2
*D11
340
0
  0
BLOCK_RECORD
  5
312
330
1CF
100
AcDbSymbolTableRecord
100
AcDbBlockTableRecord
  2
*D12
340
0
  0
BLOCK_RECORD
  5
31F
330
1CF
100
AcDbSymbolTableRecord
100
AcDbBlockTableRecord
  2
*D13
340
0
  0
BLOCK_RECORD
  5
32C
330
1CF
100
AcDbSymbolTableRecord
100
AcDbBlockTableRecord
  2
*D14
340
0
  0
BLOCK_RECORD
  5
335
330
1CF
100
AcDbSymbolTableRecord
100
AcDbBlockTableRecord
  2
*D15
340
0
  0
BLOCK_RECORD
  5
342
330
1CF
100
AcDbSymbolTableRecord
100
AcDbBlockTableRecord
  2
GENAXEH
340
0
  0
BLOCK_RECORD
  5
346
330
1CF
100
AcDbSymbolTableRecord
100
AcDbBlockTableRecord
  2
*D17
340
0
  0
BLOCK_RECORD
  5
353
330
1CF
100
AcDbSymbolTableRecord
100
AcDbBlockTableRecord
  2
*D18
340
0
  0
BLOCK_RECORD
  5
360
330
1CF
100
AcDbSymbolTableRecord
100
AcDbBlockTableRecord
  2
*D19
340
0
  0
BLOCK_RECORD
  5
36D
330
1CF
100
AcDbSymbolTableRecord
100
AcDbBlockTableRecord
  2
*D20
340
0
  0
BLOCK_RECORD
  5
49C
330
1CF
100
AcDbSymbolTableRecord
100
AcDbBlockTableRecord
  2
*D21
340
0
  0
BLOCK_RECORD
  5
4A9
330
1CF
100
AcDbSymbolTableRecord
100
AcDbBlockTableRecord
  2
*D22
340
0
  0
BLOCK_RECORD
  5
4B6
330
1CF
100
AcDbSymbolTableRecord
100
AcDbBlockTableRecord
  2
*D23
340
0
  0
BLOCK_RECORD
  5
4C3
330
1CF
100
AcDbSymbolTableRecord
100
AcDbBlockTableRecord
  2
*D24
340
0
  0
BLOCK_RECORD
  5
4CF
330
1CF
100
AcDbSymbolTableRecord
100
AcDbBlockTableRecord
  2
*D25
340
0
  0
BLOCK_RECORD
  5
4DB
330
1CF
100
AcDbSymbolTableRecord
100
AcDbBlockTableRecord
  2
*D26
340
0
  0
BLOCK_RECORD
  5
4E7
330
1CF
100
AcDbSymbolTableRecord
100
AcDbBlockTableRecord
  2
*D27
340
0
  0
BLOCK_RECORD
  5
4F4
330
1CF
100
AcDbSymbolTableRecord
100
AcDbBlockTableRecord
  2
*D28
340
0
  0
BLOCK_RECORD
  5
500
330
1CF
100
AcDbSymbolTableRecord
100
AcDbBlockTableRecord
  2
*D29
340
0
  0
BLOCK_RECORD
  5
688
330
1CF
100
AcDbSymbolTableRecord
100
AcDbBlockTableRecord
  2
*U30
340
0
  0
ENDTAB
  0
ENDSEC
  0
SECTION
  2
BLOCKS
  0
BLOCK
  5
20B
330
1E5
100
AcDbEntity
  8
0
100
AcDbBlockBegin
  2
*MODEL_SPACE
 70
     0
 10
0.0
 20
0.0
 30
0.0
  3
*MODEL_SPACE
  1

  0
ENDBLK
  5
20C
330
1E5
100
AcDbEntity
  8
0
100
AcDbBlockEnd
  0
BLOCK
  5
209
330
1E2
100
AcDbEntity
 67
     1
  8
0
100
AcDbBlockBegin
  2
*PAPER_SPACE
 70
     0
 10
0.0
 20
0.0
 30
0.0
  3
*PAPER_SPACE
  1

  0
ENDBLK
  5
20A
330
1E2
100
AcDbEntity
 67
     1
  8
0
100
AcDbBlockEnd
  0
BLOCK
  5
3E
330
1EA
100
AcDbEntity
  8
0
100
AcDbBlockBegin
  2
DEL-1
 70
     0
 10
90.0
 20
110.0
 30
0.0
  3
DEL-1
  1

  0
LINE
  5
3F
330
1EA
100
AcDbEntity
  8
4
100
AcDbLine
 10
88.40000000000001
 20
112.771281
 30
0.0
 11
91.6
 21
112.771281
 31
0.0
  0
LINE
  5
40
330
1EA
100
AcDbEntity
  8
4
100
AcDbLine
 10
90.0
 20
110.0
 30
0.0
 11
88.40000000000001
 21
112.771281
 31
0.0
  0
LINE
  5
41
330
1EA
100
AcDbEntity
  8
4
100
AcDbLine
 10
91.6
 20
112.771281
 30
0.0
 11
90.0
 21
110.0
 31
0.0
  0
ENDBLK
  5
42
330
1EA
100
AcDbEntity
  8
0
100
AcDbBlockEnd
  0
BLOCK
  5
43
330
1EB
100
AcDbEntity
  8
0
100
AcDbBlockBegin
  2
DEL-2
 70
     0
 10
111.5999999999999
 20
110.0
 30
0.0
  3
DEL-2
  1

  0
LINE
  5
44
330
1EB
100
AcDbEntity
  8
4
100
AcDbLine
 10
114.7999999999999
 20
112.771281
 30
0.0
 11
113.2
 21
110.0
 31
0.0
  0
LINE
  5
45
330
1EB
100
AcDbEntity
  8
4
100
AcDbLine
 10
113.2
 20
110.0
 30
0.0
 11
111.5999999999999
 21
112.771281
 31
0.0
  0
LINE
  5
46
330
1EB
100
AcDbEntity
  8
4
100
AcDbLine
 10
111.5999999999999
 20
112.771281
 30
0.0
 11
114.7999999999999
 21
112.771281
 31
0.0
  0
LINE
  5
47
330
1EB
100
AcDbEntity
  8
4
100
AcDbLine
 10
111.5999999999999
 20
112.771281
 30
0.0
 11
110.0
 21
110.0
 31
0.0
  0
LINE
  5
48
330
1EB
100
AcDbEntity
  8
4
100
AcDbLine
 10
110.0
 20
110.0
 30
0.0
 11
108.4
 21
112.771281
 31
0.0
  0
LINE
  5
49
330
1EB
100
AcDbEntity
  8
4
100
AcDbLine
 10
108.4
 20
112.771281
 30
0.0
 11
111.5999999999999
 21
112.771281
 31
0.0
  0
ENDBLK
  5
4A
330
1EB
100
AcDbEntity
  8
0
100
AcDbBlockEnd
  0
BLOCK
  5
4B
330
1EC
100
AcDbEntity
  8
0
100
AcDbBlockBegin
  2
DEL-3
 70
     0
 10
143.1999999999999
 20
110.0
 30
0.0
  3
DEL-3
  1

  0
LINE
  5
4C
330
1EC
100
AcDbEntity
  8
4
100
AcDbLine
 10
148.0
 20
112.771281
 30
0.0
 11
146.4
 21
110.0
 31
0.0
  0
LINE
  5
4D
330
1EC
100
AcDbEntity
  8
4
100
AcDbLine
 10
146.4
 20
110.0
 30
0.0
 11
144.8
 21
112.771281
 31
0.0
  0
LINE
  5
4E
330
1EC
100
AcDbEntity
  8
4
100
AcDbLine
 10
144.8
 20
112.771281
 30
0.0
 11
148.0
 21
112.771281
 31
0.0
  0
LINE
  5
4F
330
1EC
100
AcDbEntity
  8
4
100
AcDbLine
 10
138.4
 20
112.771281
 30
0.0
 11
141.5999999999999
 21
112.771281
 31
0.0
  0
LINE
  5
50
330
1EC
100
AcDbEntity
  8
4
100
AcDbLine
 10
140.0
 20
110.0
 30
0.0
 11
138.4
 21
112.771281
 31
0.0
  0
LINE
  5
51
330
1EC
100
AcDbEntity
  8
4
100
AcDbLine
 10
141.5999999999999
 20
112.771281
 30
0.0
 11
140.0
 21
110.0
 31
0.0
  0
LINE
  5
52
330
1EC
100
AcDbEntity
  8
4
100
AcDbLine
 10
141.5999999999999
 20
112.771281
 30
0.0
 11
144.8
 21
112.771281
 31
0.0
  0
LINE
  5
53
330
1EC
100
AcDbEntity
  8
4
100
AcDbLine
 10
143.1999999999999
 20
110.0
 30
0.0
 11
141.5999999999999
 21
112.771281
 31
0.0
  0
LINE
  5
54
330
1EC
100
AcDbEntity
  8
4
100
AcDbLine
 10
144.8
 20
112.771281
 30
0.0
 11
143.1999999999999
 21
110.0
 31
0.0
  0
ENDBLK
  5
55
330
1EC
100
AcDbEntity
  8
0
100
AcDbBlockEnd
  0
BLOCK
  5
56
330
1ED
100
AcDbEntity
  8
0
100
AcDbBlockBegin
  2
NA-2
 70
     0
 10
110.0
 20
90.0
 30
0.0
  3
NA-2
  1

  0
ARC
  5
57
330
1ED
100
AcDbEntity
  8
4
100
AcDbCircle
 10
111.3856389999998
 20
91.6
 30
0.0
 40
1.6
100
AcDbArc
 50
209.9998559999999
 51
360.0
  0
ARC
  5
58
330
1ED
100
AcDbEntity
  8
4
100
AcDbCircle
 10
108.614357
 20
90.0
 30
0.0
 40
1.6
100
AcDbArc
 50
29.999856
 51
180.0
  0
ENDBLK
  5
59
330
1ED
100
AcDbEntity
  8
0
100
AcDbBlockEnd
  0
BLOCK
  5
5A
330
1EE
100
AcDbEntity
  8
0
100
AcDbBlockBegin
  2
MOJI
 70
     0
 10
395.0
 20
40.0
 30
0.0
  3
MOJI
  1

  0
LINE
  5
5B
330
1EE
100
AcDbEntity
  8
11
100
AcDbLine
 10
125.0
 20
65.0
 30
0.0
 11
125.0
 21
40.0
 31
0.0
  0
LINE
  5
5C
330
1EE
100
AcDbEntity
  8
11
100
AcDbLine
 10
125.0
 20
65.0
 30
0.0
 11
395.0
 21
65.0
 31
0.0
  0
LINE
  5
5D
330
1EE
100
AcDbEntity
  8
11
100
AcDbLine
 10
215.0
 20
40.0
 30
0.0
 11
215.0
 21
52.0
 31
0.0
  0
LINE
  5
5E
330
1EE
100
AcDbEntity
  8
11
100
AcDbLine
 10
287.0
 20
40.0
 30
0.0
 11
287.0
 21
52.0
 31
0.0
  0
LINE
  5
5F
330
1EE
100
AcDbEntity
  8
11
100
AcDbLine
 10
125.0
 20
52.0
 30
0.0
 11
395.0
 21
52.0
 31
0.0
  0
LINE
  5
60
330
1EE
100
AcDbEntity
  8
11
100
AcDbLine
 10
377.2499999999998
 20
52.0
 30
0.0
 11
377.2499999999998
 21
65.0
 31
0.0
  0
LINE
  5
61
330
1EE
100
AcDbEntity
  8
11
100
AcDbLine
 10
377.2499999999998
 20
58.5
 30
0.0
 11
395.0
 21
58.5
 31
0.0
  0
LINE
  5
62
330
1EE
100
AcDbEntity
  8
11
100
AcDbLine
 10
359.5
 20
52.0
 30
0.0
 11
359.5
 21
65.0
 31
0.0
  0
LINE
  5
63
330
1EE
100
AcDbEntity
  8
11
100
AcDbLine
 10
341.7499999999999
 20
52.0
 30
0.0
 11
341.7499999999999
 21
65.0
 31
0.0
  0
LINE
  5
64
330
1EE
100
AcDbEntity
  8
11
100
AcDbLine
 10
324.0
 20
52.0
 30
0.0
 11
324.0
 21
65.0
 31
0.0
  0
LINE
  5
65
330
1EE
100
AcDbEntity
  8
11
100
AcDbLine
 10
280.0
 20
52.0
 30
0.0
 11
280.0
 21
65.0
 31
0.0
  0
LINE
  5
66
330
1EE
100
AcDbEntity
  8
11
100
AcDbLine
 10
236.0
 20
52.0
 30
0.0
 11
236.0
 21
65.0
 31
0.0
  0
LINE
  5
67
330
1EE
100
AcDbEntity
  8
11
100
AcDbLine
 10
206.0
 20
52.0
 30
0.0
 11
206.0
 21
65.0
 31
0.0
  0
LINE
  5
68
330
1EE
100
AcDbEntity
  8
11
100
AcDbLine
 10
181.0
 20
52.0
 30
0.0
 11
181.0
 21
65.0
 31
0.0
  0
LINE
  5
69
330
1EE
100
AcDbEntity
  8
11
100
AcDbLine
 10
150.0
 20
52.0
 30
0.0
 11
150.0
 21
65.0
 31
0.0
  0
LINE
  5
6A
330
1EE
100
AcDbEntity
  8
10
100
AcDbLine
 10
297.0
 20
50.5
 30
0.0
 11
290.0
 21
50.5
 31
0.0
  0
LINE
  5
6B
330
1EE
100
AcDbEntity
  8
10
100
AcDbLine
 10
289.0
 20
49.5
 30
0.0
 11
289.0
 21
42.5
 31
0.0
  0
LINE
  5
6C
330
1EE
100
AcDbEntity
  8
10
100
AcDbLine
 10
290.0
 20
41.5
 30
0.0
 11
297.0
 21
41.5
 31
0.0
  0
LINE
  5
6D
330
1EE
100
AcDbEntity
  8
10
100
AcDbLine
 10
298.0
 20
42.5
 30
0.0
 11
298.0
 21
49.5
 31
0.0
  0
ARC
  5
6E
330
1EE
100
AcDbEntity
  8
10
100
AcDbCircle
 10
290.0
 20
49.5
 30
0.0
 40
1.0
100
AcDbArc
 50
90.0
 51
180.0
  0
ARC
  5
6F
330
1EE
100
AcDbEntity
  8
10
100
AcDbCircle
 10
290.0
 20
42.5
 30
0.0
 40
1.0
100
AcDbArc
 50
180.0
 51
270.0
  0
ARC
  5
70
330
1EE
100
AcDbEntity
  8
10
100
AcDbCircle
 10
297.0
 20
42.5
 30
0.0
 40
1.0
100
AcDbArc
 50
270.0
 51
0.0
  0
ARC
  5
71
330
1EE
100
AcDbEntity
  8
10
100
AcDbCircle
 10
297.0
 20
49.5
 30
0.0
 40
1.0
100
AcDbArc
 50
0.0
 51
90.0
  0
LINE
  5
72
330
1EE
100
AcDbEntity
  8
10
100
AcDbLine
 10
292.0
 20
42.75
 30
0.0
 11
292.0
 21
49.25
 31
0.0
  0
LINE
  5
73
330
1EE
100
AcDbEntity
  8
10
100
AcDbLine
 10
292.0
 20
49.25
 30
0.0
 11
290.2499999999998
 21
49.25
 31
0.0
  0
LINE
  5
74
330
1EE
100
AcDbEntity
  8
10
100
AcDbLine
 10
290.2499999999998
 20
49.25
 30
0.0
 11
290.2499999999998
 21
42.75
 31
0.0
  0
LINE
  5
75
330
1EE
100
AcDbEntity
  8
10
100
AcDbLine
 10
290.2499999999998
 20
42.75
 30
0.0
 11
294.375
 21
42.75
 31
0.0
  0
LINE
  5
76
330
1EE
100
AcDbEntity
  8
10
100
AcDbLine
 10
294.375
 20
42.75
 30
0.0
 11
294.375
 21
49.25
 31
0.0
  0
LINE
  5
77
330
1EE
100
AcDbEntity
  8
10
100
AcDbLine
 10
294.375
 20
49.25
 30
0.0
 11
292.0
 21
46.0
 31
0.0
  0
LINE
  5
78
330
1EE
100
AcDbEntity
  8
10
100
AcDbLine
 10
292.0
 20
46.0
 30
0.0
 11
296.75
 21
46.0
 31
0.0
  0
LINE
  5
79
330
1EE
100
AcDbEntity
  8
10
100
AcDbLine
 10
296.75
 20
46.0
 30
0.0
 11
296.75
 21
49.25
 31
0.0
  0
LINE
  5
7A
330
1EE
100
AcDbEntity
  8
10
100
AcDbLine
 10
296.75
 20
49.25
 30
0.0
 11
292.0
 21
42.75
 31
0.0
  0
CIRCLE
  5
7B
330
1EE
100
AcDbEntity
  8
10
100
AcDbCircle
 10
295.5624999999999
 20
43.93749999999999
 30
0.0
 40
1.1875
  0
TEXT
  5
7C
330
1EE
100
AcDbEntity
  8
10
100
AcDbText
 10
304.4999999999999
 20
46.0
 30
0.0
 40
2.75
  1
株式
 41
1.75
  7
KANJI102
100
AcDbText
  0
TEXT
  5
7D
330
1EE
100
AcDbEntity
  8
10
100
AcDbText
 10
304.4999999999999
 20
42.7
 30
0.0
 40
2.75
  1
会社
 41
1.75
  7
KANJI102
100
AcDbText
  0
TEXT
  5
7E
330
1EE
100
AcDbEntity
  8
10
100
AcDbText
 10
322.5
 20
42.25
 30
0.0
 40
6.0
  1
今尾製作所
 41
1.75
  7
KANJI103
100
AcDbText
  0
TEXT
  5
7F
330
1EE
100
AcDbEntity
  8
11
100
AcDbText
 10
217.0
 20
48.5
 30
0.0
 40
2.5
  1
図番
  7
KANJI100
100
AcDbText
  0
TEXT
  5
80
330
1EE
100
AcDbEntity
  8
11
100
AcDbText
 10
127.0
 20
48.5
 30
0.0
 40
2.5
  1
部品名称
  7
KANJI100
100
AcDbText
  0
TEXT
  5
81
330
1EE
100
AcDbEntity
  8
11
100
AcDbText
 10
390.4685069999998
 20
61.5
 30
0.0
 40
2.5
  1
日
  7
KANJI100
100
AcDbText
  0
TEXT
  5
82
330
1EE
100
AcDbEntity
  8
11
100
AcDbText
 10
384.935125
 20
61.5
 30
0.0
 40
2.5
  1
月
  7
KANJI100
100
AcDbText
  0
TEXT
  5
83
330
1EE
100
AcDbEntity
  8
11
100
AcDbText
 10
379.2499999999998
 20
61.5
 30
0.0
 40
2.5
  1
年
  7
KANJI100
100
AcDbText
  0
TEXT
  5
84
330
1EE
100
AcDbEntity
  8
11
100
AcDbText
 10
361.5
 20
61.5
 30
0.0
 40
2.5
  1
製図
  7
KANJI100
100
AcDbText
  0
TEXT
  5
85
330
1EE
100
AcDbEntity
  8
11
100
AcDbText
 10
343.75
 20
61.5
 30
0.0
 40
2.5
  1
設計
  7
KANJI100
100
AcDbText
  0
TEXT
  5
86
330
1EE
100
AcDbEntity
  8
11
100
AcDbText
 10
326.0
 20
61.5
 30
0.0
 40
2.5
  1
検図
  7
KANJI100
100
AcDbText
  0
TEXT
  5
87
330
1EE
100
AcDbEntity
  8
11
100
AcDbText
 10
282.0
 20
61.5
 30
0.0
 40
2.5
  1
表面処理
  7
KANJI100
100
AcDbText
  0
TEXT
  5
88
330
1EE
100
AcDbEntity
  8
11
100
AcDbText
 10
238.0
 20
61.5
 30
0.0
 40
2.5
  1
熱処理
  7
KANJI100
100
AcDbText
  0
TEXT
  5
89
330
1EE
100
AcDbEntity
  8
11
100
AcDbText
 10
208.0
 20
61.5
 30
0.0
 40
2.5
  1
材質
  7
KANJI100
100
AcDbText
  0
TEXT
  5
8A
330
1EE
100
AcDbEntity
  8
11
100
AcDbText
 10
183.0
 20
61.5
 30
0.0
 40
2.5
  1
加工精度
  7
KANJI100
100
AcDbText
  0
TEXT
  5
8B
330
1EE
100
AcDbEntity
  8
11
100
AcDbText
 10
152.0
 20
61.5
 30
0.0
 40
2.5
  1
仕上
  7
KANJI100
100
AcDbText
  0
TEXT
  5
8C
330
1EE
100
AcDbEntity
  8
11
100
AcDbText
 10
127.0
 20
61.5
 30
0.0
 40
2.5
  1
尺度
  7
KANJI100
100
AcDbText
  0
ENDBLK
  5
8D
330
1EE
100
AcDbEntity
  8
0
100
AcDbBlockEnd
  0
BLOCK
  5
8E
330
1EF
100
AcDbEntity
  8
0
100
AcDbBlockBegin
  2
WAVE-2
 70
     0
 10
110.0
 20
50.0
 30
0.0
  3
WAVE-2
  1

  0
ARC
  5
8F
330
1EF
100
AcDbEntity
  8
4
100
AcDbCircle
 10
108.614361
 20
49.19999699999999
 30
0.0
 40
1.6
100
AcDbArc
 50
29.999856
 51
180.0
  0
ARC
  5
90
330
1EF
100
AcDbEntity
  8
4
100
AcDbCircle
 10
111.385643
 20
50.799997
 30
0.0
 40
1.6
100
AcDbArc
 50
209.9998559999999
 51
360.0
  0
ENDBLK
  5
91
330
1EF
100
AcDbEntity
  8
0
100
AcDbBlockEnd
  0
BLOCK
  5
92
330
1F0
100
AcDbEntity
  8
0
100
AcDbBlockBegin
  2
DELTA-1
 70
     0
 10
90.0
 20
110.0
 30
0.0
  3
DELTA-1
  1

  0
LINE
  5
93
330
1F0
100
AcDbEntity
  8
4
100
AcDbLine
 10
88.40000000000001
 20
112.771281
 30
0.0
 11
91.6
 21
112.771281
 31
0.0
  0
LINE
  5
94
330
1F0
100
AcDbEntity
  8
4
100
AcDbLine
 10
90.0
 20
110.0
 30
0.0
 11
88.40000000000001
 21
112.771281
 31
0.0
  0
LINE
  5
95
330
1F0
100
AcDbEntity
  8
4
100
AcDbLine
 10
91.6
 20
112.771281
 30
0.0
 11
90.0
 21
110.0
 31
0.0
  0
ENDBLK
  5
96
330
1F0
100
AcDbEntity
  8
0
100
AcDbBlockEnd
  0
BLOCK
  5
97
330
1F1
100
AcDbEntity
  8
0
100
AcDbBlockBegin
  2
DELTA-2
 70
     0
 10
111.5999999999999
 20
110.0
 30
0.0
  3
DELTA-2
  1

  0
LINE
  5
98
330
1F1
100
AcDbEntity
  8
4
100
AcDbLine
 10
114.7999999999999
 20
112.771281
 30
0.0
 11
113.2
 21
110.0
 31
0.0
  0
LINE
  5
99
330
1F1
100
AcDbEntity
  8
4
100
AcDbLine
 10
113.2
 20
110.0
 30
0.0
 11
111.5999999999999
 21
112.771281
 31
0.0
  0
LINE
  5
9A
330
1F1
100
AcDbEntity
  8
4
100
AcDbLine
 10
111.5999999999999
 20
112.771281
 30
0.0
 11
114.7999999999999
 21
112.771281
 31
0.0
  0
LINE
  5
9B
330
1F1
100
AcDbEntity
  8
4
100
AcDbLine
 10
111.5999999999999
 20
112.771281
 30
0.0
 11
110.0
 21
110.0
 31
0.0
  0
LINE
  5
9C
330
1F1
100
AcDbEntity
  8
4
100
AcDbLine
 10
110.0
 20
110.0
 30
0.0
 11
108.4
 21
112.771281
 31
0.0
  0
LINE
  5
9D
330
1F1
100
AcDbEntity
  8
4
100
AcDbLine
 10
108.4
 20
112.771281
 30
0.0
 11
111.5999999999999
 21
112.771281
 31
0.0
  0
ENDBLK
  5
9E
330
1F1
100
AcDbEntity
  8
0
100
AcDbBlockEnd
  0
BLOCK
  5
9F
330
1F2
100
AcDbEntity
  8
0
100
AcDbBlockBegin
  2
WAKU
 70
     0
 10
549.0
 20
0.0
 30
0.0
  3
WAKU
  1

  0
LINE
  5
A0
330
1F2
100
AcDbEntity
  8
11
100
AcDbLine
 10
452.0
 20
12.0
 30
0.0
 11
549.0
 21
12.0
 31
0.0
  0
LINE
  5
A1
330
1F2
100
AcDbEntity
  8
11
100
AcDbLine
 10
477.0
 20
0.0
 30
0.0
 11
477.0
 21
12.0
 31
0.0
  0
LINE
  5
A2
330
1F2
100
AcDbEntity
  8
11
100
AcDbLine
 10
452.0
 20
12.0
 30
0.0
 11
452.0
 21
0.0
 31
0.0
  0
TEXT
  5
A3
330
1F2
100
AcDbEntity
  8
11
100
AcDbText
 10
454.0
 20
8.5
 30
0.0
 40
2.5
  1
尺度
100
AcDbText
  0
TEXT
  5
A4
330
1F2
100
AcDbEntity
  8
11
100
AcDbText
 10
479.0
 20
8.5
 30
0.0
 40
2.5
  1
図番
100
AcDbText
  0
ENDBLK
  5
A5
330
1F2
100
AcDbEntity
  8
0
100
AcDbBlockEnd
  0
BLOCK
  5
A6
330
1F3
100
AcDbEntity
  8
0
100
AcDbBlockBegin
  2
QQ
 70
     0
 10
270.0
 20
0.0
 30
0.0
  3
QQ
  1

  0
LINE
  5
A7
330
1F3
100
AcDbEntity
  8
11
100
AcDbLine
 10
173.0
 20
36.0
 30
0.0
 11
270.0
 21
36.0
 31
0.0
  0
TEXT
  5
A8
330
1F3
100
AcDbEntity
  8
11
100
AcDbText
 10
175.0
 20
32.5
 30
0.0
 40
2.5
  1
部品名称
100
AcDbText
  0
LINE
  5
A9
330
1F3
100
AcDbEntity
  8
11
100
AcDbLine
 10
173.0
 20
36.0
 30
0.0
 11
173.0
 21
0.0
 31
0.0
  0
LINE
  5
AA
330
1F3
100
AcDbEntity
  8
11
100
AcDbLine
 10
173.0
 20
24.0
 30
0.0
 11
270.0
 21
24.0
 31
0.0
  0
TEXT
  5
AB
330
1F3
100
AcDbEntity
  8
11
100
AcDbText
 10
175.0
 20
20.5
 30
0.0
 40
2.5
  1
品番
100
AcDbText
  0
LINE
  5
AC
330
1F3
100
AcDbEntity
  8
11
100
AcDbLine
 10
173.0
 20
12.0
 30
0.0
 11
270.0
 21
12.0
 31
0.0
  0
TEXT
  5
AD
330
1F3
100
AcDbEntity
  8
11
100
AcDbText
 10
175.0
 20
8.5
 30
0.0
 40
2.5
  1
尺度
100
AcDbText
  0
TEXT
  5
AE
330
1F3
100
AcDbEntity
  8
11
100
AcDbText
 10
200.0
 20
8.5
 30
0.0
 40
2.5
  1
図番
100
AcDbText
  0
LINE
  5
AF
330
1F3
100
AcDbEntity
  8
11
100
AcDbLine
 10
198.0
 20
0.0
 30
0.0
 11
198.0
 21
12.0
 31
0.0
  0
ENDBLK
  5
B0
330
1F3
100
AcDbEntity
  8
0
100
AcDbBlockEnd
  0
BLOCK
  5
2D6
330
2D5
100
AcDbEntity
  8
0
100
AcDbBlockBegin
  2
*U10
 70
     1
 10
0.0
 20
0.0
 30
0.0
  3
*U10
  1

  0
ENDBLK
  5
2D7
330
2D5
100
AcDbEntity
  8
0
100
AcDbBlockEnd
  0
BLOCK
  5
310
330
305
100
AcDbEntity
  8
0
100
AcDbBlockBegin
  2
*D11
 70
     1
 10
0.0
 20
0.0
 30
0.0
  3
*D11
  1

  0
LINE
  5
306
330
305
100
AcDbEntity
  8
0
  6
ByBlock
 62
     0
100
AcDbLine
 10
292.1746081136751
 20
237.7742078362963
 30
0.0
 11
292.1746081136751
 21
253.1873077002679
 31
0.0
  0
LINE
  5
307
330
305
100
AcDbEntity
  8
0
  6
ByBlock
 62
     0
100
AcDbLine
 10
310.174608113675
 20
178.7742078362963
 30
0.0
 11
310.174608113675
 21
253.1873077002679
 31
0.0
  0
LINE
  5
308
330
305
100
AcDbEntity
  8
0
  6
ByBlock
 62
     0
100
AcDbLine
 10
294.1746081136751
 20
252.187307700268
 30
0.0
 11
298.2790546175118
 21
252.187307700268
 31
0.0
  0
LINE
  5
309
330
305
100
AcDbEntity
  8
0
  6
ByBlock
 62
     0
100
AcDbLine
 10
308.174608113675
 20
252.187307700268
 30
0.0
 11
304.8623879508451
 21
252.187307700268
 31
0.0
  0
SOLID
  5
30A
330
305
100
AcDbEntity
  8
0
  6
ByBlock
 62
     0
100
AcDbTrace
 10
294.1746081136751
 20
252.5206410336013
 30
0.0
 11
294.1746081136751
 21
251.8539743669347
 31
0.0
 12
292.1746081136751
 22
252.187307700268
 32
0.0
 13
292.1746081136751
 23
252.187307700268
 33
0.0
  0
SOLID
  5
30B
330
305
100
AcDbEntity
  8
0
  6
ByBlock
 62
     0
100
AcDbTrace
 10
308.174608113675
 20
252.5206410336013
 30
0.0
 11
308.174608113675
 21
251.8539743669347
 31
0.0
 12
310.174608113675
 22
252.187307700268
 32
0.0
 13
310.174608113675
 23
252.187307700268
 33
0.0
  0
MTEXT
  5
30C
330
305
100
AcDbEntity
  8
0
  6
ByBlock
 62
     0
100
AcDbMText
 10
301.5707212841785
 20
252.187307700268
 30
0.0
 40
4.0
 41
0.0
 71
     5
 72
     1
  1
\A1;18
 73
     1
 44
1.0
  0
POINT
  5
30D
330
305
100
AcDbEntity
  8
DEFPOINTS
  6
ByBlock
 62
     0
100
AcDbPoint
 10
292.1746081136751
 20
236.7742078362963
 30
0.0
  0
POINT
  5
30E
330
305
100
AcDbEntity
  8
DEFPOINTS
  6
ByBlock
 62
     0
100
AcDbPoint
 10
310.174608113675
 20
177.7742078362963
 30
0.0
  0
POINT
  5
30F
330
305
100
AcDbEntity
  8
DEFPOINTS
  6
ByBlock
 62
     0
100
AcDbPoint
 10
310.174608113675
 20
252.187307700268
 30
0.0
  0
ENDBLK
  5
311
330
305
100
AcDbEntity
  8
0
100
AcDbBlockEnd
  0
BLOCK
  5
31D
330
312
100
AcDbEntity
  8
0
100
AcDbBlockBegin
  2
*D12
 70
     1
 10
0.0
 20
0.0
 30
0.0
  3
*D12
  1

  0
LINE
  5
313
330
312
100
AcDbEntity
  8
0
  6
ByBlock
 62
     0
100
AcDbLine
 10
310.174608113675
 20
178.7742078362963
 30
0.0
 11
310.174608113675
 21
244.365704188837
 31
0.0
  0
LINE
  5
314
330
312
100
AcDbEntity
  8
0
  6
ByBlock
 62
     0
100
AcDbLine
 10
325.1746081136751
 20
173.7742078362963
 30
0.0
 11
325.1746081136751
 21
244.365704188837
 31
0.0
  0
LINE
  5
315
330
312
100
AcDbEntity
  8
0
  6
ByBlock
 62
     0
100
AcDbLine
 10
312.1746081136751
 20
243.3657041888371
 30
0.0
 11
315.2166007073885
 21
243.3657041888371
 31
0.0
  0
LINE
  5
316
330
312
100
AcDbEntity
  8
0
  6
ByBlock
 62
     0
100
AcDbLine
 10
323.1746081136751
 20
243.3657041888371
 30
0.0
 11
321.7999340407219
 21
243.3657041888371
 31
0.0
  0
SOLID
  5
317
330
312
100
AcDbEntity
  8
0
  6
ByBlock
 62
     0
100
AcDbTrace
 10
312.1746081136751
 20
243.6990375221704
 30
0.0
 11
312.1746081136751
 21
243.0323708555036
 31
0.0
 12
310.174608113675
 22
243.3657041888371
 32
0.0
 13
310.174608113675
 23
243.3657041888371
 33
0.0
  0
SOLID
  5
318
330
312
100
AcDbEntity
  8
0
  6
ByBlock
 62
     0
100
AcDbTrace
 10
323.1746081136751
 20
243.6990375221704
 30
0.0
 11
323.1746081136751
 21
243.0323708555036
 31
0.0
 12
325.1746081136751
 22
243.3657041888371
 32
0.0
 13
325.1746081136751
 23
243.3657041888371
 33
0.0
  0
MTEXT
  5
319
330
312
100
AcDbEntity
  8
0
  6
ByBlock
 62
     0
100
AcDbMText
 10
318.5082673740551
 20
243.3657041888371
 30
0.0
 40
4.0
 41
0.0
 71
     5
 72
     1
  1
\A1;15
 73
     1
 44
1.0
  0
POINT
  5
31A
330
312
100
AcDbEntity
  8
DEFPOINTS
  6
ByBlock
 62
     0
100
AcDbPoint
 10
310.174608113675
 20
177.7742078362963
 30
0.0
  0
POINT
  5
31B
330
312
100
AcDbEntity
  8
DEFPOINTS
  6
ByBlock
 62
     0
100
AcDbPoint
 10
325.1746081136751
 20
172.7742078362963
 30
0.0
  0
POINT
  5
31C
330
312
100
AcDbEntity
  8
DEFPOINTS
  6
ByBlock
 62
     0
100
AcDbPoint
 10
325.1746081136751
 20
243.3657041888371
 30
0.0
  0
ENDBLK
  5
31E
330
312
100
AcDbEntity
  8
0
100
AcDbBlockEnd
  0
BLOCK
  5
32A
330
31F
100
AcDbEntity
  8
0
100
AcDbBlockBegin
  2
*D13
 70
     1
 10
0.0
 20
0.0
 30
0.0
  3
*D13
  1

  0
LINE
  5
320
330
31F
100
AcDbEntity
  8
0
  6
ByBlock
 62
     0
100
AcDbLine
 10
290.1746081136751
 20
136.7742078362962
 30
0.0
 11
290.1746081136751
 21
108.675470697149
 31
0.0
  0
LINE
  5
321
330
31F
100
AcDbEntity
  8
0
  6
ByBlock
 62
     0
100
AcDbLine
 10
325.1746081136751
 20
139.7742078362962
 30
0.0
 11
325.1746081136751
 21
108.675470697149
 31
0.0
  0
LINE
  5
322
330
31F
100
AcDbEntity
  8
0
  6
ByBlock
 62
     0
100
AcDbLine
 10
292.1746081136751
 20
109.675470697149
 30
0.0
 11
304.2811446279151
 21
109.675470697149
 31
0.0
  0
LINE
  5
323
330
31F
100
AcDbEntity
  8
0
  6
ByBlock
 62
     0
100
AcDbLine
 10
323.1746081136751
 20
109.675470697149
 30
0.0
 11
312.1978112945818
 21
109.675470697149
 31
0.0
  0
SOLID
  5
324
330
31F
100
AcDbEntity
  8
0
  6
ByBlock
 62
     0
100
AcDbTrace
 10
292.1746081136751
 20
110.0088040304822
 30
0.0
 11
292.1746081136751
 21
109.3421373638157
 31
0.0
 12
290.1746081136751
 22
109.675470697149
 32
0.0
 13
290.1746081136751
 23
109.675470697149
 33
0.0
  0
SOLID
  5
325
330
31F
100
AcDbEntity
  8
0
  6
ByBlock
 62
     0
100
AcDbTrace
 10
323.1746081136751
 20
110.0088040304822
 30
0.0
 11
323.1746081136751
 21
109.3421373638157
 31
0.0
 12
325.1746081136751
 22
109.675470697149
 32
0.0
 13
325.1746081136751
 23
109.675470697149
 33
0.0
  0
MTEXT
  5
326
330
31F
100
AcDbEntity
  8
0
  6
ByBlock
 62
     0
100
AcDbMText
 10
308.2394779612485
 20
109.675470697149
 30
0.0
 40
4.0
 41
0.0
 71
     5
 72
     1
  1
\A1;35
 73
     1
 44
1.0
  0
POINT
  5
327
330
31F
100
AcDbEntity
  8
DEFPOINTS
  6
ByBlock
 62
     0
100
AcDbPoint
 10
290.1746081136751
 20
137.7742078362962
 30
0.0
  0
POINT
  5
328
330
31F
100
AcDbEntity
  8
DEFPOINTS
  6
ByBlock
 62
     0
100
AcDbPoint
 10
325.1746081136751
 20
140.7742078362963
 30
0.0
  0
POINT
  5
329
330
31F
100
AcDbEntity
  8
DEFPOINTS
  6
ByBlock
 62
     0
100
AcDbPoint
 10
325.1746081136751
 20
109.675470697149
 30
0.0
  0
ENDBLK
  5
32B
330
31F
100
AcDbEntity
  8
0
100
AcDbBlockEnd
  0
BLOCK
  5
333
330
32C
100
AcDbEntity
  8
0
100
AcDbBlockBegin
  2
*D14
 70
     1
 10
0.0
 20
0.0
 30
0.0
  3
*D14
  1

  0
LINE
  5
32D
330
32C
100
AcDbEntity
  8
0
  6
ByBlock
 62
     0
100
AcDbLine
 10
263.4900472495516
 20
154.499999999998
 30
0.0
 11
261.4900472495516
 21
154.4999999999999
 31
0.0
  0
LINE
  5
32E
330
32C
100
AcDbEntity
  8
0
  6
ByBlock
 62
     0
100
AcDbLine
 10
261.4900472495516
 20
154.4999999999999
 30
0.0
 11
258.0259076299648
 21
148.5883447708529
 31
0.0
  0
MTEXT
  5
32F
330
32C
100
AcDbEntity
  8
0
  6
ByBlock
 62
     0
100
AcDbMText
 10
267.448380582885
 20
154.4999999999939
 30
0.0
 40
4.0
 41
0.0
 71
     5
 72
     1
  1
\A1;R3
 73
     1
 44
1.0
  0
SOLID
  5
330
330
32C
100
AcDbEntity
  8
0
  6
ByBlock
 62
     0
100
AcDbTrace
 10
258.7494674194824
 20
150.4824335602459
 30
0.0
 11
259.3246551463388
 21
150.1453823425973
 31
0.0
 12
258.0259076299648
 22
148.5883447708529
 32
0.0
 13
258.0259076299648
 23
148.5883447708529
 33
0.0
  0
POINT
  5
331
330
32C
100
AcDbEntity
  8
DEFPOINTS
  6
ByBlock
 62
     0
100
AcDbPoint
 10
258.0259076299648
 20
148.5883447708529
 30
0.0
  0
POINT
  5
332
330
32C
100
AcDbEntity
  8
DEFPOINTS
  6
ByBlock
 62
     0
100
AcDbPoint
 10
256.509177150546
 20
146.0
 30
0.0
  0
ENDBLK
  5
334
330
32C
100
AcDbEntity
  8
0
100
AcDbBlockEnd
  0
BLOCK
  5
340
330
335
100
AcDbEntity
  8
0
100
AcDbBlockBegin
  2
*D15
 70
     1
 10
0.0
 20
0.0
 30
0.0
  3
*D15
  1

  0
LINE
  5
336
330
335
100
AcDbEntity
  8
0
  6
ByBlock
 62
     0
100
AcDbLine
 10
262.509177150546
 20
149.0
 30
0.0
 11
231.0
 21
149.0
 31
0.0
  0
LINE
  5
337
330
335
100
AcDbEntity
  8
0
  6
ByBlock
 62
     0
100
AcDbLine
 10
262.509177150546
 20
111.0
 30
0.0
 11
231.0
 21
111.0
 31
0.0
  0
LINE
  5
338
330
335
100
AcDbEntity
  8
0
  6
ByBlock
 62
     0
100
AcDbLine
 10
232.0
 20
147.0
 30
0.0
 11
232.0
 21
133.9583333333333
 31
0.0
  0
LINE
  5
339
330
335
100
AcDbEntity
  8
0
  6
ByBlock
 62
     0
100
AcDbLine
 10
232.0
 20
113.0
 30
0.0
 11
232.0
 21
126.0416666666666
 31
0.0
  0
SOLID
  5
33A
330
335
100
AcDbEntity
  8
0
  6
ByBlock
 62
     0
100
AcDbTrace
 10
231.6666666666665
 20
147.0
 30
0.0
 11
232.3333333333333
 21
147.0
 31
0.0
 12
232.0
 22
149.0
 32
0.0
 13
232.0
 23
149.0
 33
0.0
  0
SOLID
  5
33B
330
335
100
AcDbEntity
  8
0
  6
ByBlock
 62
     0
100
AcDbTrace
 10
231.6666666666665
 20
113.0
 30
0.0
 11
232.3333333333333
 21
113.0
 31
0.0
 12
232.0
 22
111.0
 32
0.0
 13
232.0
 23
111.0
 33
0.0
  0
MTEXT
  5
33C
330
335
100
AcDbEntity
  8
0
  6
ByBlock
 62
     0
100
AcDbMText
 10
232.0
 20
130.0
 30
0.0
 40
4.0
 41
0.0
 71
     5
 72
     1
  1
\A1;38
 11
0.0000000000000001
 21
1.0
 31
0.0
 73
     1
 44
1.0
  0
POINT
  5
33D
330
335
100
AcDbEntity
  8
DEFPOINTS
  6
ByBlock
 62
     0
100
AcDbPoint
 10
263.509177150546
 20
149.0
 30
0.0
  0
POINT
  5
33E
330
335
100
AcDbEntity
  8
DEFPOINTS
  6
ByBlock
 62
     0
100
AcDbPoint
 10
263.509177150546
 20
111.0
 30
0.0
  0
POINT
  5
33F
330
335
100
AcDbEntity
  8
DEFPOINTS
  6
ByBlock
 62
     0
100
AcDbPoint
 10
232.0
 20
111.0
 30
0.0
  0
ENDBLK
  5
341
330
335
100
AcDbEntity
  8
0
100
AcDbBlockEnd
  0
BLOCK
  5
344
330
342
100
AcDbEntity
  8
0
100
AcDbBlockBegin
  2
GENAXEH
 70
     0
 10
0.0
 20
0.0
 30
0.0
  3
GENAXEH
  1

  0
LINE
  5
343
330
342
100
AcDbEntity
  8
0
100
AcDbLine
 10
-1.0
 20
0.0
 30
0.0
 11
1.0
 21
0.0
 31
0.0
  0
ENDBLK
  5
345
330
342
100
AcDbEntity
  8
0
100
AcDbBlockEnd
  0
BLOCK
  5
351
330
346
100
AcDbEntity
  8
0
100
AcDbBlockBegin
  2
*D17
 70
     1
 10
0.0
 20
0.0
 30
0.0
  3
*D17
  1

  0
LINE
  5
347
330
346
100
AcDbEntity
  8
0
 62
     0
370
    -2
100
AcDbLine
 10
254.509177150546
 20
220.0
 30
0.0
 11
216.3614476220114
 21
220.0
 31
0.0
  0
LINE
  5
348
330
346
100
AcDbEntity
  8
0
 62
     0
370
    -2
100
AcDbLine
 10
254.509177150546
 20
40.0
 30
0.0
 11
216.3614476220114
 21
40.0
 31
0.0
  0
LINE
  5
349
330
346
100
AcDbEntity
  8
0
 62
     0
370
    -2
100
AcDbLine
 10
217.3614476220115
 20
218.0
 30
0.0
 11
217.3614476220115
 21
143.1230701568678
 31
0.0
  0
LINE
  5
34A
330
346
100
AcDbEntity
  8
0
 62
     0
370
    -2
100
AcDbLine
 10
217.3614476220115
 20
42.00000000000001
 30
0.0
 11
217.3614476220115
 21
129.2064034902012
 31
0.0
  0
SOLID
  5
34B
330
346
100
AcDbEntity
  8
0
 62
     0
100
AcDbTrace
 10
217.0281142886782
 20
218.0
 30
0.0
 11
217.6947809553448
 21
218.0
 31
0.0
 12
217.3614476220115
 22
220.0
 32
0.0
 13
217.3614476220115
 23
220.0
 33
0.0
  0
SOLID
  5
34C
330
346
100
AcDbEntity
  8
0
 62
     0
100
AcDbTrace
 10
217.0281142886781
 20
42.00000000000001
 30
0.0
 11
217.6947809553448
 21
42.00000000000001
 31
0.0
 12
217.3614476220115
 22
40.0
 32
0.0
 13
217.3614476220115
 23
40.0
 33
0.0
  0
MTEXT
  5
34D
330
346
100
AcDbEntity
  8
0
 62
     0
100
AcDbMText
 10
217.3614476220115
 20
136.1647368235346
 30
0.0
 40
4.0
 41
0.0
 71
     5
 72
     1
  1
\A1;%%C180
 11
0.0000000000000001
 21
1.0
 31
0.0
 73
     1
 44
1.0
  0
POINT
  5
34E
330
346
100
AcDbEntity
  8
DEFPOINTS
 62
     0
100
AcDbPoint
 10
255.5091771505459
 20
220.0
 30
0.0
  0
POINT
  5
34F
330
346
100
AcDbEntity
  8
DEFPOINTS
 62
     0
100
AcDbPoint
 10
255.5091771505459
 20
40.0
 30
0.0
  0
POINT
  5
350
330
346
100
AcDbEntity
  8
DEFPOINTS
 62
     0
100
AcDbPoint
 10
217.3614476220115
 20
40.0
 30
0.0
  0
ENDBLK
  5
352
330
346
100
AcDbEntity
  8
0
100
AcDbBlockEnd
  0
BLOCK
  5
35E
330
353
100
AcDbEntity
  8
0
100
AcDbBlockBegin
  2
*D18
 70
     1
 10
0.0
 20
0.0
 30
0.0
  3
*D18
  1

  0
LINE
  5
354
330
353
100
AcDbEntity
  8
0
 62
     0
370
    -2
100
AcDbLine
 10
116.509177150546
 20
205.0
 30
0.0
 11
196.336883521874
 21
204.9999999999999
 31
0.0
  0
LINE
  5
355
330
353
100
AcDbEntity
  8
0
 62
     0
370
    -2
100
AcDbLine
 10
192.8345690368709
 20
129.9999999999999
 30
0.0
 11
196.3368835218739
 21
129.9999999999999
 31
0.0
  0
LINE
  5
356
330
353
100
AcDbEntity
  8
0
 62
     0
370
    -2
100
AcDbLine
 10
195.336883521874
 20
202.9999999999999
 30
0.0
 11
195.3368835218739
 21
173.4427089086076
 31
0.0
  0
LINE
  5
357
330
353
100
AcDbEntity
  8
0
 62
     0
370
    -2
100
AcDbLine
 10
195.3368835218739
 20
131.9999999999999
 30
0.0
 11
195.3368835218739
 21
165.5260422419409
 31
0.0
  0
SOLID
  5
358
330
353
100
AcDbEntity
  8
0
 62
     0
100
AcDbTrace
 10
195.0035501885406
 20
202.9999999999999
 30
0.0
 11
195.6702168552073
 21
202.9999999999999
 31
0.0
 12
195.336883521874
 22
204.9999999999999
 32
0.0
 13
195.336883521874
 23
204.9999999999999
 33
0.0
  0
SOLID
  5
359
330
353
100
AcDbEntity
  8
0
 62
     0
100
AcDbTrace
 10
195.0035501885406
 20
131.9999999999999
 30
0.0
 11
195.6702168552073
 21
131.9999999999999
 31
0.0
 12
195.3368835218739
 22
129.9999999999999
 32
0.0
 13
195.3368835218739
 23
129.9999999999999
 33
0.0
  0
MTEXT
  5
35A
330
353
100
AcDbEntity
  8
0
 62
     0
100
AcDbMText
 10
195.3368835218739
 20
169.4843755752744
 30
0.0
 40
4.0
 41
0.0
 71
     5
 72
     1
  1
\A1;75
 11
0.0000000000000001
 21
1.0
 31
0.0
 73
     1
 44
1.0
  0
POINT
  5
35B
330
353
100
AcDbEntity
  8
DEFPOINTS
 62
     0
100
AcDbPoint
 10
115.509177150546
 20
205.0
 30
0.0
  0
POINT
  5
35C
330
353
100
AcDbEntity
  8
DEFPOINTS
 62
     0
100
AcDbPoint
 10
191.8345690368709
 20
130.0
 30
-0.0000000000000013
  0
POINT
  5
35D
330
353
100
AcDbEntity
  8
DEFPOINTS
 62
     0
100
AcDbPoint
 10
195.3368835218739
 20
129.9999999999999
 30
0.0
  0
ENDBLK
  5
35F
330
353
100
AcDbEntity
  8
0
100
AcDbBlockEnd
  0
BLOCK
  5
36B
330
360
100
AcDbEntity
  8
0
100
AcDbBlockBegin
  2
*D19
 70
     1
 10
0.0
 20
0.0
 30
0.0
  3
*D19
  1

  0
LINE
  5
361
330
360
100
AcDbEntity
  8
0
 62
     0
370
    -2
100
AcDbLine
 10
245.509177150546
 20
211.0
 30
0.0
 11
245.509177150546
 21
226.5188124629762
 31
0.0
  0
LINE
  5
362
330
360
100
AcDbEntity
  8
0
 62
     0
370
    -2
100
AcDbLine
 10
247.509177150546
 20
212.5499999999999
 30
0.0
 11
247.509177150546
 21
226.5188124629762
 31
0.0
  0
LINE
  5
363
330
360
100
AcDbEntity
  8
0
 62
     0
370
    -2
100
AcDbLine
 10
249.509177150546
 20
225.5188124629762
 30
0.0
 11
251.5091771505459
 21
225.5188124629762
 31
0.0
  0
LINE
  5
364
330
360
100
AcDbEntity
  8
0
 62
     0
370
    -2
100
AcDbLine
 10
243.509177150546
 20
225.5188124629762
 30
0.0
 11
238.5634880519986
 21
225.5188124629762
 31
0.0
  0
SOLID
  5
365
330
360
100
AcDbEntity
  8
0
 62
     0
100
AcDbTrace
 10
249.509177150546
 20
225.8521457963095
 30
0.0
 11
249.509177150546
 21
225.1854791296428
 31
0.0
 12
247.509177150546
 22
225.5188124629762
 32
0.0
 13
247.509177150546
 23
225.5188124629762
 33
0.0
  0
SOLID
  5
366
330
360
100
AcDbEntity
  8
0
 62
     0
100
AcDbTrace
 10
243.509177150546
 20
225.8521457963095
 30
0.0
 11
243.509177150546
 21
225.1854791296428
 31
0.0
 12
245.509177150546
 22
225.5188124629762
 32
0.0
 13
245.509177150546
 23
225.5188124629762
 33
0.0
  0
MTEXT
  5
367
330
360
100
AcDbEntity
  8
0
 62
     0
100
AcDbMText
 10
236.6051547186653
 20
225.5188124629762
 30
0.0
 40
4.0
 41
0.0
 71
     5
 72
     1
  1
\A1;2
 73
     1
 44
1.0
  0
POINT
  5
368
330
360
100
AcDbEntity
  8
DEFPOINTS
 62
     0
100
AcDbPoint
 10
245.509177150546
 20
210.0
 30
0.0
  0
POINT
  5
369
330
360
100
AcDbEntity
  8
DEFPOINTS
 62
     0
100
AcDbPoint
 10
247.509177150546
 20
211.5499999999999
 30
0.0
  0
POINT
  5
36A
330
360
100
AcDbEntity
  8
DEFPOINTS
 62
     0
100
AcDbPoint
 10
247.509177150546
 20
225.5188124629762
 30
0.0
  0
ENDBLK
  5
36C
330
360
100
AcDbEntity
  8
0
100
AcDbBlockEnd
  0
BLOCK
  5
378
330
36D
100
AcDbEntity
  8
0
100
AcDbBlockBegin
  2
*D20
 70
     1
 10
0.0
 20
0.0
 30
0.0
  3
*D20
  1

  0
LINE
  5
36E
330
36D
100
AcDbEntity
  8
0
 62
     0
370
    -2
100
AcDbLine
 10
244.6300324507251
 20
211.5499999999999
 30
0.0
 11
225.6565613434028
 21
211.5499999999999
 31
0.0
  0
LINE
  5
36F
330
36D
100
AcDbEntity
  8
0
 62
     0
370
    -2
100
AcDbLine
 10
244.509177150546
 20
198.4499999999999
 30
0.0
 11
225.6565613434028
 21
198.4499999999999
 31
0.0
  0
LINE
  5
370
330
36D
100
AcDbEntity
  8
0
 62
     0
370
    -2
100
AcDbLine
 10
226.6565613434028
 20
213.5499999999999
 30
0.0
 11
226.6565613434028
 21
215.5499999999999
 31
0.0
  0
LINE
  5
371
330
36D
100
AcDbEntity
  8
0
 62
     0
370
    -2
100
AcDbLine
 10
226.6565613434028
 20
196.4499999999999
 30
0.0
 11
226.6565613434028
 21
194.4499999999999
 31
0.0
  0
SOLID
  5
372
330
36D
100
AcDbEntity
  8
0
 62
     0
100
AcDbTrace
 10
226.3232280100694
 20
213.5499999999999
 30
0.0
 11
226.989894676736
 21
213.5499999999999
 31
0.0
 12
226.6565613434028
 22
211.5499999999999
 32
0.0
 13
226.6565613434028
 23
211.5499999999999
 33
0.0
  0
SOLID
  5
373
330
36D
100
AcDbEntity
  8
0
 62
     0
100
AcDbTrace
 10
226.3232280100694
 20
196.4499999999999
 30
0.0
 11
226.989894676736
 21
196.4499999999999
 31
0.0
 12
226.6565613434028
 22
198.4499999999999
 32
0.0
 13
226.6565613434028
 23
198.4499999999999
 33
0.0
  0
MTEXT
  5
374
330
36D
100
AcDbEntity
  8
0
 62
     0
100
AcDbMText
 10
226.6565613434026
 20
205.2883711367871
 30
0.0
 40
4.0
 41
0.0
 71
     5
 72
     1
  1
\A1;13.1
 11
0.0000000000000001
 21
1.0
 31
0.0
 73
     1
 44
1.0
  0
POINT
  5
375
330
36D
100
AcDbEntity
  8
DEFPOINTS
 62
     0
100
AcDbPoint
 10
245.630032450725
 20
211.5499999999999
 30
0.0
  0
POINT
  5
376
330
36D
100
AcDbEntity
  8
DEFPOINTS
 62
     0
100
AcDbPoint
 10
245.509177150546
 20
198.4499999999999
 30
0.0
  0
POINT
  5
377
330
36D
100
AcDbEntity
  8
DEFPOINTS
 62
     0
100
AcDbPoint
 10
226.6565613434028
 20
198.4499999999999
 30
0.0
  0
ENDBLK
  5
379
330
36D
100
AcDbEntity
  8
0
100
AcDbBlockEnd
  0
BLOCK
  5
4A7
330
49C
100
AcDbEntity
  8
0
100
AcDbBlockBegin
  2
*D21
 70
     1
 10
0.0
 20
0.0
 30
0.0
  3
*D21
  1

  0
LINE
  5
513
330
49C
100
AcDbEntity
  8
0
 62
     0
370
    -2
100
AcDbLine
 10
190.2431241218332
 20
257.8856096833117
 30
0.0
 11
270.1883304931612
 21
257.8856096833117
 31
0.0
  0
LINE
  5
514
330
49C
100
AcDbEntity
  8
0
 62
     0
370
    -2
100
AcDbLine
 10
266.5685160081581
 20
182.8856096833115
 30
0.0
 11
270.1883304931612
 21
182.8856096833115
 31
0.0
  0
LINE
  5
515
330
49C
100
AcDbEntity
  8
0
 62
     0
370
    -2
100
AcDbLine
 10
270.0083304931613
 20
255.8856096833117
 30
0.0
 11
270.0083304931613
 21
231.459985258586
 31
0.0
  0
LINE
  5
516
330
49C
100
AcDbEntity
  8
0
 62
     0
370
    -2
100
AcDbLine
 10
270.0083304931613
 20
184.8856096833115
 30
0.0
 11
270.0083304931613
 21
213.279985258586
 31
0.0
  0
SOLID
  5
517
330
49C
100
AcDbEntity
  8
0
 62
     0
100
AcDbTrace
 10
269.6749971598279
 20
255.8856096833117
 30
0.0
 11
270.3416638264946
 21
255.8856096833117
 31
0.0
 12
270.0083304931613
 22
257.8856096833117
 32
0.0
 13
270.0083304931613
 23
257.8856096833117
 33
0.0
  0
SOLID
  5
518
330
49C
100
AcDbEntity
  8
0
 62
     0
100
AcDbTrace
 10
269.6749971598279
 20
184.8856096833115
 30
0.0
 11
270.3416638264946
 21
184.8856096833115
 31
0.0
 12
270.0083304931613
 22
182.8856096833115
 32
0.0
 13
270.0083304931613
 23
182.8856096833115
 33
0.0
  0
MTEXT
  5
519
330
49C
100
AcDbEntity
  8
0
 62
     0
100
AcDbMText
 10
270.0083304931613
 20
222.369985258586
 30
0.0
 40
18.0
 41
0.0
 71
     5
 72
     1
  1
\A1;75.0000
  7
BIGFONT
 73
     1
 44
1.0
  0
POINT
  5
51A
330
49C
100
AcDbEntity
  8
DEFPOINTS
 62
     0
100
AcDbPoint
 10
190.1806241218332
 20
257.8856096833117
 30
0.0
  0
POINT
  5
51B
330
49C
100
AcDbEntity
  8
DEFPOINTS
 62
     0
100
AcDbPoint
 10
266.5060160081579
 20
182.8856096833115
 30
-0.0000000000000013
  0
POINT
  5
51C
330
49C
100
AcDbEntity
  8
DEFPOINTS
 62
     0
100
AcDbPoint
 10
270.0083304931613
 20
182.8856096833115
 30
0.0
  0
ENDBLK
  5
4A8
330
49C
100
AcDbEntity
  8
0
100
AcDbBlockEnd
  0
BLOCK
  5
4B4
330
4A9
100
AcDbEntity
  8
0
100
AcDbBlockBegin
  2
*D22
 70
     1
 10
0.0
 20
0.0
 30
0.0
  3
*D22
  1

  0
LINE
  5
527
330
4A9
100
AcDbEntity
  8
0
 62
     0
370
    -2
100
AcDbLine
 10
330.1181241218332
 20
272.8856096833117
 30
0.0
 11
291.8528945932986
 21
272.8856096833117
 31
0.0
  0
LINE
  5
528
330
4A9
100
AcDbEntity
  8
0
 62
     0
370
    -2
100
AcDbLine
 10
330.1181241218332
 20
92.88560968331166
 30
0.0
 11
291.8528945932986
 21
92.88560968331166
 31
0.0
  0
LINE
  5
529
330
4A9
100
AcDbEntity
  8
0
 62
     0
370
    -2
100
AcDbLine
 10
292.0328945932986
 20
270.8856096833117
 30
0.0
 11
292.0328945932986
 21
198.1403465068463
 31
0.0
  0
LINE
  5
52A
330
4A9
100
AcDbEntity
  8
0
 62
     0
370
    -2
100
AcDbLine
 10
292.0328945932985
 20
94.88560968331169
 30
0.0
 11
292.0328945932986
 21
179.9603465068463
 31
0.0
  0
SOLID
  5
52B
330
4A9
100
AcDbEntity
  8
0
 62
     0
100
AcDbTrace
 10
291.6995612599653
 20
270.8856096833117
 30
0.0
 11
292.366227926632
 21
270.8856096833117
 31
0.0
 12
292.0328945932986
 22
272.8856096833117
 32
0.0
 13
292.0328945932986
 23
272.8856096833117
 33
0.0
  0
SOLID
  5
52C
330
4A9
100
AcDbEntity
  8
0
 62
     0
100
AcDbTrace
 10
291.6995612599653
 20
94.88560968331169
 30
0.0
 11
292.366227926632
 21
94.88560968331169
 31
0.0
 12
292.0328945932985
 22
92.88560968331166
 32
0.0
 13
292.0328945932985
 23
92.88560968331166
 33
0.0
  0
MTEXT
  5
52D
330
4A9
100
AcDbEntity
  8
0
 62
     0
100
AcDbMText
 10
292.0328945932985
 20
189.0503465068463
 30
0.0
 40
18.0
 41
0.0
 71
     5
 72
     1
  1
\A1;%%C180
  7
BIGFONT
 73
     1
 44
1.0
  0
POINT
  5
52E
330
4A9
100
AcDbEntity
  8
DEFPOINTS
 62
     0
100
AcDbPoint
 10
330.1806241218331
 20
272.8856096833117
 30
0.0
  0
POINT
  5
52F
330
4A9
100
AcDbEntity
  8
DEFPOINTS
 62
     0
100
AcDbPoint
 10
330.1806241218331
 20
92.88560968331166
 30
0.0
  0
POINT
  5
530
330
4A9
100
AcDbEntity
  8
DEFPOINTS
 62
     0
100
AcDbPoint
 10
292.0328945932985
 20
92.88560968331166
 30
0.0
  0
ENDBLK
  5
4B5
330
4A9
100
AcDbEntity
  8
0
100
AcDbBlockEnd
  0
BLOCK
  5
4C1
330
4B6
100
AcDbEntity
  8
0
100
AcDbBlockBegin
  2
*D23
 70
     1
 10
0.0
 20
0.0
 30
0.0
  3
*D23
  1

  0
LINE
  5
53B
330
4B6
100
AcDbEntity
  8
0
 62
     0
370
    -2
100
AcDbLine
 10
338.1181241218333
 20
201.8856096833115
 30
0.0
 11
306.4914469712872
 21
201.8856096833117
 31
0.0
  0
LINE
  5
53C
330
4B6
100
AcDbEntity
  8
0
 62
     0
370
    -2
100
AcDbLine
 10
338.1181241218333
 20
163.8856096833116
 30
0.0
 11
306.4914469712872
 21
163.8856096833116
 31
0.0
  0
LINE
  5
53D
330
4B6
100
AcDbEntity
  8
0
 62
     0
370
    -2
100
AcDbLine
 10
306.6714469712871
 20
199.8856096833115
 30
0.0
 11
306.6714469712871
 21
191.9756096833115
 31
0.0
  0
LINE
  5
53E
330
4B6
100
AcDbEntity
  8
0
 62
     0
370
    -2
100
AcDbLine
 10
306.6714469712871
 20
165.8856096833116
 30
0.0
 11
306.6714469712871
 21
173.7956096833115
 31
0.0
  0
SOLID
  5
53F
330
4B6
100
AcDbEntity
  8
0
 62
     0
100
AcDbTrace
 10
306.3381136379538
 20
199.8856096833115
 30
0.0
 11
307.0047803046205
 21
199.8856096833115
 31
0.0
 12
306.6714469712871
 22
201.8856096833117
 32
0.0
 13
306.6714469712871
 23
201.8856096833117
 33
0.0
  0
SOLID
  5
540
330
4B6
100
AcDbEntity
  8
0
 62
     0
100
AcDbTrace
 10
306.3381136379538
 20
165.8856096833116
 30
0.0
 11
307.0047803046205
 21
165.8856096833116
 31
0.0
 12
306.6714469712871
 22
163.8856096833116
 32
0.0
 13
306.6714469712871
 23
163.8856096833116
 33
0.0
  0
MTEXT
  5
541
330
4B6
100
AcDbEntity
  8
0
 62
     0
100
AcDbMText
 10
306.6714469712871
 20
182.8856096833115
 30
0.0
 40
18.0
 41
0.0
 71
     5
 72
     1
  1
\A1;38.0000
  7
BIGFONT
 73
     1
 44
1.0
  0
POINT
  5
542
330
4B6
100
AcDbEntity
  8
DEFPOINTS
 62
     0
100
AcDbPoint
 10
338.1806241218333
 20
201.8856096833115
 30
0.0
  0
POINT
  5
543
330
4B6
100
AcDbEntity
  8
DEFPOINTS
 62
     0
100
AcDbPoint
 10
338.1806241218333
 20
163.8856096833116
 30
0.0
  0
POINT
  5
544
330
4B6
100
AcDbEntity
  8
DEFPOINTS
 62
     0
100
AcDbPoint
 10
306.6714469712871
 20
163.8856096833116
 30
0.0
  0
ENDBLK
  5
4C2
330
4B6
100
AcDbEntity
  8
0
100
AcDbBlockEnd
  0
BLOCK
  5
4CD
330
4C3
100
AcDbEntity
  8
0
100
AcDbBlockBegin
  2
*D24
 70
     1
 10
0.0
 20
0.0
 30
0.0
  3
*D24
  1

  0
LINE
  5
54E
330
4C3
100
AcDbEntity
  8
0
 62
     0
370
    -2
100
AcDbLine
 10
338.1806241218333
 20
163.8231096833115
 30
0.0
 11
338.1806241218333
 21
135.6068725441643
 31
0.0
  0
LINE
  5
54F
330
4C3
100
AcDbEntity
  8
0
 62
     0
370
    -2
100
AcDbLine
 10
373.1806241218333
 20
166.8231096833116
 30
0.0
 11
373.1806241218333
 21
135.6068725441643
 31
0.0
  0
LINE
  5
550
330
4C3
100
AcDbEntity
  8
0
 62
     0
370
    -2
100
AcDbLine
 10
340.1806241218333
 20
135.7868725441642
 30
0.0
 11
371.1806241218333
 21
135.7868725441642
 31
0.0
  0
SOLID
  5
551
330
4C3
100
AcDbEntity
  8
0
 62
     0
100
AcDbTrace
 10
340.1806241218333
 20
136.1202058774976
 30
0.0
 11
340.1806241218333
 21
135.453539210831
 31
0.0
 12
338.1806241218333
 22
135.7868725441642
 32
0.0
 13
338.1806241218333
 23
135.7868725441642
 33
0.0
  0
SOLID
  5
552
330
4C3
100
AcDbEntity
  8
0
 62
     0
100
AcDbTrace
 10
371.1806241218333
 20
136.1202058774976
 30
0.0
 11
371.1806241218333
 21
135.453539210831
 31
0.0
 12
373.1806241218333
 22
135.7868725441642
 32
0.0
 13
373.1806241218333
 23
135.7868725441642
 33
0.0
  0
MTEXT
  5
553
330
4C3
100
AcDbEntity
  8
0
 62
     0
100
AcDbMText
 10
355.6806241218333
 20
135.7868725441642
 30
0.0
 40
18.0
 41
0.0
 71
     5
 72
     1
  1
\A1;35.0000
  7
BIGFONT
 73
     1
 44
1.0
  0
POINT
  5
554
330
4C3
100
AcDbEntity
  8
DEFPOINTS
 62
     0
100
AcDbPoint
 10
338.1806241218333
 20
163.8856096833116
 30
0.0
  0
POINT
  5
555
330
4C3
100
AcDbEntity
  8
DEFPOINTS
 62
     0
100
AcDbPoint
 10
373.1806241218333
 20
166.8856096833116
 30
0.0
  0
POINT
  5
556
330
4C3
100
AcDbEntity
  8
DEFPOINTS
 62
     0
100
AcDbPoint
 10
373.1806241218333
 20
135.7868725441642
 30
0.0
  0
ENDBLK
  5
4CE
330
4C3
100
AcDbEntity
  8
0
100
AcDbBlockEnd
  0
BLOCK
  5
4D9
330
4CF
100
AcDbEntity
  8
0
100
AcDbBlockBegin
  2
*D25
 70
     1
 10
0.0
 20
0.0
 30
0.0
  3
*D25
  1

  0
LINE
  5
560
330
4CF
100
AcDbEntity
  8
0
 62
     0
370
    -2
100
AcDbLine
 10
340.1806241218333
 20
262.9481096833117
 30
0.0
 11
340.1806241218333
 21
278.4787095472832
 31
0.0
  0
LINE
  5
561
330
4CF
100
AcDbEntity
  8
0
 62
     0
370
    -2
100
AcDbLine
 10
358.1806241218333
 20
203.9481096833115
 30
0.0
 11
358.1806241218333
 21
278.4787095472832
 31
0.0
  0
LINE
  5
562
330
4CF
100
AcDbEntity
  8
0
 62
     0
370
    -2
100
AcDbLine
 10
342.1806241218333
 20
278.2987095472833
 30
0.0
 11
356.1806241218333
 21
278.2987095472833
 31
0.0
  0
SOLID
  5
563
330
4CF
100
AcDbEntity
  8
0
 62
     0
100
AcDbTrace
 10
342.1806241218333
 20
278.6320428806166
 30
0.0
 11
342.1806241218333
 21
277.9653762139499
 31
0.0
 12
340.1806241218333
 22
278.2987095472833
 32
0.0
 13
340.1806241218333
 23
278.2987095472833
 33
0.0
  0
SOLID
  5
564
330
4CF
100
AcDbEntity
  8
0
 62
     0
100
AcDbTrace
 10
356.1806241218333
 20
278.6320428806166
 30
0.0
 11
356.1806241218333
 21
277.9653762139499
 31
0.0
 12
358.1806241218333
 22
278.2987095472833
 32
0.0
 13
358.1806241218333
 23
278.2987095472833
 33
0.0
  0
MTEXT
  5
565
330
4CF
100
AcDbEntity
  8
0
 62
     0
100
AcDbMText
 10
349.1806241218333
 20
278.2987095472833
 30
0.0
 40
18.0
 41
0.0
 71
     5
 72
     1
  1
\A1;18.0000
  7
BIGFONT
 73
     1
 44
1.0
  0
POINT
  5
566
330
4CF
100
AcDbEntity
  8
DEFPOINTS
 62
     0
100
AcDbPoint
 10
340.1806241218333
 20
262.8856096833117
 30
0.0
  0
POINT
  5
567
330
4CF
100
AcDbEntity
  8
DEFPOINTS
 62
     0
100
AcDbPoint
 10
358.1806241218333
 20
203.8856096833115
 30
0.0
  0
POINT
  5
568
330
4CF
100
AcDbEntity
  8
DEFPOINTS
 62
     0
100
AcDbPoint
 10
358.1806241218333
 20
278.2987095472833
 30
0.0
  0
ENDBLK
  5
4DA
330
4CF
100
AcDbEntity
  8
0
100
AcDbBlockEnd
  0
BLOCK
  5
4E5
330
4DB
100
AcDbEntity
  8
0
100
AcDbBlockBegin
  2
*D26
 70
     1
 10
0.0
 20
0.0
 30
0.0
  3
*D26
  1

  0
LINE
  5
572
330
4DB
100
AcDbEntity
  8
0
 62
     0
370
    -2
100
AcDbLine
 10
320.2389794220123
 20
264.4356096833115
 30
0.0
 11
301.14800831469
 21
264.4356096833115
 31
0.0
  0
LINE
  5
573
330
4DB
100
AcDbEntity
  8
0
 62
     0
370
    -2
100
AcDbLine
 10
320.1181241218332
 20
251.3356096833117
 30
0.0
 11
301.14800831469
 21
251.3356096833117
 31
0.0
  0
LINE
  5
574
330
4DB
100
AcDbEntity
  8
0
 62
     0
370
    -2
100
AcDbLine
 10
301.3280083146899
 20
262.4356096833115
 30
0.0
 11
301.3280083146899
 21
253.3356096833117
 31
0.0
  0
SOLID
  5
575
330
4DB
100
AcDbEntity
  8
0
 62
     0
100
AcDbTrace
 10
300.9946749813567
 20
262.4356096833115
 30
0.0
 11
301.6613416480233
 21
262.4356096833115
 31
0.0
 12
301.3280083146899
 22
264.4356096833115
 32
0.0
 13
301.3280083146899
 23
264.4356096833115
 33
0.0
  0
SOLID
  5
576
330
4DB
100
AcDbEntity
  8
0
 62
     0
100
AcDbTrace
 10
300.9946749813567
 20
253.3356096833117
 30
0.0
 11
301.6613416480233
 21
253.3356096833117
 31
0.0
 12
301.3280083146899
 22
251.3356096833117
 32
0.0
 13
301.3280083146899
 23
251.3356096833117
 33
0.0
  0
MTEXT
  5
577
330
4DB
100
AcDbEntity
  8
0
 62
     0
100
AcDbMText
 10
301.3280083146898
 20
257.8856096833117
 30
0.0
 40
18.0
 41
0.0
 71
     5
 72
     1
  1
\A1;13.1000
  7
BIGFONT
 73
     1
 44
1.0
  0
POINT
  5
578
330
4DB
100
AcDbEntity
  8
DEFPOINTS
 62
     0
100
AcDbPoint
 10
320.3014794220123
 20
264.4356096833115
 30
0.0
  0
POINT
  5
579
330
4DB
100
AcDbEntity
  8
DEFPOINTS
 62
     0
100
AcDbPoint
 10
320.1806241218331
 20
251.3356096833117
 30
0.0
  0
POINT
  5
57A
330
4DB
100
AcDbEntity
  8
DEFPOINTS
 62
     0
100
AcDbPoint
 10
301.3280083146899
 20
251.3356096833117
 30
0.0
  0
ENDBLK
  5
4E6
330
4DB
100
AcDbEntity
  8
0
100
AcDbBlockEnd
  0
BLOCK
  5
4F2
330
4E7
100
AcDbEntity
  8
0
100
AcDbBlockBegin
  2
*D27
 70
     1
 10
0.0
 20
0.0
 30
0.0
  3
*D27
  1

  0
LINE
  5
585
330
4E7
100
AcDbEntity
  8
0
 62
     0
370
    -2
100
AcDbLine
 10
320.1806241218331
 20
262.9481096833117
 30
0.0
 11
320.1806241218331
 21
278.5844221462878
 31
0.0
  0
LINE
  5
586
330
4E7
100
AcDbEntity
  8
0
 62
     0
370
    -2
100
AcDbLine
 10
322.1806241218331
 20
264.4981096833115
 30
0.0
 11
322.1806241218331
 21
278.5844221462878
 31
0.0
  0
LINE
  5
587
330
4E7
100
AcDbEntity
  8
0
 62
     0
370
    -2
100
AcDbLine
 10
324.1806241218331
 20
278.4044221462877
 30
0.0
 11
326.1806241218331
 21
278.4044221462877
 31
0.0
  0
LINE
  5
588
330
4E7
100
AcDbEntity
  8
0
 62
     0
370
    -2
100
AcDbLine
 10
318.1806241218332
 20
278.4044221462877
 30
0.0
 11
316.1806241218332
 21
278.4044221462877
 31
0.0
  0
SOLID
  5
589
330
4E7
100
AcDbEntity
  8
0
 62
     0
100
AcDbTrace
 10
324.1806241218331
 20
278.7377554796211
 30
0.0
 11
324.1806241218331
 21
278.0710888129545
 31
0.0
 12
322.1806241218331
 22
278.4044221462877
 32
0.0
 13
322.1806241218331
 23
278.4044221462877
 33
0.0
  0
SOLID
  5
58A
330
4E7
100
AcDbEntity
  8
0
 62
     0
100
AcDbTrace
 10
318.1806241218332
 20
278.7377554796211
 30
0.0
 11
318.1806241218332
 21
278.0710888129545
 31
0.0
 12
320.1806241218331
 22
278.4044221462877
 32
0.0
 13
320.1806241218331
 23
278.4044221462877
 33
0.0
  0
MTEXT
  5
58B
330
4E7
100
AcDbEntity
  8
0
 62
     0
100
AcDbMText
 10
284.8906241218333
 20
278.4044221462877
 30
0.0
 40
18.0
 41
0.0
 71
     5
 72
     1
  1
\A1;2.0000
  7
BIGFONT
 73
     1
 44
1.0
  0
POINT
  5
58C
330
4E7
100
AcDbEntity
  8
DEFPOINTS
 62
     0
100
AcDbPoint
 10
320.1806241218331
 20
262.8856096833117
 30
0.0
  0
POINT
  5
58D
330
4E7
100
AcDbEntity
  8
DEFPOINTS
 62
     0
100
AcDbPoint
 10
322.1806241218331
 20
264.4356096833115
 30
0.0
  0
POINT
  5
58E
330
4E7
100
AcDbEntity
  8
DEFPOINTS
 62
     0
100
AcDbPoint
 10
322.1806241218331
 20
278.4044221462877
 30
0.0
  0
ENDBLK
  5
4F3
330
4E7
100
AcDbEntity
  8
0
100
AcDbBlockEnd
  0
BLOCK
  5
4FE
330
4F4
100
AcDbEntity
  8
0
100
AcDbBlockBegin
  2
*D28
 70
     1
 10
0.0
 20
0.0
 30
0.0
  3
*D28
  1

  0
LINE
  5
598
330
4F4
100
AcDbEntity
  8
0
 62
     0
370
    -2
100
AcDbLine
 10
358.1806241218333
 20
203.9481096833115
 30
0.0
 11
358.1806241218333
 21
269.6571060358524
 31
0.0
  0
LINE
  5
599
330
4F4
100
AcDbEntity
  8
0
 62
     0
370
    -2
100
AcDbLine
 10
373.1806241218333
 20
198.9481096833115
 30
0.0
 11
373.1806241218333
 21
269.6571060358524
 31
0.0
  0
LINE
  5
59A
330
4F4
100
AcDbEntity
  8
0
 62
     0
370
    -2
100
AcDbLine
 10
360.1806241218333
 20
269.4771060358523
 30
0.0
 11
371.1806241218333
 21
269.4771060358523
 31
0.0
  0
SOLID
  5
59B
330
4F4
100
AcDbEntity
  8
0
 62
     0
100
AcDbTrace
 10
360.1806241218333
 20
269.8104393691857
 30
0.0
 11
360.1806241218333
 21
269.1437727025191
 31
0.0
 12
358.1806241218333
 22
269.4771060358523
 32
0.0
 13
358.1806241218333
 23
269.4771060358523
 33
0.0
  0
SOLID
  5
59C
330
4F4
100
AcDbEntity
  8
0
 62
     0
100
AcDbTrace
 10
371.1806241218333
 20
269.8104393691857
 30
0.0
 11
371.1806241218333
 21
269.1437727025191
 31
0.0
 12
373.1806241218333
 22
269.4771060358523
 32
0.0
 13
373.1806241218333
 23
269.4771060358523
 33
0.0
  0
MTEXT
  5
59D
330
4F4
100
AcDbEntity
  8
0
 62
     0
100
AcDbMText
 10
365.6806241218333
 20
269.4771060358523
 30
0.0
 40
18.0
 41
0.0
 71
     5
 72
     1
  1
\A1;15.0000
  7
BIGFONT
 73
     1
 44
1.0
  0
POINT
  5
59E
330
4F4
100
AcDbEntity
  8
DEFPOINTS
 62
     0
100
AcDbPoint
 10
358.1806241218333
 20
203.8856096833115
 30
0.0
  0
POINT
  5
59F
330
4F4
100
AcDbEntity
  8
DEFPOINTS
 62
     0
100
AcDbPoint
 10
373.1806241218333
 20
198.8856096833115
 30
0.0
  0
POINT
  5
5A0
330
4F4
100
AcDbEntity
  8
DEFPOINTS
 62
     0
100
AcDbPoint
 10
373.1806241218333
 20
269.4771060358523
 30
0.0
  0
ENDBLK
  5
4FF
330
4F4
100
AcDbEntity
  8
0
100
AcDbBlockEnd
  0
BLOCK
  5
507
330
500
100
AcDbEntity
  8
0
100
AcDbBlockBegin
  2
*D29
 70
     1
 10
0.0
 20
0.0
 30
0.0
  3
*D29
  1

  0
LINE
  5
5A7
330
500
100
AcDbEntity
  8
0
 62
     0
370
    -2
100
AcDbLine
 10
377.1614942208352
 20
207.3856096833055
 30
0.0
 11
375.161494220835
 21
207.3856096833055
 31
0.0
  0
LINE
  5
5A8
330
500
100
AcDbEntity
  8
0
 62
     0
370
    -2
100
AcDbLine
 10
375.161494220835
 20
207.3856096833055
 30
0.0
 11
372.7085082541977
 21
203.1995176347332
 31
0.0
  0
MTEXT
  5
5A9
330
500
100
AcDbEntity
  8
0
 62
     0
100
AcDbMText
 10
415.6514942208353
 20
207.3856096833055
 30
0.0
 40
18.0
 41
0.0
 71
     5
 72
     1
  1
\A1;R3.0000
  7
BIGFONT
 73
     1
 44
1.0
  0
SOLID
  5
5AA
330
500
100
AcDbEntity
  8
0
 62
     0
100
AcDbTrace
 10
372.4209143907695
 20
203.3680432435575
 30
0.0
 11
372.9961021176258
 21
203.0309920259088
 31
0.0
 12
371.6973546012519
 22
201.4739544541645
 32
0.0
 13
371.6973546012519
 23
201.4739544541645
 33
0.0
  0
POINT
  5
5AB
330
500
100
AcDbEntity
  8
DEFPOINTS
 62
     0
100
AcDbPoint
 10
371.6973546012519
 20
201.4739544541645
 30
0.0
  0
POINT
  5
5AC
330
500
100
AcDbEntity
  8
DEFPOINTS
 62
     0
100
AcDbPoint
 10
370.1806241218333
 20
198.8856096833115
 30
0.0
  0
ENDBLK
  5
508
330
500
100
AcDbEntity
  8
0
100
AcDbBlockEnd
  0
BLOCK
  5
689
330
688
100
AcDbEntity
  8
0
100
AcDbBlockBegin
  2
*U30
 70
     1
 10
0.0
 20
0.0
 30
0.0
  3
*U30
  1

  0
ENDBLK
  5
68A
330
688
100
AcDbEntity
  8
0
100
AcDbBlockEnd
  0
ENDSEC
  0
SECTION
  2
ENTITIES
  0
ARC
  5
421
330
1E5
100
AcDbEntity
  8
3
100
AcDbCircle
 10
172.6806241218332
 20
182.8856096833115
 30
0.0
 40
90.0
100
AcDbArc
 50
90.0
 51
270.0
  0
ARC
  5
422
330
1E5
100
AcDbEntity
  8
3
100
AcDbCircle
 10
172.6806241218332
 20
182.8856096833115
 30
0.0
 40
80.0
100
AcDbArc
 50
100.8069228748603
 51
270.0
  0
LINE
  5
424
330
1E5
100
AcDbEntity
  8
1
100
AcDbLine
 10
81.00057623070695
 20
182.8856096833115
 30
-0.0000000000000018
 11
172.6806241218332
 21
182.8856096833115
 31
-0.0000000000000016
  0
ARC
  5
426
330
1E5
100
AcDbEntity
  8
3
100
AcDbCircle
 10
172.6806241218333
 20
182.8856096833115
 30
0.0
 40
22.841260281974
100
AcDbArc
 50
185.4231111921206
 51
234.576888807879
  0
ARC
  5
427
330
1E5
100
AcDbEntity
  8
3
100
AcDbCircle
 10
172.6806241218332
 20
182.8856096833115
 30
0.0
 40
19.0
100
AcDbArc
 50
90.0
 51
270.0
  0
LINE
  5
429
330
1E5
100
AcDbEntity
  8
1
100
AcDbLine
 10
172.6806241218332
 20
277.3856096833117
 30
0.0
 11
172.6806241218332
 21
88.61140184701531
 31
-0.0000000000000027
  0
ARC
  5
42A
330
1E5
100
AcDbEntity
  8
3
100
AcDbCircle
 10
172.6806241218332
 20
182.8856096833115
 30
0.0
 40
70.0
100
AcDbArc
 50
97.79992558790754
 51
202.2000744120926
  0
LINE
  5
42B
330
1E5
100
AcDbEntity
  8
3
100
AcDbLine
 10
149.2234826658001
 20
181.4669784022339
 30
0.0
 11
107.8697175352689
 21
156.436670433738
 31
0.0
  0
LINE
  5
42D
330
1E5
100
AcDbEntity
  8
1
100
AcDbLine
 10
172.6806241218332
 20
182.8856096833115
 30
0.0
 11
90.13703983479118
 21
135.2290490753113
 31
0.0
  0
ARC
  5
42E
330
1E5
100
AcDbEntity
  8
3
100
AcDbCircle
 10
172.6806241218332
 20
182.8856096833115
 30
0.0
 40
70.0
100
AcDbArc
 50
217.7999255879071
 51
270.0
  0
LINE
  5
42F
330
1E5
100
AcDbEntity
  8
3
100
AcDbLine
 10
159.7234826658
 20
163.2804449227607
 30
0.0
 11
117.3697175352689
 21
139.9821877618335
 31
0.0
  0
ARC
  5
430
330
1E5
100
AcDbEntity
  8
3
100
AcDbCircle
 10
172.6806241218333
 20
182.8856096833115
 30
0.0
 40
71.85825904969923
100
AcDbArc
 50
204.0090061443525
 51
215.9909938556473
  0
ARC
  5
431
330
1E5
100
AcDbEntity
  8
3
100
AcDbCircle
 10
109.3478926133964
 20
154.478600007636
 30
0.0
 40
2.453373464267446
100
AcDbArc
 50
127.0496715667696
 51
199.7911901066071
  0
ARC
  5
432
330
1E5
100
AcDbEntity
  8
3
100
AcDbCircle
 10
116.4130663429294
 20
142.2413601437838
 30
0.0
 40
2.453373464267446
100
AcDbArc
 50
220.2088098933924
 51
292.9503284332302
  0
ARC
  5
434
330
1E5
100
AcDbEntity
  8
3
100
AcDbCircle
 10
172.6806241218332
 20
182.8856096833115
 30
0.0
 40
23.5
100
AcDbArc
 50
236.5391049327843
 51
270.0
  0
ARC
  5
435
330
1E5
100
AcDbEntity
  8
3
100
AcDbCircle
 10
158.7616135019568
 20
163.5431441206364
 30
0.0
 40
0.9970973658159183
100
AcDbArc
 50
344.7243003362828
 51
47.00229433215128
  0
ARC
  5
43F
330
1E5
100
AcDbEntity
  8
3
100
AcDbCircle
 10
165.6154503923001
 20
250.9368688985148
 30
0.0
 40
2.453373464267446
100
AcDbArc
 50
129.5442787379523
 51
172.95032843323
  0
LINE
  5
441
330
1E5
100
AcDbEntity
  8
3
100
AcDbLine
 10
162.1806241218332
 20
203.9094057249401
 30
0.0
 11
163.1806241218332
 21
252.2379708543633
 31
0.0
  0
ARC
  5
442
330
1E5
100
AcDbEntity
  8
3
100
AcDbCircle
 10
172.6806241218332
 20
257.8856096833117
 30
0.0
 40
10.0
100
AcDbArc
 50
188.6269265586781
 51
270.0
  0
ARC
  5
444
330
1E5
100
AcDbEntity
  8
3
100
AcDbCircle
 10
172.6806241218332
 20
182.8856096833115
 30
0.0
 40
22.841260281974
100
AcDbArc
 50
90.0
 51
114.5768888078788
  0
ARC
  5
445
330
1E5
100
AcDbEntity
  8
3
100
AcDbCircle
 10
172.6806241218332
 20
182.8856096833115
 30
0.0
 40
23.5
100
AcDbArc
 50
116.5391049327846
 51
183.4608950672154
  0
ARC
  5
446
330
1E5
100
AcDbEntity
  8
3
100
AcDbCircle
 10
148.9700522627926
 20
180.5026256722909
 30
0.0
 40
0.9970973658159183
100
AcDbArc
 50
12.99770566784882
 51
75.2756996637174
  0
ARC
  5
447
330
1E5
100
AcDbEntity
  8
3
100
AcDbCircle
 10
162.8890628826689
 20
204.6110592570074
 30
0.0
 40
0.9970973658159183
100
AcDbArc
 50
224.7243003362827
 51
287.0022943321508
  0
ARC
  5
44B
330
1E5
100
AcDbEntity
  8
3
100
AcDbCircle
 10
156.1646119406645
 20
254.8279860340918
 30
0.0
 40
6.809687989619251
100
AcDbArc
 50
13.22269090266748
 51
77.13669464575511
  0
LINE
  5
451
330
1E5
100
AcDbEntity
  8
3
100
AcDbLine
 10
373.1806241218333
 20
192.8856096833115
 30
0.0
 11
373.1806241218333
 21
172.8856096833115
 31
0.0
  0
LINE
  5
452
330
1E5
100
AcDbEntity
  8
3
100
AcDbLine
 10
338.1806241218333
 20
182.8856096833115
 30
0.0
 11
338.1806241218333
 21
163.8856096833116
 31
0.0
  0
LINE
  5
453
330
1E5
100
AcDbEntity
  8
1
100
AcDbLine
 10
330.1806241218331
 20
276.3856096833117
 30
0.0
 11
330.1806241218331
 21
90.06572803477741
 31
-0.0000000000000018
  0
LINE
  5
454
330
1E5
100
AcDbEntity
  8
3
100
AcDbLine
 10
320.1806241218331
 20
182.8856096833115
 30
0.0
 11
320.1806241218331
 21
102.8856096833115
 31
0.0
  0
ARC
  5
456
330
1E5
100
AcDbEntity
  8
3
100
AcDbCircle
 10
348.1806241218333
 20
180.6356096833115
 30
0.0
 40
21.25
100
AcDbArc
 50
244.3518378229458
 51
298.072486935853
  0
MTEXT
  5
458
330
1E5
100
AcDbEntity
  8
0
100
AcDbMText
 10
348.5241732174941
 20
91.87594483840454
 30
0.0
 40
4.0
 41
0.0
 71
     1
 72
     1
  1
\A1; 
 73
     1
 44
1.0
  0
MTEXT
  5
45A
330
1E5
100
AcDbEntity
  8
0
100
AcDbMText
 10
349.9293059470051
 20
92.81095755086829
 30
0.0
 40
4.0
 41
0.0
 71
     1
 72
     1
  1
\A1; 
 73
     1
 44
1.0
  0
ARC
  5
45B
330
1E5
100
AcDbEntity
  8
3
100
AcDbCircle
 10
330.1806241218331
 20
102.8856096833115
 30
0.0
 40
10.0
100
AcDbArc
 50
180.0
 51
0.0
  0
LINE
  5
45C
330
1E5
100
AcDbEntity
  8
3
100
AcDbLine
 10
340.1806241218333
 20
102.8856096833115
 30
0.0
 11
340.1806241218333
 21
150.1673438790203
 31
0.0
  0
ARC
  5
45D
330
1E5
100
AcDbEntity
  8
3
100
AcDbCircle
 10
330.1806241218331
 20
105.8856096833115
 30
0.0
 40
7.0
100
AcDbArc
 50
0.0
 51
180.0
  0
LINE
  5
45E
330
1E5
100
AcDbEntity
  8
1
100
AcDbLine
 10
344.1806241218333
 20
102.8856096833115
 30
0.0
 11
317.1806241218332
 21
102.8856096833115
 31
0.0
  0
ARC
  5
45F
330
1E5
100
AcDbEntity
  8
3
100
AcDbCircle
 10
318.0972907884997
 20
107.9689430166449
 30
0.0
 40
5.493683241283181
100
AcDbArc
 50
292.2855876468328
 51
337.7144123531671
  0
ARC
  5
460
330
1E5
100
AcDbEntity
  8
3
100
AcDbCircle
 10
342.2639574551666
 20
107.9689430166449
 30
0.0
 40
5.493683241283181
100
AcDbArc
 50
202.2855876468328
 51
247.714412353167
  0
ARC
  5
461
330
1E5
100
AcDbEntity
  8
3
100
AcDbCircle
 10
330.1806241218331
 20
143.7323484746801
 30
0.0
 40
3.750160712846406
100
AcDbArc
 50
201.0458522619018
 51
317.5622394328858
  0
LINE
  5
462
330
1E5
100
AcDbEntity
  8
3
100
AcDbLine
 10
338.1806241218333
 20
170.5549866395451
 30
0.0
 11
326.8550277086623
 21
154.7364122863343
 31
0.0
  0
ARC
  5
463
330
1E5
100
AcDbEntity
  8
3
100
AcDbCircle
 10
340.3984238031778
 20
148.3856096833116
 30
0.0
 40
14.97257586714778
100
AcDbArc
 50
156.3760120602449
 51
203.623987939755
  0
LINE
  5
465
330
1E5
100
AcDbEntity
  8
3
100
AcDbLine
 10
347.5390345848878
 20
159.3952974712446
 30
0.0
 11
333.10471667063
 21
141.2936685233958
 31
0.0
  0
LINE
  5
467
330
1E5
100
AcDbEntity
  8
3
100
AcDbLine
 10
338.1806241218333
 20
163.8856096833116
 30
0.0
 11
338.9826962157635
 21
161.4793934015208
 31
0.0
  0
LINE
  5
469
330
1E5
100
AcDbEntity
  8
3
100
AcDbLine
 10
370.1806241218333
 20
163.8856096833116
 30
0.0
 11
358.1806241218333
 21
163.8856096833116
 31
0.0
  0
LINE
  5
46A
330
1E5
100
AcDbEntity
  8
3
100
AcDbLine
 10
366.1714469712871
 20
163.8856096833116
 30
0.0
 11
360.1714469712871
 21
163.8856096833116
 31
0.0
  0
LINE
  5
46B
330
1E5
100
AcDbEntity
  8
3
100
AcDbLine
 10
358.1806241218333
 20
163.8856096833116
 30
0.0
 11
358.1806241218333
 21
161.8856096833115
 31
0.0
  0
ARC
  5
46C
330
1E5
100
AcDbEntity
  8
3
100
AcDbCircle
 10
370.1806241218333
 20
166.8856096833116
 30
0.0
 40
3.0
100
AcDbArc
 50
270.0
 51
0.0
  0
LINE
  5
46D
330
1E5
100
AcDbEntity
  8
3
100
AcDbLine
 10
373.1806241218333
 20
172.8856096833115
 30
0.0
 11
373.1806241218333
 21
166.8856096833116
 31
0.0
  0
ARC
  5
46F
330
1E5
100
AcDbEntity
  8
3
100
AcDbCircle
 10
348.1806241218333
 20
185.1356096833115
 30
0.0
 40
21.25
100
AcDbArc
 50
61.92751306414693
 51
75.69646349007456
  0
LINE
  5
470
330
1E5
100
AcDbEntity
  8
1
100
AcDbLine
 10
315.37552326651
 20
182.8856096833115
 30
0.0
 11
379.229690789701
 21
182.8856096833115
 31
0.0
  0
LINE
  5
473
330
1E5
100
AcDbEntity
  8
3
100
AcDbLine
 10
337.1806241218333
 20
259.8856096833116
 30
0.0
 11
337.1806241218333
 21
250.3856096833115
 31
0.0
  0
LINE
  5
474
330
1E5
100
AcDbEntity
  8
3
100
AcDbLine
 10
320.1806241218331
 20
182.8856096833115
 30
0.0
 11
320.1806241218331
 21
262.8856096833117
 31
0.0
  0
LINE
  5
475
330
1E5
100
AcDbEntity
  8
3
100
AcDbLine
 10
340.1806241218333
 20
262.8856096833117
 30
0.0
 11
340.1806241218333
 21
240.5639962230032
 31
0.0
  0
ARC
  5
477
330
1E5
100
AcDbEntity
  8
3
100
AcDbCircle
 10
338.4306241218333
 20
207.7002388376897
 30
0.0
 40
15.0
100
AcDbArc
 50
0.0
 51
24.06726640985777
  0
LINE
  5
478
330
1E5
100
AcDbEntity
  8
3
100
AcDbLine
 10
340.1806241218333
 20
215.3740781601595
 30
0.0
 11
340.1806241218332
 21
204.8222168059216
 31
0.0
  0
LINE
  5
479
330
1E5
100
AcDbEntity
  8
3
100
AcDbLine
 10
326.6161799429643
 20
247.4345043733888
 30
0.0
 11
341.9821794649283
 21
211.1159875679679
 31
0.0
  0
LINE
  5
47A
330
1E5
100
AcDbEntity
  8
3
100
AcDbLine
 10
338.1806241218333
 20
182.8856096833115
 30
0.0
 11
338.1806241218333
 21
201.8856096833115
 31
0.0
  0
LINE
  5
47B
330
1E5
100
AcDbEntity
  8
3
100
AcDbLine
 10
338.1806241218333
 20
182.8856096833115
 30
0.0
 11
338.1806241218333
 21
192.8856096833115
 31
0.0
  0
ARC
  5
47C
330
1E5
100
AcDbEntity
  8
3
100
AcDbCircle
 10
348.1806241218333
 20
185.1356096833115
 30
0.0
 40
21.25
100
AcDbArc
 50
104.3035365099254
 51
115.6481621770541
  0
LINE
  5
47D
330
1E5
100
AcDbEntity
  8
3
100
AcDbLine
 10
338.1806241218333
 20
201.8856096833115
 30
0.0
 11
338.9826962157635
 21
204.2918259651023
 31
0.0
  0
ARC
  5
47E
330
1E5
100
AcDbEntity
  8
3
100
AcDbCircle
 10
330.9306241218332
 20
206.4401855513609
 30
0.0
 40
12.0
100
AcDbArc
 50
0.0
 51
22.93273359014221
  0
LINE
  5
47F
330
1E5
100
AcDbEntity
  8
3
100
AcDbLine
 10
342.9306241218333
 20
206.4401855513609
 30
0.0
 11
342.9306241218333
 21
205.7268699652857
 31
0.0
  0
LINE
  5
480
330
1E5
100
AcDbEntity
  8
3
100
AcDbLine
 10
353.4306241218333
 20
205.7268699652857
 30
0.0
 11
353.4306241218333
 21
207.7002388376897
 31
0.0
  0
LINE
  5
482
330
1E5
100
AcDbEntity
  8
3
100
AcDbLine
 10
320.1806241218331
 20
248.8856096833115
 30
0.0
 11
326.0885230140209
 21
248.8856096833115
 31
0.0
  0
ARC
  5
483
330
1E5
100
AcDbEntity
  8
3
100
AcDbCircle
 10
340.4306241218333
 20
253.2792568941474
 30
0.0
 40
15.0
100
AcDbArc
 50
197.0322429096015
 51
202.9327335901421
  0
LINE
  5
484
330
1E5
100
AcDbEntity
  8
3
100
AcDbLine
 10
335.9868563339706
 20
249.9536697506845
 30
0.0
 11
352.1266337881016
 21
213.8173720895883
 31
0.0
  0
LINE
  5
485
330
1E5
100
AcDbEntity
  8
3
100
AcDbLine
 10
337.1806241218333
 20
250.3856096833115
 30
0.0
 11
336.0335683027981
 21
249.849083574408
 31
0.0
  0
ARC
  5
48C
330
1E5
100
AcDbEntity
  8
3
100
AcDbCircle
 10
330.1806241218331
 20
262.8856096833117
 30
0.0
 40
10.0
100
AcDbArc
 50
0.0
 51
180.0
  0
ARC
  5
491
330
1E5
100
AcDbEntity
  8
3
100
AcDbCircle
 10
342.2639574551666
 20
257.8022763499782
 30
0.0
 40
5.493683241283181
100
AcDbArc
 50
112.2855876468328
 51
157.714412353167
  0
LINE
  5
494
330
1E5
100
AcDbEntity
  8
3
100
AcDbLine
 10
373.1806241218333
 20
192.8856096833115
 30
0.0
 11
373.1806241218333
 21
198.8856096833115
 31
0.0
  0
LINE
  5
495
330
1E5
100
AcDbEntity
  8
3
100
AcDbLine
 10
370.1806241218333
 20
201.8856096833115
 30
0.0
 11
358.1806241218333
 21
201.8856096833115
 31
0.0
  0
LINE
  5
496
330
1E5
100
AcDbEntity
  8
3
100
AcDbLine
 10
358.1806241218333
 20
201.8856096833115
 30
0.0
 11
358.1806241218333
 21
203.8856096833115
 31
0.0
  0
LINE
  5
497
330
1E5
100
AcDbEntity
  8
3
100
AcDbLine
 10
363.1714469712871
 20
201.8856096833115
 30
0.0
 11
366.1714469712871
 21
201.8856096833115
 31
0.0
  0
ARC
  5
498
330
1E5
100
AcDbEntity
  8
3
100
AcDbCircle
 10
370.1806241218333
 20
198.8856096833115
 30
0.0
 40
3.0
100
AcDbArc
 50
0.0
 51
90.0
  0
ARC
  5
5B3
330
1E5
100
AcDbEntity
  8
3
100
AcDbCircle
 10
172.6806241218332
 20
182.8856096833115
 30
0.0
 40
90.0
100
AcDbArc
 50
270.0
 51
90.0
  0
ARC
  5
5B4
330
1E5
100
AcDbEntity
  8
3
100
AcDbCircle
 10
172.6806241218332
 20
182.8856096833115
 30
0.0
 40
80.0
100
AcDbArc
 50
270.0
 51
79.19307712513968
  0
ARC
  5
5B5
330
1E5
100
AcDbEntity
  8
3
100
AcDbCircle
 10
172.6806241218332
 20
182.8856096833115
 30
0.0
 40
23.5
100
AcDbArc
 50
270.0
 51
303.4608950672156
  0
LINE
  5
5B6
330
1E5
100
AcDbEntity
  8
3
100
AcDbLine
 10
185.6377655778663
 20
163.2804449227607
 30
0.0
 11
227.9915307083974
 21
139.9821877618335
 31
0.0
  0
LINE
  5
5B7
330
1E5
100
AcDbEntity
  8
1
100
AcDbLine
 10
172.6806241218332
 20
182.8856096833115
 30
0.0
 11
255.2242084088752
 21
135.2290490753113
 31
0.0
  0
LINE
  5
5B8
330
1E5
100
AcDbEntity
  8
3
100
AcDbLine
 10
196.1377655778663
 20
181.4669784022339
 30
0.0
 11
237.4915307083974
 21
156.436670433738
 31
0.0
  0
ARC
  5
5B9
330
1E5
100
AcDbEntity
  8
3
100
AcDbCircle
 10
172.6806241218332
 20
182.8856096833115
 30
0.0
 40
70.0
100
AcDbArc
 50
337.7999255879073
 51
82.20007441209245
  0
ARC
  5
5BA
330
1E5
100
AcDbEntity
  8
3
100
AcDbCircle
 10
172.6806241218332
 20
182.8856096833115
 30
0.0
 40
70.0
100
AcDbArc
 50
270.0
 51
322.2000744120928
  0
ARC
  5
5BB
330
1E5
100
AcDbEntity
  8
3
100
AcDbCircle
 10
172.6806241218332
 20
182.8856096833115
 30
0.0
 40
71.85825904969923
100
AcDbArc
 50
324.0090061443526
 51
335.9909938556475
  0
ARC
  5
5BC
330
1E5
100
AcDbEntity
  8
3
100
AcDbCircle
 10
236.01335563027
 20
154.478600007636
 30
0.0
 40
2.453373464267446
100
AcDbArc
 50
340.2088098933928
 51
52.95032843323032
  0
ARC
  5
5BD
330
1E5
100
AcDbEntity
  8
3
100
AcDbCircle
 10
228.948181900737
 20
142.2413601437838
 30
0.0
 40
2.453373464267446
100
AcDbArc
 50
247.0496715667696
 51
319.7911901066073
  0
LINE
  5
5BE
330
1E5
100
AcDbEntity
  8
1
100
AcDbLine
 10
264.3606720129596
 20
182.8856096833115
 30
-0.0000000000000018
 11
172.6806241218332
 21
182.8856096833115
 31
-0.0000000000000016
  0
ARC
  5
5C1
330
1E5
100
AcDbEntity
  8
3
100
AcDbCircle
 10
189.1966363030018
 20
254.8279860340918
 30
0.0
 40
6.809687989619251
100
AcDbArc
 50
102.8633053542447
 51
166.7773090973325
  0
ARC
  5
5C3
330
1E5
100
AcDbEntity
  8
3
100
AcDbCircle
 10
172.6806241218332
 20
182.8856096833115
 30
0.0
 40
19.0
100
AcDbArc
 50
270.0
 51
90.0
  0
ARC
  5
5C4
330
1E5
100
AcDbEntity
  8
3
100
AcDbCircle
 10
172.6806241218332
 20
182.8856096833115
 30
0.0
 40
22.841260281974
100
AcDbArc
 50
65.42311119212119
 51
90.0
  0
ARC
  5
5C6
330
1E5
100
AcDbEntity
  8
3
100
AcDbCircle
 10
172.6806241218332
 20
257.8856096833117
 30
0.0
 40
10.0
100
AcDbArc
 50
270.0
 51
351.3730734413217
  0
LINE
  5
5C7
330
1E5
100
AcDbEntity
  8
3
100
AcDbLine
 10
183.1806241218331
 20
203.9094057249401
 30
0.0
 11
182.1806241218332
 21
252.2379708543633
 31
0.0
  0
ARC
  5
5C8
330
1E5
100
AcDbEntity
  8
3
100
AcDbCircle
 10
172.6806241218332
 20
182.8856096833115
 30
0.0
 40
23.5
100
AcDbArc
 50
356.5391049327846
 51
63.46089506721529
  0
ARC
  5
5C9
330
1E5
100
AcDbEntity
  8
3
100
AcDbCircle
 10
172.6806241218332
 20
182.8856096833115
 30
0.0
 40
22.841260281974
100
AcDbArc
 50
305.4231111921208
 51
354.5768888078792
  0
ARC
  5
5CA
330
1E5
100
AcDbEntity
  8
3
100
AcDbCircle
 10
196.3911959808737
 20
180.5026256722909
 30
0.0
 40
0.9970973658159183
100
AcDbArc
 50
104.7243003362825
 51
167.002294332151
  0
ARC
  5
5CB
330
1E5
100
AcDbEntity
  8
3
100
AcDbCircle
 10
186.5996347417095
 20
163.5431441206364
 30
0.0
 40
0.9970973658159183
100
AcDbArc
 50
132.9977056678485
 51
195.2756996637172
  0
ARC
  5
5CC
330
1E5
100
AcDbEntity
  8
3
100
AcDbCircle
 10
182.4721853609975
 20
204.6110592570074
 30
0.0
 40
0.9970973658159183
100
AcDbArc
 50
252.9977056678492
 51
315.2756996637172
  0
ARC
  5
5CD
330
1E5
100
AcDbEntity
  8
3
100
AcDbCircle
 10
179.7457978513663
 20
250.9368688985148
 30
0.0
 40
2.453373464267446
100
AcDbArc
 50
7.049671566769829
 51
50.45572126204753
  0
ENDSEC
  0
SECTION
  2
OBJECTS
  0
DICTIONARY
  5
1DA
330
0
100
AcDbDictionary
281
     1
  3
ACAD_GROUP
350
1DB
  3
ACAD_LAYOUT
350
221
  3
ACAD_MLINESTYLE
350
1E8
  3
ACAD_PLOTSETTINGS
350
222
  3
ACAD_PLOTSTYLENAME
350
21F
  3
ACDBVARIABLEDICTIONARY
350
20D
  3
AcmDictionary
350
2DF
  3
AMG
350
226
  3
AMGSNAPSETTINGS
350
2FC
  3
DWGPROPS
350
694
  0
DICTIONARY
  5
5CE
330
1E5
100
AcDbDictionary
280
     1
281
     1
  3
ACAD_INDEX
360
5CF
  0
DICTIONARY
  5
1DB
102
{ACAD_REACTORS
330
1DA
102
}
330
1DA
100
AcDbDictionary
281
     1
  0
DICTIONARY
  5
221
102
{ACAD_REACTORS
330
1DA
102
}
330
1DA
100
AcDbDictionary
281
     1
  3
Model
350
223
  3
ﾚｲｱｳﾄ1
350
224
  0
DICTIONARY
  5
1E8
102
{ACAD_REACTORS
330
1DA
102
}
330
1DA
100
AcDbDictionary
281
     1
  3
STANDARD
350
1E9
  0
DICTIONARY
  5
222
102
{ACAD_REACTORS
330
1DA
102
}
330
1DA
100
AcDbDictionary
281
     1
  0
ACDBDICTIONARYWDFLT
  5
21F
102
{ACAD_REACTORS
330
1DA
102
}
330
1DA
100
AcDbDictionary
281
     1
  3
Normal
350
220
100
AcDbDictionaryWithDefault
340
220
  0
DICTIONARY
  5
20D
102
{ACAD_REACTORS
330
1DA
102
}
330
1DA
100
AcDbDictionary
281
     1
  3
DIMADEC
350
20E
  3
DIMASSOC
350
5D9
  3
INDEXCTL
350
5D8
  0
DICTIONARY
  5
2DF
102
{ACAD_REACTORS
330
1DA
102
}
330
1DA
100
AcDbDictionary
281
     1
  3
AcmBOMDATA
350
692
  0
DICTIONARY
  5
226
102
{ACAD_REACTORS
330
1DA
102
}
330
1DA
100
AcDbDictionary
281
     1
  3
AcMgSettings
350
227
  3
AMGLAYCFG
350
69C
  0
DICTIONARY
  5
2FC
102
{ACAD_REACTORS
330
1DA
102
}
330
1DA
100
AcDbDictionary
281
     1
  3
DIMENSION
350
301
  3
FEA
350
300
  3
HATCH (1)
350
2FD
  3
HATCH (2)
350
2FE
  3
SIMPLE WELD
350
302
  3
SYMBOLS
350
2FF
  0
XRECORD
  5
694
102
{ACAD_REACTORS
330
1DA
102
}
330
1DA
100
AcDbXrecord
280
     1
  1
DWGPROPS COOKIE
  2

  3

  4

  6

  7

  8

  9

300
AmdtFileType=84
301
=
302
=
303
=
304
=
305
=
306
=
307
=
308
=
309
=
 40
0.0027459606481481
 41
2450863.963102546
 42
2456448.423904976
  1

 90
        1
  0
DICTIONARY
  5
5CF
102
{ACAD_REACTORS
330
5CE
102
}
330
5CE
100
AcDbDictionary
281
     1
  3
*A1
350
5D0
  0
LAYOUT
  5
223
102
{ACAD_REACTORS
330
221
102
}
330
221
100
AcDbPlotSettings
  1

  2
\\KONISHIDENXP\SHARP MX-2700FG
  4

  6

 40
0.0
 41
0.0
 42
0.0
 43
0.0
 44
0.0
 45
0.0
 46
0.0
 47
0.0
 48
0.0
 49
0.0
140
0.0
141
0.0
142
1.0
143
1.0
 70
  1712
 72
     0
 73
     0
 74
     0
  7

 75
     0
147
1.0
148
0.0
149
0.0
100
AcDbLayout
  1
Model
 70
     1
 71
     0
 10
0.0
 20
0.0
 11
12.0
 21
9.0
 12
0.0
 22
0.0
 32
0.0
 14
0.0
 24
0.0
 34
0.0
 15
0.0
 25
0.0
 35
0.0
146
0.0
 13
0.0
 23
0.0
 33
0.0
 16
1.0
 26
0.0
 36
0.0
 17
0.0
 27
1.0
 37
0.0
 76
     0
330
1E5
  0
LAYOUT
  5
224
102
{ACAD_REACTORS
330
221
102
}
330
221
100
AcDbPlotSettings
  1

  2
\\KONISHIDENXP\SHARP MX-2700FG
  4

  6

 40
0.0
 41
0.0
 42
0.0
 43
0.0
 44
0.0
 45
0.0
 46
0.0
 47
0.0
 48
0.0
 49
0.0
140
0.0
141
0.0
142
1.0
143
1.0
 70
   688
 72
     0
 73
     0
 74
     5
  7

 75
    16
147
1.0
148
0.0
149
0.0
100
AcDbLayout
  1
ﾚｲｱｳﾄ1
 70
     0
 71
     1
 10
0.0
 20
0.0
 11
12.0
 21
9.0
 12
0.0
 22
0.0
 32
0.0
 14
1.000000000000000E+20
 24
1.000000000000000E+20
 34
1.000000000000000E+20
 15
-1.000000000000000E+20
 25
-1.000000000000000E+20
 35
-1.000000000000000E+20
146
0.0
 13
0.0
 23
0.0
 33
0.0
 16
1.0
 26
0.0
 36
0.0
 17
0.0
 27
1.0
 37
0.0
 76
     0
330
1E2
  0
MLINESTYLE
  5
1E9
102
{ACAD_REACTORS
330
1E8
102
}
330
1E8
100
AcDbMlineStyle
  2
STANDARD
 70
     0
  3

 62
   256
 51
90.0
 52
90.0
 71
     2
 49
0.5
 62
   256
  6
BYLAYER
 49
-0.5
 62
   256
  6
BYLAYER
  0
ACDBPLACEHOLDER
  5
220
102
{ACAD_REACTORS
330
21F
102
}
330
21F
  0
DICTIONARYVAR
  5
20E
102
{ACAD_REACTORS
330
20D
102
}
330
20D
100
DictionaryVariables
280
     0
  1
0
  0
DICTIONARYVAR
  5
5D9
102
{ACAD_REACTORS
330
20D
102
}
330
20D
100
DictionaryVariables
280
     0
  1
0
  0
DICTIONARYVAR
  5
5D8
102
{ACAD_REACTORS
330
20D
102
}
330
20D
100
DictionaryVariables
280
     0
  1
1
  0
ACMDATADICTIONARY
  5
692
102
{ACAD_REACTORS
330
2DF
102
}
330
2DF
100
AcDbDictionary
281
     1
  3
*A1
350
693
100
AcmDataDictionary
  0
DICTIONARY
  5
227
102
{ACAD_REACTORS
330
226
102
}
330
226
100
AcDbDictionary
281
     1
  3
DWGSETTINGS
350
5E4
  0
ACAMGFILTERDAT
  5
301
102
{ACAD_REACTORS
330
2FC
102
}
330
2FC
100
AcAmgFilterDat
 70
    15
  1
DIMENSION,AMDT_*_DIM
  2
*
  3
*
  4
*
  5
*
290
     1
  0
ACAMGFILTERDAT
  5
300
102
{ACAD_REACTORS
330
2FC
102
}
330
2FC
100
AcAmgFilterDat
 70
    15
  1
*
  2
AM_FEA-AM_*
  3
*
  4
*
  5
*
290
     1
  0
ACAMGFILTERDAT
  5
2FD
102
{ACAD_REACTORS
330
2FC
102
}
330
2FC
100
AcAmgFilterDat
 70
    15
  1
HATCH
  2
*
  3
*
  4
*
  5
*
290
     1
  0
ACAMGFILTERDAT
  5
2FE
102
{ACAD_REACTORS
330
2FC
102
}
330
2FC
100
AcAmgFilterDat
 70
    15
  1
LINE
  2
8,8N,*-8,*-8N,AM_8,AM_8N,*-AM_8,*-AM_8N
  3
*
  4
*
  5
INSERT,STDPART2D
290
     1
  0
ACAMGFILTERDAT
  5
302
102
{ACAD_REACTORS
330
2FC
102
}
330
2FC
100
AcAmgFilterDat
 70
    15
  1
ARC
  2
AM_5
  3
*
  4
2
  5
INSERT
290
     0
  0
ACAMGFILTERDAT
  5
2FF
102
{ACAD_REACTORS
330
2FC
102
}
330
2FC
100
AcAmgFilterDat
 70
    15
  1
ACMFCFRAME,ACMDATUMTARGET,ACMDATUMID,ACMWELDSYM,ACMSURFSYM,ACMFEATID,ACMPARTREF,ACMBALLOON,AMDTEDGESYM,AMGSCREWCALCTABLE
  2
*
  3
*
  4
*
  5
*
290
     1
  0
LAYER_INDEX
  5
5D0
102
{ACAD_REACTORS
330
5CF
102
}
330
5CF
100
AcDbIndex
 40
2456448.458327361
100
AcDbLayerIndex
  8
0
360
5D1
 90
        2
  8
1
360
5D2
 90
        8
  8
3
360
5D3
 90
       86
  8
4
360
5D4
 90
        0
  8
10
360
5D5
 90
        0
  8
11
360
5D6
 90
        0
  8
DEFPOINTS
360
5D7
 90
        0
  0
ACMDATAENTRYBLOCK
  5
693
102
{ACAD_REACTORS
330
692
102
}
330
692
100
AcmDataEntry
100
AcmDataEntryBlock
  0
IDBUFFER
  5
5D1
330
0
100
AcDbIdBuffer
330
458
330
45A
  0
IDBUFFER
  5
5D2
330
0
100
AcDbIdBuffer
330
424
330
429
330
42D
330
453
330
45E
330
470
330
5B7
330
5BE
  0
IDBUFFER
  5
5D3
330
0
100
AcDbIdBuffer
330
421
330
422
330
426
330
427
330
42A
330
42B
330
42E
330
42F
330
430
330
431
330
432
330
434
330
435
330
43F
330
441
330
442
330
444
330
445
330
446
330
447
330
44B
330
451
330
452
330
454
330
456
330
45B
330
45C
330
45D
330
45F
330
460
330
461
330
462
330
463
330
465
330
467
330
469
330
46A
330
46B
330
46C
330
46D
330
46F
330
473
330
474
330
475
330
477
330
478
330
479
330
47A
330
47B
330
47C
330
47D
330
47E
330
47F
330
480
330
482
330
483
330
484
330
485
330
48C
330
491
330
494
330
495
330
496
330
497
330
498
330
5B3
330
5B4
330
5B5
330
5B6
330
5B8
330
5B9
330
5BA
330
5BB
330
5BC
330
5BD
330
5C1
330
5C3
330
5C4
330
5C6
330
5C7
330
5C8
330
5C9
330
5CA
330
5CB
330
5CC
330
5CD
  0
IDBUFFER
  5
5D4
330
0
100
AcDbIdBuffer
  0
IDBUFFER
  5
5D5
330
0
100
AcDbIdBuffer
  0
IDBUFFER
  5
5D6
330
0
100
AcDbIdBuffer
  0
IDBUFFER
  5
5D7
330
0
100
AcDbIdBuffer
  0
ENDSEC
  0
EOF
