  0
SECTION
  2
HEADER
  9
$ACADVER
  1
AC1015
  9
$ACADMAINTVER
 70
    13
  9
$DWGCODEPAGE
  3
ANSI_932
  9
$INSBASE
 10
0.0
 20
0.0
 30
0.0
  9
$EXTMIN
 10
66.83681145582361
 20
58.07204001346559
 30
0.0
  9
$EXTMAX
 10
323.1537308133833
 20
225.2821618998614
 30
0.0000000000000004
  9
$LIMMIN
 10
0.0
 20
0.0
  9
$LIMMAX
 10
400.0
 20
280.0
  9
$ORTHOMODE
 70
     1
  9
$REGENMODE
 70
     1
  9
$FILLMODE
 70
     1
  9
$QTEXTMODE
 70
     0
  9
$MIRRTEXT
 70
     1
  9
$LTSCALE
 40
20.0
  9
$ATTMODE
 70
     1
  9
$TEXTSIZE
 40
0.2
  9
$TRACEWID
 40
0.05
  9
$TEXTSTYLE
  7
STANDARD
  9
$CLAYER
  8
0
  9
$CELTYPE
  6
BYLAYER
  9
$CECOLOR
 62
   256
  9
$CELTSCALE
 40
1.0
  9
$DISPSILH
 70
     0
  9
$DIMSCALE
 40
2.0
  9
$DIMASZ
 40
3.0
  9
$DIMEXO
 40
2.0
  9
$DIMDLI
 40
0.38
  9
$DIMRND
 40
0.0
  9
$DIMDLE
 40
0.0
  9
$DIMEXE
 40
2.0
  9
$DIMTP
 40
0.0
  9
$DIMTM
 40
0.0
  9
$DIMTXT
 40
3.2
  9
$DIMCEN
 40
0.09
  9
$DIMTSZ
 40
0.0
  9
$DIMTOL
 70
     0
  9
$DIMLIM
 70
     0
  9
$DIMTIH
 70
     0
  9
$DIMTOH
 70
     0
  9
$DIMSE1
 70
     0
  9
$DIMSE2
 70
     0
  9
$DIMTAD
 70
     1
  9
$DIMZIN
 70
     0
  9
$DIMBLK
  1

  9
$DIMASO
 70
     0
  9
$DIMSHO
 70
     0
  9
$DIMPOST
  1

  9
$DIMAPOST
  1

  9
$DIMALT
 70
     0
  9
$DIMALTD
 70
     2
  9
$DIMALTF
 40
25.4
  9
$DIMLFAC
 40
1.0
  9
$DIMTOFL
 70
     0
  9
$DIMTVP
 40
1.6
  9
$DIMTIX
 70
     1
  9
$DIMSOXD
 70
     0
  9
$DIMSAH
 70
     0
  9
$DIMBLK1
  1

  9
$DIMBLK2
  1

  9
$DIMSTYLE
  2
STANDARD
  9
$DIMCLRD
 70
     0
  9
$DIMCLRE
 70
     0
  9
$DIMCLRT
 70
     0
  9
$DIMTFAC
 40
1.0
  9
$DIMGAP
 40
0.09
  9
$DIMJUST
 70
     0
  9
$DIMSD1
 70
     0
  9
$DIMSD2
 70
     0
  9
$DIMTOLJ
 70
     1
  9
$DIMTZIN
 70
     0
  9
$DIMALTZ
 70
     0
  9
$DIMALTTZ
 70
     0
  9
$DIMUPT
 70
     0
  9
$DIMDEC
 70
     4
  9
$DIMTDEC
 70
     4
  9
$DIMALTU
 70
     2
  9
$DIMALTTD
 70
     2
  9
$DIMTXSTY
  7
BIGFONT
  9
$DIMAUNIT
 70
     0
  9
$DIMADEC
 70
     0
  9
$DIMALTRND
 40
0.0
  9
$DIMAZIN
 70
     0
  9
$DIMDSEP
 70
    46
  9
$DIMATFIT
 70
     3
  9
$DIMFRAC
 70
     0
  9
$DIMLDRBLK
  1

  9
$DIMLUNIT
 70
     2
  9
$DIMLWD
 70
    -2
  9
$DIMLWE
 70
    -2
  9
$DIMTMOVE
 70
     0
  9
$LUNITS
 70
     2
  9
$LUPREC
 70
     4
  9
$SKETCHINC
 40
0.1
  9
$FILLETRAD
 40
0.0
  9
$AUNITS
 70
     0
  9
$AUPREC
 70
     0
  9
$MENU
  1
ACAD
  9
$ELEVATION
 40
0.0
  9
$PELEVATION
 40
0.0
  9
$THICKNESS
 40
0.0
  9
$LIMCHECK
 70
     0
  9
$CHAMFERA
 40
0.0
  9
$CHAMFERB
 40
0.0
  9
$CHAMFERC
 40
0.0
  9
$CHAMFERD
 40
0.0
  9
$SKPOLY
 70
     0
  9
$TDCREATE
 40
2450861.875419096
  9
$TDUCREATE
 40
2450861.500419097
  9
$TDUPDATE
 40
2456448.456847685
  9
$TDUUPDATE
 40
2456448.081847685
  9
$TDINDWG
 40
0.0030177778
  9
$TDUSRTIMER
 40
0.0030177778
  9
$USRTIMER
 70
     1
  9
$ANGBASE
 50
0.0
  9
$ANGDIR
 70
     0
  9
$PDMODE
 70
     0
  9
$PDSIZE
 40
0.0
  9
$PLINEWID
 40
0.0
  9
$SPLFRAME
 70
     0
  9
$SPLINETYPE
 70
     6
  9
$SPLINESEGS
 70
     8
  9
$HANDSEED
  5
659
  9
$SURFTAB1
 70
     6
  9
$SURFTAB2
 70
     6
  9
$SURFTYPE
 70
     6
  9
$SURFU
 70
     6
  9
$SURFV
 70
     6
  9
$UCSBASE
  2

  9
$UCSNAME
  2

  9
$UCSORG
 10
0.0
 20
0.0
 30
0.0
  9
$UCSXDIR
 10
1.0
 20
0.0
 30
0.0
  9
$UCSYDIR
 10
0.0
 20
1.0
 30
0.0
  9
$UCSORTHOREF
  2

  9
$UCSORTHOVIEW
 70
     0
  9
$UCSORGTOP
 10
0.0
 20
0.0
 30
0.0
  9
$UCSORGBOTTOM
 10
0.0
 20
0.0
 30
0.0
  9
$UCSORGLEFT
 10
0.0
 20
0.0
 30
0.0
  9
$UCSORGRIGHT
 10
0.0
 20
0.0
 30
0.0
  9
$UCSORGFRONT
 10
0.0
 20
0.0
 30
0.0
  9
$UCSORGBACK
 10
0.0
 20
0.0
 30
0.0
  9
$PUCSBASE
  2

  9
$PUCSNAME
  2

  9
$PUCSORG
 10
0.0
 20
0.0
 30
0.0
  9
$PUCSXDIR
 10
1.0
 20
0.0
 30
0.0
  9
$PUCSYDIR
 10
0.0
 20
1.0
 30
0.0
  9
$PUCSORTHOREF
  2

  9
$PUCSORTHOVIEW
 70
     0
  9
$PUCSORGTOP
 10
0.0
 20
0.0
 30
0.0
  9
$PUCSORGBOTTOM
 10
0.0
 20
0.0
 30
0.0
  9
$PUCSORGLEFT
 10
0.0
 20
0.0
 30
0.0
  9
$PUCSORGRIGHT
 10
0.0
 20
0.0
 30
0.0
  9
$PUCSORGFRONT
 10
0.0
 20
0.0
 30
0.0
  9
$PUCSORGBACK
 10
0.0
 20
0.0
 30
0.0
  9
$USERI1
 70
     0
  9
$USERI2
 70
     0
  9
$USERI3
 70
     0
  9
$USERI4
 70
     0
  9
$USERI5
 70
     0
  9
$USERR1
 40
0.0
  9
$USERR2
 40
0.0
  9
$USERR3
 40
0.0
  9
$USERR4
 40
0.0
  9
$USERR5
 40
0.0
  9
$WORLDVIEW
 70
     1
  9
$SHADEDGE
 70
     3
  9
$SHADEDIF
 70
    70
  9
$TILEMODE
 70
     1
  9
$MAXACTVP
 70
    16
  9
$PINSBASE
 10
0.0
 20
0.0
 30
0.0
  9
$PLIMCHECK
 70
     0
  9
$PEXTMIN
 10
1.000000000000000E+20
 20
1.000000000000000E+20
 30
1.000000000000000E+20
  9
$PEXTMAX
 10
-1.000000000000000E+20
 20
-1.000000000000000E+20
 30
-1.000000000000000E+20
  9
$PLIMMIN
 10
0.0
 20
0.0
  9
$PLIMMAX
 10
12.0
 20
9.0
  9
$UNITMODE
 70
     0
  9
$VISRETAIN
 70
     0
  9
$PLINEGEN
 70
     1
  9
$PSLTSCALE
 70
     0
  9
$TREEDEPTH
 70
  3020
  9
$CMLSTYLE
  2
STANDARD
  9
$CMLJUST
 70
     0
  9
$CMLSCALE
 40
1.0
  9
$PROXYGRAPHICS
 70
     1
  9
$MEASUREMENT
 70
     0
  9
$CELWEIGHT
370
    -1
  9
$ENDCAPS
280
     0
  9
$JOINSTYLE
280
     0
  9
$LWDISPLAY
290
     0
  9
$INSUNITS
 70
     0
  9
$HYPERLINKBASE
  1

  9
$STYLESHEET
  1

  9
$XEDIT
290
     1
  9
$CEPSNTYPE
380
     0
  9
$PSTYLEMODE
290
     1
  9
$FINGERPRINTGUID
  2
{1A7FECD6-6716-4692-9891-68A330E2213D}
  9
$VERSIONGUID
  2
{5D8F10BB-02FE-487D-ADD5-941D87631DE4}
  9
$EXTNAMES
290
     1
  9
$PSVPSCALE
 40
0.0
  9
$OLESTARTUP
290
     0
  0
ENDSEC
  0
SECTION
  2
CLASSES
  0
CLASS
  1
DICTIONARYVAR
  2
AcDbDictionaryVar
  3
AutoCAD 2000
 90
        0
280
     0
281
     0
  0
CLASS
  1
ACDBDICTIONARYWDFLT
  2
AcDbDictionaryWithDefault
  3
AutoCAD 2000
 90
        0
280
     0
281
     0
  0
CLASS
  1
ACDBPLACEHOLDER
  2
AcDbPlaceHolder
  3
AutoCAD 2000
 90
        0
280
     0
281
     0
  0
CLASS
  1
LAYOUT
  2
AcDbLayout
  3
AutoCAD 2000
 90
        0
280
     0
281
     0
  0
CLASS
  1
AMGSETTINGSOBJ
  2
AmgSettingsObj
  3
"AcadM|Product Description: AutoCAD Mechanical 2000|Company: Autodesk"
 90
        0
280
     0
281
     0
  0
CLASS
  1
ACME_DOCUMENT
  2
AcMeDbDoc
  3
AcMeServices
 90
        0
280
     0
281
     0
  0
CLASS
  1
ACMESCOPE
  2
AcMeScope
  3
AcMeServices
 90
        0
280
     0
281
     0
  0
CLASS
  1
ACMECOMMANDHISTORY
  2
AcMeCommandHistory
  3
AcMeServices
 90
        0
280
     0
281
     0
  0
CLASS
  1
ACIMSYSVARMAN
  2
AcImSysVarManager
  3
AcMeServices
 90
        0
280
     0
281
     0
  0
CLASS
  1
ACIMREALSYSVAR
  2
AcImRealSysVar
  3
AcMeServices
 90
        0
280
     0
281
     0
  0
CLASS
  1
ACIMINTSYSVAR
  2
AcImIntSysVar
  3
AcMeServices
 90
        0
280
     0
281
     0
  0
CLASS
  1
ACMEDRAWINGMAN
  2
AcMeDrawingMan
  3
AcMeServices
 90
        0
280
     0
281
     0
  0
CLASS
  1
ACMEVIEW
  2
AcMeView
  3
AcMeServices
 90
        0
280
     0
281
     0
  0
CLASS
  1
ACDBENTITYCACHE
  2
AcMeEntityCache
  3
AcMeServices
 90
        0
280
     0
281
     0
  0
CLASS
  1
GSMANAGER
  2
AcMeGSManager
  3
AcMeServices
 90
        0
280
     0
281
     0
  0
CLASS
  1
AMDTINTERNALREACTOR
  2
AmdtInternalReactor
  3
AcMeServices
 90
        0
280
     0
281
     0
  0
CLASS
  1
ACMESTATEMGR
  2
AcMeStateMgr
  3
AcMeServices
 90
        0
280
     0
281
     0
  0
CLASS
  1
ACGREFMASTER
  2
AcGrefMaster
  3
AcAttribServices
 90
        0
280
     0
281
     0
  0
CLASS
  1
AM_DRAWING_MGR
  2
AcDmDwgMgr
  3
AcMechDwgViewMgmt
 90
        0
280
     0
281
     0
  0
CLASS
  1
AM_DWG_DOCUMENT
  2
AcDmDwgDocument
  3
AcMechDwgViewMgmt
 90
        0
280
     0
281
     0
  0
CLASS
  1
AM_DWG_SHEET
  2
AcDmSheet
  3
AcMechDwgViewMgmt
 90
        0
280
     0
281
     0
  0
CLASS
  1
AM_VIEWDIMPARMAP
  2
AcDmViewDimParMap
  3
AcMechDwgViewMgmt
 90
        0
280
     0
281
     0
  0
CLASS
  1
AM_DWGMGR_NAME
  2
AcDmDwgMgrName
  3
AcMechDwgViewMgmt
 90
        0
280
     0
281
     0
  0
CLASS
  1
ACME_DATABASE
  2
AcMeDbDatabase
  3
AcMeServices
 90
        0
280
     0
281
     0
  0
CLASS
  1
ACRFINSADJUSTERMGR
  2
AcRfInsAdjusterMgr
  3
AcMeServices
 90
        0
280
     0
281
     0
  0
CLASS
  1
ACGREFACADMASTER
  2
AcGrefacadMaster
  3
AcGrefServices
 90
        0
280
     0
281
     0
  0
CLASS
  1
AMDTMENUSTATEMGR
  2
AmdtMenuStateMgr
  3
McadcomServices
 90
        0
280
     0
281
     0
  0
CLASS
  1
AMDTMCOMMENUSTATE
  2
AmdtMcomMenuState
  3
McadcomServices
 90
        0
280
     0
281
     0
  0
CLASS
  1
AMIMASTER
  2
AmiMaster
  3
AmiServices
 90
        0
280
     0
281
     0
  0
CLASS
  1
ASAPP
  2
AcAsAppObject
  3
AutoSurfServices
 90
        0
280
     0
281
     0
  0
CLASS
  1
IM_STATIC_MAN
  2
AcImStaticVarManager
  3
AcMeServices
 90
        0
280
     0
281
     0
  0
CLASS
  1
ACIMSTRSYSVAR
  2
AcImStrSysVar
  3
AcMeServices
 90
        0
280
     0
281
     0
  0
CLASS
  1
ACIMDBLSTATICVAR
  2
AcImDblStaticVar
  3
AcMeServices
 90
        0
280
     0
281
     0
  0
CLASS
  1
ACIMSTRSTATICVAR
  2
AcImStrStaticVar
  3
AcMeServices
 90
        0
280
     0
281
     0
  0
CLASS
  1
ACIMINTSTATICVAR
  2
AcImIntStaticVar
  3
AcMeServices
 90
        0
280
     0
281
     0
  0
CLASS
  1
ACASGREFMASTER
  2
AcAsGrefMaster
  3
AutoSurfResolverServices
 90
        0
280
     0
281
     0
  0
CLASS
  1
ACADGREFMODULE
  2
AcAdGrefModule
  3
AdGrefServices
 90
        0
280
     0
281
     0
  0
CLASS
  1
AMDTMAPISURFMOUDULE
  2
AmdtMApiSurfModule
  3
MApiSurfServices
 90
    32768
280
     0
281
     0
  0
CLASS
  1
MAPIAMMOUDLE
  2
MApiAmModule
  3
MApiAmServices
 90
        0
280
     0
281
     0
  0
CLASS
  1
AMDTADMENUSTATE
  2
AmdtAdMenuState
  3
DesignerServices
 90
        0
280
     0
281
     0
  0
CLASS
  1
ADAPPL
  2
AcAdAppl
  3
DesignerServices
 90
        0
280
     0
281
     0
  0
CLASS
  1
DEPMGR
  2
AcAdDepMgr
  3
DesignerServices
 90
        0
280
     0
281
     0
  0
CLASS
  1
PARAMMGR
  2
AcAdParamMgr
  3
DesignerServices
 90
        0
280
     0
281
     0
  0
CLASS
  1
PARAMSCOPE
  2
AcAdParamScope
  3
DesignerServices
 90
        0
280
     0
281
     0
  0
CLASS
  1
NAMEDAPPL
  2
AcAdNamedAppl
  3
DesignerServices
 90
        0
280
     0
281
     0
  0
CLASS
  1
AMDTDMMENUSTATE
  2
AmdtDmMenuState
  3
AcMechDwgViewMgmt
 90
        0
280
     0
281
     0
  0
CLASS
  1
MAPIADMODULE
  2
MApiAdModule
  3
MApiAdServices
 90
        0
280
     0
281
     0
  0
CLASS
  1
AMDTAMMENUSTATE
  2
AmdtAmMenuState
  3
DesignerAssemblies
 90
        0
280
     0
281
     0
  0
CLASS
  1
ACAMPROJECT
  2
AcAmProject
  3
DesignerAssemblies
 90
        0
280
     0
281
     0
  0
CLASS
  1
ACAMGRCOMPDEF
  2
AcAmGrCompDef
  3
DesignerAssemblies
 90
        0
280
     0
281
     0
  0
CLASS
  1
ACCMCONTEXT
  2
AcCmContext
  3
DesignerAssemblies
 90
        0
280
     0
281
     0
  0
CLASS
  1
ACAMCOMPDEF
  2
AcAmCompDef
  3
DesignerAssemblies
 90
        0
280
     0
281
     0
  0
CLASS
  1
ACAMCOMPDEFMGR
  2
AcAmCompDefMgr
  3
DesignerAssemblies
 90
        0
280
     0
281
     0
  0
CLASS
  1
AMCONTEXTMGR
  2
AcAmContextMgr
  3
DesignerAssemblies
 90
        0
280
     0
281
     0
  0
CLASS
  1
ACAMCONTEXTMODELER
  2
AcAmContextModeler
  3
DesignerAssemblies
 90
        0
280
     0
281
     0
  0
CLASS
  1
ACMDATADICTIONARY
  2
AcmDataDictionary
  3
"AcmSymBB|Product Description: AutoCAD Mechanical 2000|Company: Autodesk"
 90
        0
280
     0
281
     0
  0
CLASS
  1
ACMDATAENTRYBLOCK
  2
AcmDataEntryBlock
  3
"AcmSymBB|Product Description: AutoCAD Mechanical 2000|Company: Autodesk"
 90
        0
280
     0
281
     0
  0
CLASS
  1
CATALOGSTATE
  2
AcAmCatalogState
  3
DesignerAssemblies
 90
        0
280
     0
281
     0
  0
CLASS
  1
ACAMGRCOMPDEFSET
  2
AcAmGrCompDefSet
  3
DesignerAssemblies
 90
        0
280
     0
281
     0
  0
CLASS
  1
AMDTBROWSERDBTAB
  2
AmdtBrowserDbTab
  3
McadcomServices
 90
        0
280
     0
281
     0
  0
CLASS
  1
CBROWSERAPPOBJECT
  2
CBrowserAppObject
  3
McadcomServices
 90
        0
280
     0
281
     0
  0
CLASS
  1
DM_PLACEHOLDER
  2
AcDmSelsetPlaceholder
  3
AcMechDwgViewMgmt
 90
        0
280
     0
281
     0
  0
CLASS
  1
AMGOBJPROPCFG
  2
AmgObjPropCfg
  3
"AmgLay|Product Description: AutoCAD Mechanical 2000|Company: Autodesk"
 90
        1
280
     0
281
     0
  0
CLASS
  1
ACAMGFILTERDAT
  2
AcAmgFilterDat
  3
"AcadM|Product Description: AutoCAD Mechanical 2000|Company: Autodesk"
 90
        0
280
     0
281
     0
  0
CLASS
  1
ACMSTANDARDISO
  2
AcmStandardISO
  3
"Amdt_StdImp|Product Description: AutoCAD Mechanical 2000|Company: Autodesk"
 90
    32768
280
     0
281
     0
  0
CLASS
  1
AMDTEDGESTANDARDISO
  2
AmdtEdgeStdISO
  3
"Amdt_StdImp|Product Description: AutoCAD Mechanical 2000|Company: Autodesk"
 90
    32768
280
     0
281
     0
  0
CLASS
  1
ACMSURFSTANDARDISO
  2
AcmSurfTextStdISO
  3
"Amdt_StdImp|Product Description: AutoCAD Mechanical 2000|Company: Autodesk"
 90
    32768
280
     0
281
     0
  0
CLASS
  1
ACMFCFSTANDARDISO
  2
AcmFCFStdISO
  3
"Amdt_StdImp|Product Description: AutoCAD Mechanical 2000|Company: Autodesk"
 90
    32768
280
     0
281
     0
  0
CLASS
  1
ACMWELDSTANDARDISO
  2
AcmWeldingStdISO
  3
"Amdt_StdImp|Product Description: AutoCAD Mechanical 2000|Company: Autodesk"
 90
    32768
280
     0
281
     0
  0
CLASS
  1
ACMIDSTANDARDISO
  2
AcmIdStdISO
  3
"Amdt_StdImp|Product Description: AutoCAD Mechanical 2000|Company: Autodesk"
 90
    32768
280
     0
281
     0
  0
CLASS
  1
ACMDATUMSTANDARDISO
  2
AcmDatumStdISO
  3
"Amdt_StdImp|Product Description: AutoCAD Mechanical 2000|Company: Autodesk"
 90
    32768
280
     0
281
     0
  0
CLASS
  1
ACMBOMSTANDARDISO
  2
AcmBOMStdISO
  3
"Amdt_StdImp|Product Description: AutoCAD Mechanical 2000|Company: Autodesk"
 90
    32768
280
     0
281
     0
  0
CLASS
  1
ACMDETAILSTANDARDISO
  2
AmdtDetailSymStdISO
  3
"Amdt_StdImp|Product Description: AutoCAD Mechanical 2000|Company: Autodesk"
 90
    32768
280
     0
281
     0
  0
CLASS
  1
ACMSECTIONSTANDARDISO
  2
AmdtSectionSymStdISO
  3
"Amdt_StdImp|Product Description: AutoCAD Mechanical 2000|Company: Autodesk"
 90
    32768
280
     0
281
     0
  0
CLASS
  1
ACMCENTERLINESTANDARDISO
  2
AmdtCenterLineStdISO
  3
"Amdt_StdImp|Product Description: AutoCAD Mechanical 2000|Company: Autodesk"
 90
    32768
280
     0
281
     0
  0
CLASS
  1
ACMTHREADLINESTANDARDISO
  2
AmdtThreadLineStdISO
  3
"Amdt_StdImp|Product Description: AutoCAD Mechanical 2000|Company: Autodesk"
 90
    32768
280
     0
281
     0
  0
CLASS
  1
ACMNOTESTANDARDISO
  2
AmdtNoteStdISO
  3
"Amdt_StdImp|Product Description: AutoCAD Mechanical 2000|Company: Autodesk"
 90
    32768
280
     0
281
     0
  0
CLASS
  1
ACAMGLAYSTD
  2
AcAmgLayStd
  3
"AcAmgLayStd|Product Description: AutoCAD Mechanical 2000|Company: Autodesk"
 90
    32768
280
     0
281
     0
  0
CLASS
  1
ACAMGDIMSTD
  2
AcAmgDimStd
  3
"AcAmgDimStd|Product Description: AutoCAD Mechanical 2000|Company: Autodesk"
 90
    32768
280
     0
281
     0
  0
CLASS
  1
ACAMGHOLECHARTSTDISO
  2
AcAmgHoleChartStdISO
  3
ACMSYMBB_MODULE_NAME
 90
    32768
280
     0
281
     0
  0
CLASS
  1
ACAMGTITLESTD
  2
AcAmgTitleStd
  3
"TITLEAPP"
 90
    32768
280
     0
281
     0
  0
CLASS
  1
AMDTFORMULAUPDATEDISPATCHER
  2
AmdtFormulaUpdateDispatcher
  3
AcMeServices
 90
        0
280
     0
281
     0
  0
CLASS
  1
LAYER_INDEX
  2
AcDbLayerIndex
  3
AutoCAD 2000
 90
        0
280
     0
281
     0
  0
CLASS
  1
IDBUFFER
  2
AcDbIdBuffer
  3
AutoCAD 2000
 90
        0
280
     0
281
     0
  0
ENDSEC
  0
SECTION
  2
TABLES
  0
TABLE
  2
VPORT
  5
165
330
0
100
AcDbSymbolTable
 70
     3
  0
VPORT
  5
658
330
165
100
AcDbSymbolTableRecord
100
AcDbViewportTableRecord
  2
*Active
 70
     0
 10
0.0
 20
0.0
 11
1.0
 21
1.0
 12
0.0
 22
0.0
 13
0.0
 23
0.0
 14
10.0
 24
10.0
 15
10.0
 25
10.0
 16
0.0
 26
0.0
 36
1.0
 17
220.9594439761041
 27
158.3225899999999
 37
0.0
 40
296.6578467432341
 41
1.489721886336154
 42
50.0
 43
0.0
 44
0.0
 50
0.0
 51
0.0
 71
     0
 72
 20000
 73
     1
 74
     1
 75
     0
 76
     0
 77
     0
 78
     1
281
     0
 65
     0
110
0.0
120
0.0
130
0.0
111
1.0
121
0.0
131
0.0
112
0.0
122
1.0
132
0.0
 79
     0
146
0.0
  0
ENDTAB
  0
TABLE
  2
LTYPE
  5
162
330
0
100
AcDbSymbolTable
 70
    22
  0
LTYPE
  5
16E
330
162
100
AcDbSymbolTableRecord
100
AcDbLinetypeTableRecord
  2
BYBLOCK
 70
     0
  3

 72
    65
 73
     0
 40
0.0
  0
LTYPE
  5
16F
330
162
100
AcDbSymbolTableRecord
100
AcDbLinetypeTableRecord
  2
BYLAYER
 70
     0
  3

 72
    65
 73
     0
 40
0.0
  0
LTYPE
  5
170
330
162
100
AcDbSymbolTableRecord
100
AcDbLinetypeTableRecord
  2
CONTINUOUS
 70
     0
  3
実線
 72
    65
 73
     0
 40
0.0
  0
LTYPE
  5
17F
330
162
100
AcDbSymbolTableRecord
100
AcDbLinetypeTableRecord
  2
CENTER
 70
     0
  3
____ _ ____ _ ____ _ ____ _ ____ _ ____ _ ____
 72
    65
 73
     4
 40
2.0
 49
1.25
 74
     0
 49
-0.25
 74
     0
 49
0.25
 74
     0
 49
-0.25
 74
     0
  0
LTYPE
  5
180
330
162
100
AcDbSymbolTableRecord
100
AcDbLinetypeTableRecord
  2
HIDDEN
 70
     0
  3
_ _ _ _ _ _ _ _ _ _ _ _ _ _ _ _ _ _ _ _ _ _ _
 72
    65
 73
     2
 40
0.375
 49
0.25
 74
     0
 49
-0.125
 74
     0
  0
LTYPE
  5
181
330
162
100
AcDbSymbolTableRecord
100
AcDbLinetypeTableRecord
  2
TENSEN1
 70
     0
  3

 72
    65
 73
     2
 40
0.4
 49
0.3
 74
     0
 49
-0.1
 74
     0
  0
LTYPE
  5
1C7
330
162
100
AcDbSymbolTableRecord
100
AcDbLinetypeTableRecord
  2
PHANTOM2
 70
     0
  3
Phantom (.5x) ___ _ _ ___ _ _ ___ _ _ ___ _ _
 72
    65
 73
     6
 40
1.25
 49
0.625
 74
     0
 49
-0.125
 74
     0
 49
0.125
 74
     0
 49
-0.125
 74
     0
 49
0.125
 74
     0
 49
-0.125
 74
     0
  0
LTYPE
  5
229
330
162
100
AcDbSymbolTableRecord
100
AcDbLinetypeTableRecord
  2
ASULTYPE
 70
     0
  3
実線
 72
    65
 73
     2
 40
3.0
 49
2.5
 74
     0
 49
0.5
 74
     0
  0
LTYPE
  5
22A
330
162
100
AcDbSymbolTableRecord
100
AcDbLinetypeTableRecord
  2
ASVLTYPE
 70
     0
  3
__ __ __ __ __ __ __ __ __ __ __ __ __ __ __ __ __ __ __ __ __
 72
    65
 73
     2
 40
0.75
 49
0.5
 74
     0
 49
-0.25
 74
     0
  0
LTYPE
  5
26B
330
162
100
AcDbSymbolTableRecord
100
AcDbLinetypeTableRecord
  2
AM_ISO02W050
 70
     0
  3
__ __ __ __ __ __ __ __ __ __ __ __ __ __ __
 72
    65
 73
     2
 40
7.5
 49
6.0
 74
     0
 49
-1.5
 74
     0
  0
LTYPE
  5
26C
330
162
100
AcDbSymbolTableRecord
100
AcDbLinetypeTableRecord
  2
AM_ISO08W050
 70
     0
  3
____ . ____ . ____ . ____ . ____ . ____ . ____
 72
    65
 73
     4
 40
18.0
 49
12.0
 74
     0
 49
-1.5
 74
     0
 49
3.0
 74
     0
 49
-1.5
 74
     0
  0
LTYPE
  5
26D
330
162
100
AcDbSymbolTableRecord
100
AcDbLinetypeTableRecord
  2
AM_ISO09W050
 70
     0
  3
_____ . . _____ . . _____ . . ____ .. ____
 72
    65
 73
     6
 40
22.5
 49
12.0
 74
     0
 49
-1.5
 74
     0
 49
3.0
 74
     0
 49
-1.5
 74
     0
 49
3.0
 74
     0
 49
-1.5
 74
     0
  0
LTYPE
  5
26E
330
162
100
AcDbSymbolTableRecord
100
AcDbLinetypeTableRecord
  2
Amconstr
 70
     0
  3
_______________________
 72
    65
 73
     2
 40
9999.0
 49
9999.0
 74
     0
 49
0.0
 74
     0
  0
LTYPE
  5
26F
330
162
100
AcDbSymbolTableRecord
100
AcDbLinetypeTableRecord
  2
AM_ISO08W050x2
 70
     0
  3
__ . __ . __ . __ . __ . __
 72
    65
 73
     4
 40
9.0
 49
6.0
 74
     0
 49
-0.75
 74
     0
 49
1.5
 74
     0
 49
-0.75
 74
     0
  0
LTYPE
  5
270
330
162
100
AcDbSymbolTableRecord
100
AcDbLinetypeTableRecord
  2
AM_ISO02W050x2
 70
     0
  3
 _ _ _ _ _ _ _ _ _ _ _ _
 72
    65
 73
     2
 40
3.75
 49
3.0
 74
     0
 49
-0.75
 74
     0
  0
LTYPE
  5
273
330
162
100
AcDbSymbolTableRecord
100
AcDbLinetypeTableRecord
  2
Amzigzag
 70
     0
  3
/\/-/\/-/\/-/\/-/\/-/\/
 72
    65
 73
     2
 40
11.00009999999999
 49
0.0001
 74
     4
 75
   135
340
272
 46
0.04
 50
0.0
 44
0.0
 45
0.0
 49
-11.0
 74
     0
  0
LTYPE
  5
274
330
162
100
AcDbSymbolTableRecord
100
AcDbLinetypeTableRecord
  2
CENTER2
 70
     0
  3
Center (.5x) ___ _ ___ _ ___ _ ___ _ ___ _ ___
 72
    65
 73
     4
 40
1.125
 49
0.75
 74
     0
 49
-0.125
 74
     0
 49
0.125
 74
     0
 49
-0.125
 74
     0
  0
LTYPE
  5
275
330
162
100
AcDbSymbolTableRecord
100
AcDbLinetypeTableRecord
  2
HIDDEN2
 70
     0
  3
Hidden (.5x) _ _ _ _ _ _ _ _ _ _ _ _ _ _ _ _ _
 72
    65
 73
     2
 40
0.1875
 49
0.125
 74
     0
 49
-0.0625
 74
     0
  0
LTYPE
  5
276
330
162
100
AcDbSymbolTableRecord
100
AcDbLinetypeTableRecord
  2
Amzigzag2
 70
     0
  3
/\/-/\/-/\/-/\/-/\/-/\/
 72
    65
 73
     2
 40
0.4401
 49
0.0001
 74
     4
 75
   135
340
272
 46
0.0016
 50
0.0
 44
0.0
 45
0.0
 49
-0.4400000000000002
 74
     0
  0
LTYPE
  5
30E
330
162
100
AcDbSymbolTableRecord
100
AcDbLinetypeTableRecord
  2
TENSEN
 70
     0
  3

 72
    65
 73
     2
 40
4.0
 49
3.0
 74
     0
 49
-1.0
 74
     0
  0
LTYPE
  5
30F
330
162
100
AcDbSymbolTableRecord
100
AcDbLinetypeTableRecord
  2
ITTEN1
 70
     0
  3

 72
    65
 73
     4
 40
8.199999999999999
 49
5.0
 74
     0
 49
-1.0
 74
     0
 49
1.199999999999999
 74
     0
 49
-1.0
 74
     0
  0
LTYPE
  5
310
330
162
100
AcDbSymbolTableRecord
100
AcDbLinetypeTableRecord
  2
ACISOWELD
 70
     0
  3
_ _ _ _ _
 72
    65
 73
     2
 40
2.0
 49
2.0
 74
     0
 49
-1.0
 74
     0
  0
LTYPE
  5
311
330
162
100
AcDbSymbolTableRecord
100
AcDbLinetypeTableRecord
  2
ACISOTGB
 70
     0
  3
__ . . __ . .
 72
    65
 73
     6
 40
9.0
 49
4.0
 74
     0
 49
-1.0
 74
     0
 49
1.0
 74
     0
 49
-1.0
 74
     0
 49
1.0
 74
     0
 49
-1.0
 74
     0
  0
LTYPE
  5
312
330
162
100
AcDbSymbolTableRecord
100
AcDbLinetypeTableRecord
  2
ACISOTGL
 70
     0
  3
_ _ _ _ _
 72
    65
 73
     2
 40
3.0
 49
2.0
 74
     0
 49
-1.0
 74
     0
  0
ENDTAB
  0
TABLE
  2
LAYER
  5
15F
330
0
100
AcDbSymbolTable
 70
     8
  0
LAYER
  5
16B
330
15F
100
AcDbSymbolTableRecord
100
AcDbLayerTableRecord
  2
0
 70
     0
 62
     7
  6
CONTINUOUS
370
    -3
390
19D
  0
LAYER
  5
185
330
15F
100
AcDbSymbolTableRecord
100
AcDbLayerTableRecord
  2
1
 70
     0
 62
     1
  6
CENTER
370
    -3
390
19D
  0
LAYER
  5
186
330
15F
100
AcDbSymbolTableRecord
100
AcDbLayerTableRecord
  2
3
 70
     0
 62
     7
  6
CONTINUOUS
370
    -3
390
19D
  0
LAYER
  5
187
330
15F
100
AcDbSymbolTableRecord
100
AcDbLayerTableRecord
  2
4
 70
     0
 62
     4
  6
CONTINUOUS
370
    -3
390
19D
  0
LAYER
  5
188
330
15F
100
AcDbSymbolTableRecord
100
AcDbLayerTableRecord
  2
10
 70
     0
 62
     7
  6
CONTINUOUS
370
    -3
390
19D
  0
LAYER
  5
189
330
15F
100
AcDbSymbolTableRecord
100
AcDbLayerTableRecord
  2
11
 70
     0
 62
     7
  6
CONTINUOUS
370
    -3
390
19D
  0
LAYER
  5
18A
330
15F
100
AcDbSymbolTableRecord
100
AcDbLayerTableRecord
  2
2
 70
     0
 62
     7
  6
TENSEN1
370
    -3
390
19D
  0
LAYER
  5
313
330
15F
100
AcDbSymbolTableRecord
100
AcDbLayerTableRecord
  2
DEFPOINTS
 70
     0
 62
     7
  6
CONTINUOUS
290
     0
370
    -3
390
19D
  0
ENDTAB
  0
TABLE
  2
STYLE
  5
160
330
0
100
AcDbSymbolTable
 70
     7
  0
STYLE
  5
16C
330
160
100
AcDbSymbolTableRecord
100
AcDbTextStyleTableRecord
  2
STANDARD
 70
     0
 40
6.0
 41
1.0
 50
0.0
 71
     0
 42
0.2
  3
TXT.shx
  4
extfont.shx
  0
STYLE
  5
17C
330
160
100
AcDbSymbolTableRecord
100
AcDbTextStyleTableRecord
  2
K80
 70
     0
 40
0.0
 41
0.8
 50
0.0
 71
     0
 42
0.2
  3
TXT
  4
BIGFONT
  0
STYLE
  5
17D
330
160
100
AcDbSymbolTableRecord
100
AcDbTextStyleTableRecord
  2
07500
 70
     0
 40
0.0
 41
0.75
 50
0.0
 71
     0
 42
0.2
  3
TXT
  4
BIGFONT
  0
STYLE
  5
17E
330
160
100
AcDbSymbolTableRecord
100
AcDbTextStyleTableRecord
  2
BIGFONT
 70
     0
 40
11.0
 41
0.8
 50
0.0
 71
     0
 42
11.0
  3

  4
bigfont
  0
STYLE
  5
272
330
160
100
AcDbSymbolTableRecord
100
AcDbTextStyleTableRecord
  2

 70
     1
 40
0.0
 41
1.0
 50
0.0
 71
     0
 42
11.0
  3
ltypeshp.shx
  4

  0
STYLE
  5
314
330
160
100
AcDbSymbolTableRecord
100
AcDbTextStyleTableRecord
  2
ACISOTS
 70
     0
 40
1.0
 41
1.0
 50
0.0
 71
     0
 42
5.0
  3
isocp.shx
  4
extfont.shx
  0
STYLE
  5
315
330
160
100
AcDbSymbolTableRecord
100
AcDbTextStyleTableRecord
  2
ACISOGDT
 70
     0
 40
0.0
 41
1.0
 50
0.0
 71
     0
 42
5.0
  3
amgdt.shx
  4

  0
ENDTAB
  0
TABLE
  2
VIEW
  5
163
330
0
100
AcDbSymbolTable
 70
     1
  0
VIEW
  5
182
330
163
100
AcDbSymbolTableRecord
100
AcDbViewTableRecord
  2
ALL
 70
     0
 40
540.0
 10
441.9831929999999
 20
270.0
 41
0.0
 11
0.0
 21
0.0
 31
1.0
 12
0.0
 22
0.0
 32
0.0
 42
50.0
 43
0.0
 44
0.0
 50
0.0
 71
     0
281
     0
 72
     0
  0
ENDTAB
  0
TABLE
  2
UCS
  5
164
330
0
100
AcDbSymbolTable
 70
     0
  0
ENDTAB
  0
TABLE
  2
APPID
  5
166
330
0
100
AcDbSymbolTable
 70
    12
  0
APPID
  5
16D
330
166
100
AcDbSymbolTableRecord
100
AcDbRegAppTableRecord
  2
ACAD
 70
     0
  0
APPID
  5
1A6
330
166
100
AcDbSymbolTableRecord
100
AcDbRegAppTableRecord
  2
GENIUS_GENDIM_13
 70
     0
  0
APPID
  5
1A7
330
166
100
AcDbSymbolTableRecord
100
AcDbRegAppTableRecord
  2
GENIUS_GENDTOL_13
 70
     0
  0
APPID
  5
1A8
330
166
100
AcDbSymbolTableRecord
100
AcDbRegAppTableRecord
  2
GENIUS_GE3DTOL_13
 70
     0
  0
APPID
  5
1AA
330
166
100
AcDbSymbolTableRecord
100
AcDbRegAppTableRecord
  2
MCAD_NO_VIS
 70
     0
  0
APPID
  5
1AB
330
166
100
AcDbSymbolTableRecord
100
AcDbRegAppTableRecord
  2
ACAD_TEMP_GRAPHIC
 70
     0
  0
APPID
  5
1DC
330
166
100
AcDbSymbolTableRecord
100
AcDbRegAppTableRecord
  2
AD_DRAW
 70
     0
  0
APPID
  5
1DF
330
166
100
AcDbSymbolTableRecord
100
AcDbRegAppTableRecord
  2
ACATTRIBSERVICES
 70
     0
  0
APPID
  5
22B
330
166
100
AcDbSymbolTableRecord
100
AcDbRegAppTableRecord
  2
ASURF_PCURVE_APPNAME
 70
     0
  0
APPID
  5
25A
330
166
100
AcDbSymbolTableRecord
100
AcDbRegAppTableRecord
  2
DESIGNERASSEMBLIES
 70
     0
  0
APPID
  5
262
330
166
100
AcDbSymbolTableRecord
100
AcDbRegAppTableRecord
  2
ACADM_DIM_EDIT
 70
     0
  0
APPID
  5
263
330
166
100
AcDbSymbolTableRecord
100
AcDbRegAppTableRecord
  2
AMDT_DM_ADJ
 70
     0
  0
ENDTAB
  0
TABLE
  2
DIMSTYLE
  5
167
330
0
100
AcDbSymbolTable
 70
     8
100
AcDbDimStyleTable
 71
     1
340
184
  0
DIMSTYLE
105
184
330
167
100
AcDbSymbolTableRecord
100
AcDbDimStyleTableRecord
  2
STANDARD
 70
     0
340
17E
  0
DIMSTYLE
105
316
330
167
100
AcDbSymbolTableRecord
100
AcDbDimStyleTableRecord
  2
AM_ISO
 70
     0
  4
"
 41
2.5
 42
1.0
 43
10.0
 44
1.0
 47
0.1
 48
0.1
 73
     0
 74
     0
 77
     1
 78
     8
 79
     2
140
3.5
141
0.0
143
0.0393701
146
0.71
147
1.5
172
     1
176
   256
177
   256
178
     2
271
     2
272
     3
274
     4
283
     0
284
     8
340
16C
371
    -1
372
    -1
  0
DIMSTYLE
105
317
330
167
100
AcDbSymbolTableRecord
100
AcDbDimStyleTableRecord
  2
AM_ISO$3
 70
     0
  4
"
 41
2.5
 42
1.0
 43
10.0
 44
1.0
 47
0.1
 48
0.1
 73
     0
 77
     1
 78
     8
 79
     2
140
3.5
141
0.0
143
0.0393701
146
0.71
147
1.5
176
   256
177
   256
178
     2
271
     2
272
     3
274
     4
283
     0
284
     8
288
     1
289
     0
340
16C
371
    -1
372
    -1
  0
DIMSTYLE
105
318
330
167
100
AcDbSymbolTableRecord
100
AcDbDimStyleTableRecord
  2
AM_ISO$4
 70
     0
  4
"
 41
2.5
 42
1.0
 43
10.0
 44
1.0
 47
0.1
 48
0.1
 73
     0
 77
     1
 78
     8
 79
     2
140
3.5
141
0.0
143
0.0393701
146
0.71
147
1.5
176
   256
177
   256
178
     2
271
     2
272
     3
274
     4
283
     0
284
     8
288
     1
289
     0
340
16C
371
    -1
372
    -1
  0
DIMSTYLE
105
319
330
167
100
AcDbSymbolTableRecord
100
AcDbDimStyleTableRecord
  2
AM_ISO$6
 70
     0
  4
"
 41
2.5
 42
1.0
 43
10.0
 44
1.0
 47
0.1
 48
0.1
 73
     0
 74
     0
 78
     8
 79
     2
140
3.5
141
0.0
143
0.0393701
146
0.71
147
1.5
172
     1
176
   256
177
   256
178
     2
271
     2
272
     3
274
     4
283
     0
284
     8
340
16C
371
    -1
372
    -1
  0
DIMSTYLE
105
31A
330
167
100
AcDbSymbolTableRecord
100
AcDbDimStyleTableRecord
  2
AM_ISO$7
 70
     0
  4
"
 41
2.5
 42
1.0
 43
10.0
 44
1.0
 47
0.1
 48
0.1
 73
     0
 74
     0
 77
     1
 78
     8
 79
     2
140
5.0
141
0.0
143
0.0393701
146
0.71
147
1.5
172
     1
176
   256
177
   256
178
     2
271
     2
272
     3
274
     4
283
     0
284
     8
340
16C
371
    -1
372
    -1
  0
DIMSTYLE
105
31B
330
167
100
AcDbSymbolTableRecord
100
AcDbDimStyleTableRecord
  2
AM_ISO$SF
 70
     0
  4
"
 41
2.5
 42
1.0
 43
10.0
 44
1.0
 47
0.1
 48
0.1
 73
     0
 74
     0
 75
     1
 76
     1
 77
     1
 78
     8
 79
     2
140
3.5
141
0.0
143
0.0393701
146
0.71
147
1.5
172
     1
176
   256
177
   256
178
     2
271
     2
272
     3
274
     4
283
     0
284
     8
340
16C
371
    -1
372
    -1
  0
DIMSTYLE
105
31C
330
167
100
AcDbSymbolTableRecord
100
AcDbDimStyleTableRecord
  2
AM_ISO$SH
 70
     0
  4
"
 41
2.5
 42
1.0
 43
10.0
 44
1.0
 47
0.1
 48
0.1
 73
     0
 74
     0
 75
     1
 76
     1
 77
     1
 78
     8
 79
     2
140
3.5
141
0.0
143
0.0393701
144
2.0
146
0.71
147
1.5
172
     1
173
     1
176
   256
177
   256
178
     2
271
     2
272
     3
274
     4
283
     0
284
     8
340
16C
341
2DA
343
2DA
371
    -1
372
    -1
  0
ENDTAB
  0
TABLE
  2
BLOCK_RECORD
  5
15E
330
0
100
AcDbSymbolTable
 70
    26
  0
BLOCK_RECORD
  5
174
102
{ACAD_XDICTIONARY
360
584
102
}
330
15E
100
AcDbSymbolTableRecord
100
AcDbBlockTableRecord
  2
*MODEL_SPACE
340
1A0
  0
BLOCK_RECORD
  5
171
330
15E
100
AcDbSymbolTableRecord
100
AcDbBlockTableRecord
  2
*PAPER_SPACE
340
1A1
  0
BLOCK_RECORD
  5
179
330
15E
100
AcDbSymbolTableRecord
100
AcDbBlockTableRecord
  2
WAKU
340
0
  0
BLOCK_RECORD
  5
17A
330
15E
100
AcDbSymbolTableRecord
100
AcDbBlockTableRecord
  2
Z
340
0
  0
BLOCK_RECORD
  5
17B
330
15E
100
AcDbSymbolTableRecord
100
AcDbBlockTableRecord
  2
QQ
340
0
  0
BLOCK_RECORD
  5
251
330
15E
100
AcDbSymbolTableRecord
100
AcDbBlockTableRecord
  2
*U3
340
0
  0
BLOCK_RECORD
  5
28F
330
15E
100
AcDbSymbolTableRecord
100
AcDbBlockTableRecord
  2
*D4
340
0
  0
BLOCK_RECORD
  5
29B
330
15E
100
AcDbSymbolTableRecord
100
AcDbBlockTableRecord
  2
*D5
340
0
  0
BLOCK_RECORD
  5
2A6
330
15E
100
AcDbSymbolTableRecord
100
AcDbBlockTableRecord
  2
*D6
340
0
  0
BLOCK_RECORD
  5
2B3
330
15E
100
AcDbSymbolTableRecord
100
AcDbBlockTableRecord
  2
*D7
340
0
  0
BLOCK_RECORD
  5
2C0
330
15E
100
AcDbSymbolTableRecord
100
AcDbBlockTableRecord
  2
*D8
340
0
  0
BLOCK_RECORD
  5
2CD
330
15E
100
AcDbSymbolTableRecord
100
AcDbBlockTableRecord
  2
*D9
340
0
  0
BLOCK_RECORD
  5
2DA
330
15E
100
AcDbSymbolTableRecord
100
AcDbBlockTableRecord
  2
GENAXEH
340
0
  0
BLOCK_RECORD
  5
2DE
330
15E
100
AcDbSymbolTableRecord
100
AcDbBlockTableRecord
  2
*D11
340
0
  0
BLOCK_RECORD
  5
2E7
330
15E
100
AcDbSymbolTableRecord
100
AcDbBlockTableRecord
  2
*D12
340
0
  0
BLOCK_RECORD
  5
2F4
330
15E
100
AcDbSymbolTableRecord
100
AcDbBlockTableRecord
  2
*D13
340
0
  0
BLOCK_RECORD
  5
301
330
15E
100
AcDbSymbolTableRecord
100
AcDbBlockTableRecord
  2
*D14
340
0
  0
BLOCK_RECORD
  5
457
330
15E
100
AcDbSymbolTableRecord
100
AcDbBlockTableRecord
  2
*D15
340
0
  0
BLOCK_RECORD
  5
464
330
15E
100
AcDbSymbolTableRecord
100
AcDbBlockTableRecord
  2
*D16
340
0
  0
BLOCK_RECORD
  5
46D
330
15E
100
AcDbSymbolTableRecord
100
AcDbBlockTableRecord
  2
*D17
340
0
  0
BLOCK_RECORD
  5
47A
330
15E
100
AcDbSymbolTableRecord
100
AcDbBlockTableRecord
  2
*D18
340
0
  0
BLOCK_RECORD
  5
487
330
15E
100
AcDbSymbolTableRecord
100
AcDbBlockTableRecord
  2
*D19
340
0
  0
BLOCK_RECORD
  5
493
330
15E
100
AcDbSymbolTableRecord
100
AcDbBlockTableRecord
  2
*D20
340
0
  0
BLOCK_RECORD
  5
49F
330
15E
100
AcDbSymbolTableRecord
100
AcDbBlockTableRecord
  2
*D21
340
0
  0
BLOCK_RECORD
  5
4AC
330
15E
100
AcDbSymbolTableRecord
100
AcDbBlockTableRecord
  2
*D22
340
0
  0
BLOCK_RECORD
  5
4B8
330
15E
100
AcDbSymbolTableRecord
100
AcDbBlockTableRecord
  2
*D23
340
0
  0
BLOCK_RECORD
  5
4C4
330
15E
100
AcDbSymbolTableRecord
100
AcDbBlockTableRecord
  2
*D24
340
0
  0
BLOCK_RECORD
  5
640
330
15E
100
AcDbSymbolTableRecord
100
AcDbBlockTableRecord
  2
*U25
340
0
  0
ENDTAB
  0
ENDSEC
  0
SECTION
  2
BLOCKS
  0
BLOCK
  5
18D
330
174
100
AcDbEntity
  8
0
100
AcDbBlockBegin
  2
*MODEL_SPACE
 70
     0
 10
0.0
 20
0.0
 30
0.0
  3
*MODEL_SPACE
  1

  0
ENDBLK
  5
18E
330
174
100
AcDbEntity
  8
0
100
AcDbBlockEnd
  0
BLOCK
  5
18B
330
171
100
AcDbEntity
 67
     1
  8
0
100
AcDbBlockBegin
  2
*PAPER_SPACE
 70
     0
 10
0.0
 20
0.0
 30
0.0
  3
*PAPER_SPACE
  1

  0
ENDBLK
  5
18C
330
171
100
AcDbEntity
 67
     1
  8
0
100
AcDbBlockEnd
  0
BLOCK
  5
32
330
179
100
AcDbEntity
  8
0
100
AcDbBlockBegin
  2
WAKU
 70
     0
 10
549.0
 20
0.0
 30
0.0
  3
WAKU
  1

  0
LINE
  5
33
330
179
100
AcDbEntity
  8
11
100
AcDbLine
 10
452.0
 20
12.0
 30
0.0
 11
549.0
 21
12.0
 31
0.0
  0
LINE
  5
34
330
179
100
AcDbEntity
  8
11
100
AcDbLine
 10
477.0
 20
0.0
 30
0.0
 11
477.0
 21
12.0
 31
0.0
  0
LINE
  5
35
330
179
100
AcDbEntity
  8
11
100
AcDbLine
 10
452.0
 20
12.0
 30
0.0
 11
452.0
 21
0.0
 31
0.0
  0
TEXT
  5
36
330
179
100
AcDbEntity
  8
11
100
AcDbText
 10
454.0
 20
8.5
 30
0.0
 40
2.5
  1
尺度
100
AcDbText
  0
TEXT
  5
37
330
179
100
AcDbEntity
  8
11
100
AcDbText
 10
479.0
 20
8.5
 30
0.0
 40
2.5
  1
図番
100
AcDbText
  0
ENDBLK
  5
38
330
179
100
AcDbEntity
  8
0
100
AcDbBlockEnd
  0
BLOCK
  5
39
330
17A
100
AcDbEntity
  8
0
100
AcDbBlockBegin
  2
Z
 70
     0
 10
471.877011
 20
142.966177
 30
0.0
  3
Z
  1

  0
TEXT
  5
3A
330
17A
100
AcDbEntity
  8
0
100
AcDbText
 10
478.7666883333331
 20
145.692659
 30
0.0
 40
5.5
  1
０
 50
360.0
 41
0.8
  7
K80
 72
     1
 11
480.6733549999998
 21
145.692659
 31
0.0
100
AcDbText
  0
LINE
  5
3B
330
17A
100
AcDbEntity
  8
0
100
AcDbLine
 10
465.626991
 20
148.466177
 30
0.0
 11
468.126991
 21
148.466177
 31
0.0
  0
TEXT
  5
3C
330
17A
100
AcDbEntity
  8
0
100
AcDbText
 10
473.6515386666665
 20
145.7270199999999
 30
0.0
 40
5.5
  1
４
 50
360.0
 41
0.8
  7
K80
 72
     1
 11
475.7048719999998
 21
145.7270199999999
 31
0.0
100
AcDbText
  0
TEXT
  5
3D
330
17A
100
AcDbEntity
  8
0
100
AcDbText
 10
460.8752049999998
 20
145.213821
 30
0.0
 40
6.0
  1
Ｖ
 50
360.0
 41
0.8
  7
K80
 72
     1
 11
463.1152049999998
 21
145.213821
 31
0.0
100
AcDbText
  0
TEXT
  5
3E
330
17A
100
AcDbEntity
  8
0
100
AcDbText
 10
468.9168973333331
 20
145.7470909999998
 30
0.0
 40
5.5
  1
１
 50
360.0
 41
0.8
  7
K80
 72
     1
 11
470.8235639999998
 21
145.7470909999998
 31
0.0
100
AcDbText
  0
ENDBLK
  5
3F
330
17A
100
AcDbEntity
  8
0
100
AcDbBlockEnd
  0
BLOCK
  5
40
330
17B
100
AcDbEntity
  8
0
100
AcDbBlockBegin
  2
QQ
 70
     0
 10
270.0
 20
0.0
 30
0.0
  3
QQ
  1

  0
LINE
  5
41
330
17B
100
AcDbEntity
  8
11
100
AcDbLine
 10
173.0
 20
36.0
 30
0.0
 11
270.0
 21
36.0
 31
0.0
  0
TEXT
  5
42
330
17B
100
AcDbEntity
  8
11
100
AcDbText
 10
175.0
 20
32.5
 30
0.0
 40
2.5
  1
部品名称
100
AcDbText
  0
LINE
  5
43
330
17B
100
AcDbEntity
  8
11
100
AcDbLine
 10
173.0
 20
36.0
 30
0.0
 11
173.0
 21
0.0
 31
0.0
  0
LINE
  5
44
330
17B
100
AcDbEntity
  8
11
100
AcDbLine
 10
173.0
 20
24.0
 30
0.0
 11
270.0
 21
24.0
 31
0.0
  0
TEXT
  5
45
330
17B
100
AcDbEntity
  8
11
100
AcDbText
 10
175.0
 20
20.5
 30
0.0
 40
2.5
  1
品番
100
AcDbText
  0
LINE
  5
46
330
17B
100
AcDbEntity
  8
11
100
AcDbLine
 10
173.0
 20
12.0
 30
0.0
 11
270.0
 21
12.0
 31
0.0
  0
TEXT
  5
47
330
17B
100
AcDbEntity
  8
11
100
AcDbText
 10
175.0
 20
8.5
 30
0.0
 40
2.5
  1
尺度
100
AcDbText
  0
TEXT
  5
48
330
17B
100
AcDbEntity
  8
11
100
AcDbText
 10
200.0
 20
8.5
 30
0.0
 40
2.5
  1
図番
100
AcDbText
  0
LINE
  5
49
330
17B
100
AcDbEntity
  8
11
100
AcDbLine
 10
198.0
 20
0.0
 30
0.0
 11
198.0
 21
12.0
 31
0.0
  0
ENDBLK
  5
4A
330
17B
100
AcDbEntity
  8
0
100
AcDbBlockEnd
  0
BLOCK
  5
252
330
251
100
AcDbEntity
  8
0
100
AcDbBlockBegin
  2
*U3
 70
     1
 10
0.0
 20
0.0
 30
0.0
  3
*U3
  1

  0
ENDBLK
  5
253
330
251
100
AcDbEntity
  8
0
100
AcDbBlockEnd
  0
BLOCK
  5
299
330
28F
100
AcDbEntity
  8
0
100
AcDbBlockBegin
  2
*D4
 70
     1
 10
0.0
 20
0.0
 30
0.0
  3
*D4
  1

  0
LINE
  5
290
330
28F
100
AcDbEntity
  8
0
  6
ByBlock
 62
     0
100
AcDbLine
 10
335.6786651336221
 20
162.5157910433729
 30
0.0
 11
357.9271609783972
 21
162.5157910433729
 31
0.0
  0
LINE
  5
291
330
28F
100
AcDbEntity
  8
0
  6
ByBlock
 62
     0
100
AcDbLine
 10
335.6786651336221
 20
127.5157910433728
 30
0.0
 11
357.9271609783972
 21
127.5157910433728
 31
0.0
  0
LINE
  5
292
330
28F
100
AcDbEntity
  8
0
  6
ByBlock
 62
     0
100
AcDbLine
 10
356.9271609783973
 20
160.5157910433729
 30
0.0
 11
356.9271609783973
 21
129.5157910433728
 31
0.0
  0
SOLID
  5
293
330
28F
100
AcDbEntity
  8
0
  6
ByBlock
 62
     0
100
AcDbTrace
 10
356.5938276450638
 20
160.5157910433729
 30
0.0
 11
357.2604943117306
 21
160.5157910433729
 31
0.0
 12
356.9271609783973
 22
162.5157910433729
 32
0.0
 13
356.9271609783973
 23
162.5157910433729
 33
0.0
  0
SOLID
  5
294
330
28F
100
AcDbEntity
  8
0
  6
ByBlock
 62
     0
100
AcDbTrace
 10
356.5938276450638
 20
129.5157910433728
 30
0.0
 11
357.2604943117306
 21
129.5157910433728
 31
0.0
 12
356.9271609783973
 22
127.5157910433728
 32
0.0
 13
356.9271609783973
 23
127.5157910433728
 33
0.0
  0
MTEXT
  5
295
330
28F
100
AcDbEntity
  8
0
  6
ByBlock
 62
     0
100
AcDbMText
 10
354.3021609783973
 20
144.15055883215
 30
0.0
 40
4.0
 41
0.0
 71
     5
 72
     1
  1
\A1;35
 11
0.0000000000000001
 21
1.0
 31
0.0
 73
     1
 44
1.0
  0
POINT
  5
296
330
28F
100
AcDbEntity
  8
DEFPOINTS
  6
ByBlock
 62
     0
100
AcDbPoint
 10
333.6786651336221
 20
162.5157910433729
 30
0.0
  0
POINT
  5
297
330
28F
100
AcDbEntity
  8
DEFPOINTS
  6
ByBlock
 62
     0
100
AcDbPoint
 10
333.6786651336221
 20
127.5157910433728
 30
0.0
  0
POINT
  5
298
330
28F
100
AcDbEntity
  8
DEFPOINTS
  6
ByBlock
 62
     0
100
AcDbPoint
 10
356.9271609783973
 20
127.5157910433728
 30
0.0
  0
ENDBLK
  5
29A
330
28F
100
AcDbEntity
  8
0
100
AcDbBlockEnd
  0
BLOCK
  5
2A4
330
29B
100
AcDbEntity
  8
0
100
AcDbBlockBegin
  2
*D5
 70
     1
 10
0.0
 20
0.0
 30
0.0
  3
*D5
  1

  0
LINE
  5
29C
330
29B
100
AcDbEntity
  8
0
  6
ByBlock
 62
     0
100
AcDbLine
 10
356.7411869161129
 20
179.1901207599169
 30
0.0
 11
347.9845202494468
 21
179.1901207599168
 31
0.0
  0
LINE
  5
29D
330
29B
100
AcDbEntity
  8
0
  6
ByBlock
 62
     0
100
AcDbLine
 10
347.9845202494468
 20
179.1901207599168
 30
0.0
 11
334.8949321168805
 21
162.103460601384
 31
0.0
  0
MTEXT
  5
29E
330
29B
100
AcDbEntity
  8
0
  6
ByBlock
 62
     0
100
AcDbMText
 10
353.4078535827796
 20
181.8151207599169
 30
0.0
 40
4.0
 41
0.0
 71
     5
 72
     1
  1
\A1;R2
 73
     1
 44
1.0
  0
SOLID
  5
29F
330
29B
100
AcDbEntity
  8
0
  6
ByBlock
 62
     0
100
AcDbTrace
 10
335.8465875071369
 20
163.8938413232716
 30
0.0
 11
336.3758106931407
 21
163.4884189955189
 31
0.0
 12
334.8949321168805
 22
162.103460601384
 32
0.0
 13
334.8949321168805
 23
162.103460601384
 33
0.0
  0
LINE
  5
2A0
330
29B
100
AcDbEntity
  8
0
  6
ByBlock
 62
     0
100
AcDbLine
 10
331.1786651336221
 20
160.5157910433729
 30
0.0
 11
336.1786651336221
 21
160.5157910433729
 31
0.0
  0
LINE
  5
2A1
330
29B
100
AcDbEntity
  8
0
  6
ByBlock
 62
     0
100
AcDbLine
 10
333.6786651336221
 20
158.0157910433729
 30
0.0
 11
333.6786651336221
 21
163.0157910433728
 31
0.0
  0
POINT
  5
2A2
330
29B
100
AcDbEntity
  8
DEFPOINTS
  6
ByBlock
 62
     0
100
AcDbPoint
 10
334.8949321168805
 20
162.103460601384
 30
0.0
  0
POINT
  5
2A3
330
29B
100
AcDbEntity
  8
DEFPOINTS
  6
ByBlock
 62
     0
100
AcDbPoint
 10
333.6786651336221
 20
160.5157910433729
 30
0.0
  0
ENDBLK
  5
2A5
330
29B
100
AcDbEntity
  8
0
100
AcDbBlockEnd
  0
BLOCK
  5
2B1
330
2A6
100
AcDbEntity
  8
0
100
AcDbBlockBegin
  2
*D6
 70
     1
 10
0.0
 20
0.0
 30
0.0
  3
*D6
  1

  0
LINE
  5
2A7
330
2A6
100
AcDbEntity
  8
0
  6
ByBlock
 62
     0
100
AcDbLine
 10
265.6174409502003
 20
215.0157910433729
 30
0.0
 11
225.0881798168484
 21
215.0157910433729
 31
0.0
  0
LINE
  5
2A8
330
2A6
100
AcDbEntity
  8
0
  6
ByBlock
 62
     0
100
AcDbLine
 10
265.6174409502002
 20
75.01579104337294
 30
0.0
 11
225.0881798168484
 21
75.01579104337294
 31
0.0
  0
LINE
  5
2A9
330
2A6
100
AcDbEntity
  8
0
  6
ByBlock
 62
     0
100
AcDbLine
 10
226.0881798168484
 20
213.0157910433729
 30
0.0
 11
226.0881798168484
 21
150.1837046400732
 31
0.0
  0
LINE
  5
2AA
330
2A6
100
AcDbEntity
  8
0
  6
ByBlock
 62
     0
100
AcDbLine
 10
226.0881798168484
 20
77.01579104337294
 30
0.0
 11
226.0881798168484
 21
140.2670379734064
 31
0.0
  0
SOLID
  5
2AB
330
2A6
100
AcDbEntity
  8
0
  6
ByBlock
 62
     0
100
AcDbTrace
 10
225.754846483515
 20
213.0157910433729
 30
0.0
 11
226.4215131501817
 21
213.0157910433729
 31
0.0
 12
226.0881798168484
 22
215.0157910433729
 32
0.0
 13
226.0881798168484
 23
215.0157910433729
 33
0.0
  0
SOLID
  5
2AC
330
2A6
100
AcDbEntity
  8
0
  6
ByBlock
 62
     0
100
AcDbTrace
 10
225.754846483515
 20
77.01579104337294
 30
0.0
 11
226.4215131501817
 21
77.01579104337294
 31
0.0
 12
226.0881798168484
 22
75.01579104337294
 32
0.0
 13
226.0881798168484
 23
75.01579104337294
 33
0.0
  0
MTEXT
  5
2AD
330
2A6
100
AcDbEntity
  8
0
  6
ByBlock
 62
     0
100
AcDbMText
 10
226.0881798168484
 20
145.2253713067399
 30
0.0
 40
4.0
 41
0.0
 71
     5
 72
     1
  1
\A1;140
 11
0.0000000000000001
 21
1.0
 31
0.0
 73
     1
 44
1.0
  0
POINT
  5
2AE
330
2A6
100
AcDbEntity
  8
DEFPOINTS
  6
ByBlock
 62
     0
100
AcDbPoint
 10
266.6174409502003
 20
215.0157910433729
 30
0.0
  0
POINT
  5
2AF
330
2A6
100
AcDbEntity
  8
DEFPOINTS
  6
ByBlock
 62
     0
100
AcDbPoint
 10
266.6174409502001
 20
75.01579104337294
 30
0.0
  0
POINT
  5
2B0
330
2A6
100
AcDbEntity
  8
DEFPOINTS
  6
ByBlock
 62
     0
100
AcDbPoint
 10
226.0881798168484
 20
75.01579104337294
 30
0.0
  0
ENDBLK
  5
2B2
330
2A6
100
AcDbEntity
  8
0
100
AcDbBlockEnd
  0
BLOCK
  5
2BE
330
2B3
100
AcDbEntity
  8
0
100
AcDbBlockBegin
  2
*D7
 70
     1
 10
0.0
 20
0.0
 30
0.0
  3
*D7
  1

  0
LINE
  5
2B4
330
2B3
100
AcDbEntity
  8
0
  6
ByBlock
 62
     0
100
AcDbLine
 10
275.1174409502
 20
127.2657910433764
 30
0.0
 11
275.1174409502
 21
65.1985111900497
 31
0.0
  0
LINE
  5
2B5
330
2B3
100
AcDbEntity
  8
0
  6
ByBlock
 62
     0
100
AcDbLine
 10
305.117440950201
 20
128.5157910433728
 30
0.0
 11
305.117440950201
 21
65.1985111900497
 31
0.0
  0
LINE
  5
2B6
330
2B3
100
AcDbEntity
  8
0
  6
ByBlock
 62
     0
100
AcDbLine
 10
277.1174409502001
 20
66.1985111900497
 30
0.0
 11
286.8994961800225
 21
66.1985111900497
 31
0.0
  0
LINE
  5
2B7
330
2B3
100
AcDbEntity
  8
0
  6
ByBlock
 62
     0
100
AcDbLine
 10
303.117440950201
 20
66.1985111900497
 30
0.0
 11
294.1494961800224
 21
66.1985111900497
 31
0.0
  0
SOLID
  5
2B8
330
2B3
100
AcDbEntity
  8
0
  6
ByBlock
 62
     0
100
AcDbTrace
 10
277.1174409502001
 20
66.53184452338303
 30
0.0
 11
277.1174409502001
 21
65.86517785671637
 31
0.0
 12
275.1174409502
 22
66.1985111900497
 32
0.0
 13
275.1174409502
 23
66.1985111900497
 33
0.0
  0
SOLID
  5
2B9
330
2B3
100
AcDbEntity
  8
0
  6
ByBlock
 62
     0
100
AcDbTrace
 10
303.117440950201
 20
66.53184452338303
 30
0.0
 11
303.117440950201
 21
65.86517785671637
 31
0.0
 12
305.117440950201
 22
66.1985111900497
 32
0.0
 13
305.117440950201
 23
66.1985111900497
 33
0.0
  0
MTEXT
  5
2BA
330
2B3
100
AcDbEntity
  8
0
  6
ByBlock
 62
     0
100
AcDbMText
 10
290.5244961800224
 20
66.1985111900497
 30
0.0
 40
4.0
 41
0.0
 71
     5
 72
     1
  1
\A1;30
 73
     1
 44
1.0
  0
POINT
  5
2BB
330
2B3
100
AcDbEntity
  8
DEFPOINTS
  6
ByBlock
 62
     0
100
AcDbPoint
 10
275.1174409502
 20
128.2657910433764
 30
0.0
  0
POINT
  5
2BC
330
2B3
100
AcDbEntity
  8
DEFPOINTS
  6
ByBlock
 62
     0
100
AcDbPoint
 10
305.117440950201
 20
129.5157910433728
 30
0.0
  0
POINT
  5
2BD
330
2B3
100
AcDbEntity
  8
DEFPOINTS
  6
ByBlock
 62
     0
100
AcDbPoint
 10
305.117440950201
 20
66.1985111900497
 30
0.0
  0
ENDBLK
  5
2BF
330
2B3
100
AcDbEntity
  8
0
100
AcDbBlockEnd
  0
BLOCK
  5
2CB
330
2C0
100
AcDbEntity
  8
0
100
AcDbBlockBegin
  2
*D8
 70
     1
 10
0.0
 20
0.0
 30
0.0
  3
*D8
  1

  0
LINE
  5
2C1
330
2C0
100
AcDbEntity
  8
0
  6
ByBlock
 62
     0
100
AcDbLine
 10
275.1174409502
 20
207.5157910433726
 30
0.0
 11
275.1174409502
 21
231.1332999666324
 31
0.0
  0
LINE
  5
2C2
330
2C0
100
AcDbEntity
  8
0
  6
ByBlock
 62
     0
100
AcDbLine
 10
290.117440950201
 20
165.0157910433728
 30
0.0
 11
290.117440950201
 21
231.1332999666324
 31
0.0
  0
LINE
  5
2C3
330
2C0
100
AcDbEntity
  8
0
  6
ByBlock
 62
     0
100
AcDbLine
 10
277.1174409502001
 20
230.1332999666324
 30
0.0
 11
280.236886482305
 21
230.1332999666324
 31
0.0
  0
LINE
  5
2C4
330
2C0
100
AcDbEntity
  8
0
  6
ByBlock
 62
     0
100
AcDbLine
 10
288.117440950201
 20
230.1332999666324
 30
0.0
 11
286.8202198156383
 21
230.1332999666324
 31
0.0
  0
SOLID
  5
2C5
330
2C0
100
AcDbEntity
  8
0
  6
ByBlock
 62
     0
100
AcDbTrace
 10
277.1174409502001
 20
230.4666332999658
 30
0.0
 11
277.1174409502001
 21
229.799966633299
 31
0.0
 12
275.1174409502
 22
230.1332999666324
 32
0.0
 13
275.1174409502
 23
230.1332999666324
 33
0.0
  0
SOLID
  5
2C6
330
2C0
100
AcDbEntity
  8
0
  6
ByBlock
 62
     0
100
AcDbTrace
 10
288.117440950201
 20
230.4666332999658
 30
0.0
 11
288.117440950201
 21
229.799966633299
 31
0.0
 12
290.117440950201
 22
230.1332999666324
 32
0.0
 13
290.117440950201
 23
230.1332999666324
 33
0.0
  0
MTEXT
  5
2C7
330
2C0
100
AcDbEntity
  8
0
  6
ByBlock
 62
     0
100
AcDbMText
 10
283.5285531489716
 20
230.1332999666324
 30
0.0
 40
4.0
 41
0.0
 71
     5
 72
     1
  1
\A1;15
 73
     1
 44
1.0
  0
POINT
  5
2C8
330
2C0
100
AcDbEntity
  8
DEFPOINTS
  6
ByBlock
 62
     0
100
AcDbPoint
 10
275.1174409502
 20
206.5157910433727
 30
0.0
  0
POINT
  5
2C9
330
2C0
100
AcDbEntity
  8
DEFPOINTS
  6
ByBlock
 62
     0
100
AcDbPoint
 10
290.117440950201
 20
164.0157910433728
 30
0.0
  0
POINT
  5
2CA
330
2C0
100
AcDbEntity
  8
DEFPOINTS
  6
ByBlock
 62
     0
100
AcDbPoint
 10
290.117440950201
 20
230.1332999666324
 30
0.0
  0
ENDBLK
  5
2CC
330
2C0
100
AcDbEntity
  8
0
100
AcDbBlockEnd
  0
BLOCK
  5
2D8
330
2CD
100
AcDbEntity
  8
0
100
AcDbBlockBegin
  2
*D9
 70
     1
 10
0.0
 20
0.0
 30
0.0
  3
*D9
  1

  0
LINE
  5
2CE
330
2CD
100
AcDbEntity
  8
0
  6
ByBlock
 62
     0
100
AcDbLine
 10
290.117440950201
 20
165.0157910433728
 30
0.0
 11
290.117440950201
 21
217.1657618282135
 31
0.0
  0
LINE
  5
2CF
330
2CD
100
AcDbEntity
  8
0
  6
ByBlock
 62
     0
100
AcDbLine
 10
305.117440950201
 20
161.5157910433729
 30
0.0
 11
305.117440950201
 21
217.1657618282135
 31
0.0
  0
LINE
  5
2D0
330
2CD
100
AcDbEntity
  8
0
  6
ByBlock
 62
     0
100
AcDbLine
 10
292.117440950201
 20
216.1657618282136
 30
0.0
 11
294.5969795827929
 21
216.1657618282136
 31
0.0
  0
LINE
  5
2D1
330
2CD
100
AcDbEntity
  8
0
  6
ByBlock
 62
     0
100
AcDbLine
 10
303.117440950201
 20
216.1657618282136
 30
0.0
 11
301.1803129161263
 21
216.1657618282136
 31
0.0
  0
SOLID
  5
2D2
330
2CD
100
AcDbEntity
  8
0
  6
ByBlock
 62
     0
100
AcDbTrace
 10
292.117440950201
 20
216.4990951615469
 30
0.0
 11
292.117440950201
 21
215.8324284948803
 31
0.0
 12
290.117440950201
 22
216.1657618282136
 32
0.0
 13
290.117440950201
 23
216.1657618282136
 33
0.0
  0
SOLID
  5
2D3
330
2CD
100
AcDbEntity
  8
0
  6
ByBlock
 62
     0
100
AcDbTrace
 10
303.117440950201
 20
216.4990951615469
 30
0.0
 11
303.117440950201
 21
215.8324284948803
 31
0.0
 12
305.117440950201
 22
216.1657618282136
 32
0.0
 13
305.117440950201
 23
216.1657618282136
 33
0.0
  0
MTEXT
  5
2D4
330
2CD
100
AcDbEntity
  8
0
  6
ByBlock
 62
     0
100
AcDbMText
 10
297.8886462494596
 20
216.1657618282136
 30
0.0
 40
4.0
 41
0.0
 71
     5
 72
     1
  1
\A1;15
 73
     1
 44
1.0
  0
POINT
  5
2D5
330
2CD
100
AcDbEntity
  8
DEFPOINTS
  6
ByBlock
 62
     0
100
AcDbPoint
 10
290.117440950201
 20
164.0157910433728
 30
0.0
  0
POINT
  5
2D6
330
2CD
100
AcDbEntity
  8
DEFPOINTS
  6
ByBlock
 62
     0
100
AcDbPoint
 10
305.117440950201
 20
160.5157910433729
 30
0.0
  0
POINT
  5
2D7
330
2CD
100
AcDbEntity
  8
DEFPOINTS
  6
ByBlock
 62
     0
100
AcDbPoint
 10
305.117440950201
 20
216.1657618282136
 30
0.0
  0
ENDBLK
  5
2D9
330
2CD
100
AcDbEntity
  8
0
100
AcDbBlockEnd
  0
BLOCK
  5
2DC
330
2DA
100
AcDbEntity
  8
0
100
AcDbBlockBegin
  2
GENAXEH
 70
     0
 10
0.0
 20
0.0
 30
0.0
  3
GENAXEH
  1

  0
LINE
  5
2DB
330
2DA
100
AcDbEntity
  8
0
100
AcDbLine
 10
-1.0
 20
0.0
 30
0.0
 11
1.0
 21
0.0
 31
0.0
  0
ENDBLK
  5
2DD
330
2DA
100
AcDbEntity
  8
0
100
AcDbBlockEnd
  0
BLOCK
  5
2E5
330
2DE
100
AcDbEntity
  8
0
100
AcDbBlockBegin
  2
*D11
 70
     1
 10
0.0
 20
0.0
 30
0.0
  3
*D11
  1

  0
LINE
  5
2DF
330
2DE
100
AcDbEntity
  8
0
 62
     0
370
    -2
100
AcDbLine
 10
94.73786716614151
 20
206.7160865083364
 30
0.0
 11
96.73786716614156
 21
206.7160865083364
 31
0.0
  0
LINE
  5
2E0
330
2DE
100
AcDbEntity
  8
0
 62
     0
370
    -2
100
AcDbLine
 10
96.73786716614156
 20
206.7160865083364
 30
0.0
 11
114.8661513665443
 21
188.0705174696246
 31
0.0
  0
MTEXT
  5
2E1
330
2DE
100
AcDbEntity
  8
0
 62
     0
100
AcDbMText
 10
87.77953383280815
 20
206.7160865083364
 30
0.0
 40
4.0
 41
0.0
 71
     5
 72
     1
  1
\A1;\U+220510.1
 73
     1
 44
1.0
  0
SOLID
  5
2E2
330
2DE
100
AcDbEntity
  8
0
 62
     0
100
AcDbTrace
 10
115.1051455238139
 20
188.3028812015238
 30
0.0
 11
114.6271572092747
 21
187.8381537377254
 31
0.0
 12
116.2603337579394
 22
186.6365525260071
 32
0.0
 13
116.2603337579394
 23
186.6365525260071
 33
0.0
  0
POINT
  5
2E3
330
2DE
100
AcDbEntity
  8
DEFPOINTS
 62
     0
100
AcDbPoint
 10
116.2603337579394
 20
186.6365525260071
 30
0.0
  0
POINT
  5
2E4
330
2DE
100
AcDbEntity
  8
DEFPOINTS
 62
     0
100
AcDbPoint
 10
123.3009548344843
 20
179.3950295607388
 30
0.0
  0
ENDBLK
  5
2E6
330
2DE
100
AcDbEntity
  8
0
100
AcDbBlockEnd
  0
BLOCK
  5
2F2
330
2E7
100
AcDbEntity
  8
0
100
AcDbBlockBegin
  2
*D12
 70
     1
 10
0.0
 20
0.0
 30
0.0
  3
*D12
  1

  0
LINE
  5
2E8
330
2E7
100
AcDbEntity
  8
0
 62
     0
370
    -2
100
AcDbLine
 10
248.1174409502
 20
187.5157910433729
 30
0.0
 11
248.1174409502
 21
207.5539163253984
 31
0.0
  0
LINE
  5
2E9
330
2E7
100
AcDbEntity
  8
0
 62
     0
370
    -2
100
AcDbLine
 10
250.1174409502
 20
189.0657910433729
 30
0.0
 11
250.1174409502
 21
207.5539163253984
 31
0.0
  0
LINE
  5
2EA
330
2E7
100
AcDbEntity
  8
0
 62
     0
370
    -2
100
AcDbLine
 10
246.1174409502
 20
206.5539163253983
 30
0.0
 11
244.1174409502
 21
206.5539163253983
 31
0.0
  0
LINE
  5
2EB
330
2E7
100
AcDbEntity
  8
0
 62
     0
370
    -2
100
AcDbLine
 10
252.1174409502001
 20
206.5539163253983
 30
0.0
 11
254.1174409502001
 21
206.5539163253983
 31
0.0
  0
SOLID
  5
2EC
330
2E7
100
AcDbEntity
  8
0
 62
     0
100
AcDbTrace
 10
246.1174409502
 20
206.8872496587318
 30
0.0
 11
246.1174409502
 21
206.220582992065
 31
0.0
 12
248.1174409502
 22
206.5539163253983
 32
0.0
 13
248.1174409502
 23
206.5539163253983
 33
0.0
  0
SOLID
  5
2ED
330
2E7
100
AcDbEntity
  8
0
 62
     0
100
AcDbTrace
 10
252.1174409502001
 20
206.8872496587318
 30
0.0
 11
252.1174409502001
 21
206.220582992065
 31
0.0
 12
250.1174409502
 22
206.5539163253983
 32
0.0
 13
250.1174409502
 23
206.5539163253983
 33
0.0
  0
MTEXT
  5
2EE
330
2E7
100
AcDbEntity
  8
0
 62
     0
100
AcDbMText
 10
256.0757742835334
 20
206.5539163253983
 30
0.0
 40
4.0
 41
0.0
 71
     5
 72
     1
  1
\A1;2
 73
     1
 44
1.0
  0
POINT
  5
2EF
330
2E7
100
AcDbEntity
  8
DEFPOINTS
 62
     0
100
AcDbPoint
 10
248.1174409502
 20
186.5157910433729
 30
0.0
  0
POINT
  5
2F0
330
2E7
100
AcDbEntity
  8
DEFPOINTS
 62
     0
100
AcDbPoint
 10
250.1174409502
 20
188.0657910433729
 30
0.0
  0
POINT
  5
2F1
330
2E7
100
AcDbEntity
  8
DEFPOINTS
 62
     0
100
AcDbPoint
 10
250.1174409502
 20
206.5539163253983
 30
0.0
  0
ENDBLK
  5
2F3
330
2E7
100
AcDbEntity
  8
0
100
AcDbBlockEnd
  0
BLOCK
  5
2FF
330
2F4
100
AcDbEntity
  8
0
100
AcDbBlockBegin
  2
*D13
 70
     1
 10
0.0
 20
0.0
 30
0.0
  3
*D13
  1

  0
LINE
  5
2F5
330
2F4
100
AcDbEntity
  8
0
 62
     0
370
    -2
100
AcDbLine
 10
247.2599592720868
 20
188.0657910433729
 30
0.0
 11
226.138046529201
 21
188.0657910433729
 31
0.0
  0
LINE
  5
2F6
330
2F4
100
AcDbEntity
  8
0
 62
     0
370
    -2
100
AcDbLine
 10
247.2599592720868
 20
177.9657910433729
 30
0.0
 11
226.138046529201
 21
177.9657910433729
 31
0.0
  0
LINE
  5
2F7
330
2F4
100
AcDbEntity
  8
0
 62
     0
370
    -2
100
AcDbLine
 10
227.1380465292009
 20
190.0657910433729
 30
0.0
 11
227.1380465292009
 21
192.0657910433729
 31
0.0
  0
LINE
  5
2F8
330
2F4
100
AcDbEntity
  8
0
 62
     0
370
    -2
100
AcDbLine
 10
227.1380465292009
 20
175.9657910433729
 30
0.0
 11
227.1380465292009
 21
173.9657910433729
 31
0.0
  0
SOLID
  5
2F9
330
2F4
100
AcDbEntity
  8
0
 62
     0
100
AcDbTrace
 10
226.8047131958675
 20
190.0657910433729
 30
0.0
 11
227.4713798625342
 21
190.0657910433729
 31
0.0
 12
227.1380465292009
 22
188.0657910433729
 32
0.0
 13
227.1380465292009
 23
188.0657910433729
 33
0.0
  0
SOLID
  5
2FA
330
2F4
100
AcDbEntity
  8
0
 62
     0
100
AcDbTrace
 10
226.8047131958675
 20
175.9657910433729
 30
0.0
 11
227.4713798625342
 21
175.9657910433729
 31
0.0
 12
227.1380465292009
 22
177.9657910433729
 32
0.0
 13
227.1380465292009
 23
177.9657910433729
 33
0.0
  0
MTEXT
  5
2FB
330
2F4
100
AcDbEntity
  8
0
 62
     0
100
AcDbMText
 10
227.1380465292009
 20
182.7821492470316
 30
0.0
 40
4.0
 41
0.0
 71
     5
 72
     1
  1
\A1;10.1
 11
0.0000000000000001
 21
1.0
 31
0.0
 73
     1
 44
1.0
  0
POINT
  5
2FC
330
2F4
100
AcDbEntity
  8
DEFPOINTS
 62
     0
100
AcDbPoint
 10
248.2599592720868
 20
188.0657910433729
 30
0.0
  0
POINT
  5
2FD
330
2F4
100
AcDbEntity
  8
DEFPOINTS
 62
     0
100
AcDbPoint
 10
248.2599592720868
 20
177.9657910433729
 30
0.0
  0
POINT
  5
2FE
330
2F4
100
AcDbEntity
  8
DEFPOINTS
 62
     0
100
AcDbPoint
 10
227.1380465292009
 20
177.9657910433729
 30
0.0
  0
ENDBLK
  5
300
330
2F4
100
AcDbEntity
  8
0
100
AcDbBlockEnd
  0
BLOCK
  5
30C
330
301
100
AcDbEntity
  8
0
100
AcDbBlockBegin
  2
*D14
 70
     1
 10
0.0
 20
0.0
 30
0.0
  3
*D14
  1

  0
LINE
  5
302
330
301
100
AcDbEntity
  8
0
 62
     0
370
    -2
100
AcDbLine
 10
137.7806442962119
 20
183.0157910433729
 30
0.0
 11
201.6326022132449
 21
183.0157910433729
 31
0.0
  0
LINE
  5
303
330
301
100
AcDbEntity
  8
0
 62
     0
370
    -2
100
AcDbLine
 10
197.5306442962119
 20
125.0157910433729
 30
0.0
 11
201.6326022132449
 21
125.0157910433729
 31
0.0
  0
LINE
  5
304
330
301
100
AcDbEntity
  8
0
 62
     0
370
    -2
100
AcDbLine
 10
200.6326022132451
 20
181.0157910433729
 30
0.0
 11
200.6326022132451
 21
158.5555920514105
 31
0.0
  0
LINE
  5
305
330
301
100
AcDbEntity
  8
0
 62
     0
370
    -2
100
AcDbLine
 10
200.6326022132451
 20
127.0157910433729
 30
0.0
 11
200.6326022132451
 21
150.6389253847437
 31
0.0
  0
SOLID
  5
306
330
301
100
AcDbEntity
  8
0
 62
     0
100
AcDbTrace
 10
200.2992688799117
 20
181.0157910433729
 30
0.0
 11
200.9659355465784
 21
181.0157910433729
 31
0.0
 12
200.6326022132451
 22
183.0157910433729
 32
0.0
 13
200.6326022132451
 23
183.0157910433729
 33
0.0
  0
SOLID
  5
307
330
301
100
AcDbEntity
  8
0
 62
     0
100
AcDbTrace
 10
200.2992688799117
 20
127.0157910433729
 30
0.0
 11
200.9659355465784
 21
127.0157910433729
 31
0.0
 12
200.6326022132451
 22
125.0157910433729
 32
0.0
 13
200.6326022132451
 23
125.0157910433729
 33
0.0
  0
MTEXT
  5
308
330
301
100
AcDbEntity
  8
0
 62
     0
100
AcDbMText
 10
200.632602213245
 20
154.5972587180771
 30
0.0
 40
4.0
 41
0.0
 71
     5
 72
     1
  1
\A1;58
 11
0.0000000000000001
 21
1.0
 31
0.0
 73
     1
 44
1.0
  0
POINT
  5
309
330
301
100
AcDbEntity
  8
DEFPOINTS
 62
     0
100
AcDbPoint
 10
136.7806442962119
 20
183.0157910433729
 30
0.0
  0
POINT
  5
30A
330
301
100
AcDbEntity
  8
DEFPOINTS
 62
     0
100
AcDbPoint
 10
196.5306442962118
 20
125.0157910433729
 30
0.0
  0
POINT
  5
30B
330
301
100
AcDbEntity
  8
DEFPOINTS
 62
     0
100
AcDbPoint
 10
200.6326022132451
 20
125.0157910433729
 30
0.0
  0
ENDBLK
  5
30D
330
301
100
AcDbEntity
  8
0
100
AcDbBlockEnd
  0
BLOCK
  5
462
330
457
100
AcDbEntity
  8
0
100
AcDbBlockBegin
  2
*D15
 70
     1
 10
0.0
 20
0.0
 30
0.0
  3
*D15
  1

  0
LINE
  5
4D9
330
457
100
AcDbEntity
  8
0
 62
     0
370
    -2
100
AcDbLine
 10
160.6493114558236
 20
204.2821618998615
 30
0.0
 11
224.6187693728568
 21
204.2821618998614
 31
0.0
  0
LINE
  5
4DA
330
457
100
AcDbEntity
  8
0
 62
     0
370
    -2
100
AcDbLine
 10
220.3993114558236
 20
146.2821618998614
 30
0.0
 11
224.6187693728566
 21
146.2821618998614
 31
0.0
  0
LINE
  5
4DB
330
457
100
AcDbEntity
  8
0
 62
     0
370
    -2
100
AcDbLine
 10
224.4387693728568
 20
202.2821618998614
 30
0.0
 11
224.4387693728566
 21
181.4536295745655
 31
0.0
  0
LINE
  5
4DC
330
457
100
AcDbEntity
  8
0
 62
     0
370
    -2
100
AcDbLine
 10
224.4387693728566
 20
148.2821618998614
 30
0.0
 11
224.4387693728566
 21
170.2736295745656
 31
0.0
  0
SOLID
  5
4DD
330
457
100
AcDbEntity
  8
0
 62
     0
100
AcDbTrace
 10
224.1054360395234
 20
202.2821618998614
 30
0.0
 11
224.7721027061901
 21
202.2821618998614
 31
0.0
 12
224.4387693728568
 22
204.2821618998614
 32
0.0
 13
224.4387693728568
 23
204.2821618998614
 33
0.0
  0
SOLID
  5
4DE
330
457
100
AcDbEntity
  8
0
 62
     0
100
AcDbTrace
 10
224.1054360395234
 20
148.2821618998614
 30
0.0
 11
224.7721027061901
 21
148.2821618998614
 31
0.0
 12
224.4387693728566
 22
146.2821618998614
 32
0.0
 13
224.4387693728566
 23
146.2821618998614
 33
0.0
  0
MTEXT
  5
4DF
330
457
100
AcDbEntity
  8
0
 62
     0
100
AcDbMText
 10
224.4387693728566
 20
175.8636295745656
 30
0.0
 40
11.0
 41
0.0
 71
     5
 72
     1
  1
\A1;58.0000
  7
BIGFONT
 73
     1
 44
1.0
  0
POINT
  5
4E0
330
457
100
AcDbEntity
  8
DEFPOINTS
 62
     0
100
AcDbPoint
 10
160.5868114558236
 20
204.2821618998615
 30
0.0
  0
POINT
  5
4E1
330
457
100
AcDbEntity
  8
DEFPOINTS
 62
     0
100
AcDbPoint
 10
220.3368114558236
 20
146.2821618998614
 30
0.0
  0
POINT
  5
4E2
330
457
100
AcDbEntity
  8
DEFPOINTS
 62
     0
100
AcDbPoint
 10
224.4387693728566
 20
146.2821618998614
 30
0.0
  0
ENDBLK
  5
463
330
457
100
AcDbEntity
  8
0
100
AcDbBlockEnd
  0
BLOCK
  5
46B
330
464
100
AcDbEntity
  8
0
100
AcDbBlockBegin
  2
*D16
 70
     1
 10
0.0
 20
0.0
 30
0.0
  3
*D16
  1

  0
LINE
  5
4E9
330
464
100
AcDbEntity
  8
0
 62
     0
370
    -2
100
AcDbLine
 10
118.5440343257531
 20
227.9824573648251
 30
0.0
 11
120.5440343257531
 21
227.9824573648251
 31
0.0
  0
LINE
  5
4EA
330
464
100
AcDbEntity
  8
0
 62
     0
370
    -2
100
AcDbLine
 10
120.5440343257531
 20
227.9824573648251
 30
0.0
 11
138.672318526156
 21
209.336888326113
 31
0.0
  0
MTEXT
  5
4EB
330
464
100
AcDbEntity
  8
0
 62
     0
100
AcDbMText
 10
93.52070099241975
 20
227.9824573648251
 30
0.0
 40
11.0
 41
0.0
 71
     5
 72
     1
  1
\A1;\U+220510.1000
  7
BIGFONT
 73
     1
 44
1.0
  0
SOLID
  5
4EC
330
464
100
AcDbEntity
  8
0
 62
     0
100
AcDbTrace
 10
138.9113126834256
 20
209.5692520580124
 30
0.0
 11
138.4333243688864
 21
209.1045245942139
 31
0.0
 12
140.0665009175511
 22
207.9029233824955
 32
0.0
 13
140.0665009175511
 23
207.9029233824955
 33
0.0
  0
POINT
  5
4ED
330
464
100
AcDbEntity
  8
DEFPOINTS
 62
     0
100
AcDbPoint
 10
140.0665009175511
 20
207.9029233824955
 30
0.0
  0
POINT
  5
4EE
330
464
100
AcDbEntity
  8
DEFPOINTS
 62
     0
100
AcDbPoint
 10
147.107121994096
 20
200.6614004172273
 30
0.0
  0
ENDBLK
  5
46C
330
464
100
AcDbEntity
  8
0
100
AcDbBlockEnd
  0
BLOCK
  5
478
330
46D
100
AcDbEntity
  8
0
100
AcDbBlockBegin
  2
*D17
 70
     1
 10
0.0
 20
0.0
 30
0.0
  3
*D17
  1

  0
LINE
  5
4F9
330
46D
100
AcDbEntity
  8
0
 62
     0
370
    -2
100
AcDbLine
 10
280.3611081098119
 20
216.2821618998614
 30
0.0
 11
239.71434697646
 21
216.2821618998614
 31
0.0
  0
LINE
  5
4FA
330
46D
100
AcDbEntity
  8
0
 62
     0
370
    -2
100
AcDbLine
 10
280.3611081098118
 20
76.28216189986142
 30
0.0
 11
239.71434697646
 21
76.28216189986142
 31
0.0
  0
LINE
  5
4FB
330
46D
100
AcDbEntity
  8
0
 62
     0
370
    -2
100
AcDbLine
 10
239.89434697646
 20
214.2821618998614
 30
0.0
 11
239.89434697646
 21
152.0817421632284
 31
0.0
  0
LINE
  5
4FC
330
46D
100
AcDbEntity
  8
0
 62
     0
370
    -2
100
AcDbLine
 10
239.89434697646
 20
78.28216189986142
 30
0.0
 11
239.89434697646
 21
140.9017421632283
 31
0.0
  0
SOLID
  5
4FD
330
46D
100
AcDbEntity
  8
0
 62
     0
100
AcDbTrace
 10
239.5610136431268
 20
214.2821618998614
 30
0.0
 11
240.2276803097934
 21
214.2821618998614
 31
0.0
 12
239.89434697646
 22
216.2821618998614
 32
0.0
 13
239.89434697646
 23
216.2821618998614
 33
0.0
  0
SOLID
  5
4FE
330
46D
100
AcDbEntity
  8
0
 62
     0
100
AcDbTrace
 10
239.5610136431268
 20
78.28216189986142
 30
0.0
 11
240.2276803097934
 21
78.28216189986142
 31
0.0
 12
239.89434697646
 22
76.28216189986142
 32
0.0
 13
239.89434697646
 23
76.28216189986142
 33
0.0
  0
MTEXT
  5
4FF
330
46D
100
AcDbEntity
  8
0
 62
     0
100
AcDbMText
 10
239.89434697646
 20
146.4917421632284
 30
0.0
 40
11.0
 41
0.0
 71
     5
 72
     1
  1
\A1;140.0000
  7
BIGFONT
 73
     1
 44
1.0
  0
POINT
  5
500
330
46D
100
AcDbEntity
  8
DEFPOINTS
 62
     0
100
AcDbPoint
 10
280.423608109812
 20
216.2821618998614
 30
0.0
  0
POINT
  5
501
330
46D
100
AcDbEntity
  8
DEFPOINTS
 62
     0
100
AcDbPoint
 10
280.4236081098118
 20
76.28216189986142
 30
0.0
  0
POINT
  5
502
330
46D
100
AcDbEntity
  8
DEFPOINTS
 62
     0
100
AcDbPoint
 10
239.89434697646
 20
76.28216189986142
 30
0.0
  0
ENDBLK
  5
479
330
46D
100
AcDbEntity
  8
0
100
AcDbBlockEnd
  0
BLOCK
  5
485
330
47A
100
AcDbEntity
  8
0
100
AcDbBlockBegin
  2
*D18
 70
     1
 10
0.0
 20
0.0
 30
0.0
  3
*D18
  1

  0
LINE
  5
50D
330
47A
100
AcDbEntity
  8
0
 62
     0
370
    -2
100
AcDbLine
 10
318.9236081098126
 20
163.7821618998614
 30
0.0
 11
341.1721039545878
 21
163.7821618998613
 31
0.0
  0
LINE
  5
50E
330
47A
100
AcDbEntity
  8
0
 62
     0
370
    -2
100
AcDbLine
 10
318.9236081098126
 20
128.7821618998614
 30
0.0
 11
341.1721039545878
 21
128.7821618998614
 31
0.0
  0
LINE
  5
50F
330
47A
100
AcDbEntity
  8
0
 62
     0
370
    -2
100
AcDbLine
 10
340.1721039545878
 20
161.7821618998613
 30
0.0
 11
340.1721039545878
 21
152.8402630219719
 31
0.0
  0
LINE
  5
510
330
47A
100
AcDbEntity
  8
0
 62
     0
370
    -2
100
AcDbLine
 10
340.1721039545878
 20
130.7821618998614
 30
0.0
 11
340.1721039545878
 21
137.9935963553053
 31
0.0
  0
SOLID
  5
511
330
47A
100
AcDbEntity
  8
0
 62
     0
100
AcDbTrace
 10
339.8387706212545
 20
161.7821618998613
 30
0.0
 11
340.5054372879211
 21
161.7821618998613
 31
0.0
 12
340.1721039545878
 22
163.7821618998613
 32
0.0
 13
340.1721039545878
 23
163.7821618998613
 33
0.0
  0
SOLID
  5
512
330
47A
100
AcDbEntity
  8
0
 62
     0
100
AcDbTrace
 10
339.8387706212545
 20
130.7821618998614
 30
0.0
 11
340.5054372879211
 21
130.7821618998614
 31
0.0
 12
340.1721039545878
 22
128.7821618998614
 32
0.0
 13
340.1721039545878
 23
128.7821618998614
 33
0.0
  0
MTEXT
  5
513
330
47A
100
AcDbEntity
  8
0
 62
     0
100
AcDbMText
 10
340.1721039545878
 20
145.4169296886385
 30
0.0
 40
11.0
 41
0.0
 71
     5
 72
     1
  1
\A1;35
  7
BIGFONT
 11
0.0000000000000001
 21
1.0
 31
0.0
 73
     1
 44
1.0
  0
POINT
  5
514
330
47A
100
AcDbEntity
  8
DEFPOINTS
 62
     0
100
AcDbPoint
 10
316.9236081098127
 20
163.7821618998614
 30
0.0
  0
POINT
  5
515
330
47A
100
AcDbEntity
  8
DEFPOINTS
 62
     0
100
AcDbPoint
 10
316.9236081098127
 20
128.7821618998614
 30
0.0
  0
POINT
  5
516
330
47A
100
AcDbEntity
  8
DEFPOINTS
 62
     0
100
AcDbPoint
 10
340.1721039545878
 20
128.7821618998614
 30
0.0
  0
ENDBLK
  5
486
330
47A
100
AcDbEntity
  8
0
100
AcDbBlockEnd
  0
BLOCK
  5
491
330
487
100
AcDbEntity
  8
0
100
AcDbBlockBegin
  2
*D19
 70
     1
 10
0.0
 20
0.0
 30
0.0
  3
*D19
  1

  0
LINE
  5
520
330
487
100
AcDbEntity
  8
0
 62
     0
370
    -2
100
AcDbLine
 10
288.9236081098118
 20
129.4696618998648
 30
0.0
 11
288.9236081098118
 21
67.2848820465382
 31
0.0
  0
LINE
  5
521
330
487
100
AcDbEntity
  8
0
 62
     0
370
    -2
100
AcDbLine
 10
318.9236081098126
 20
130.7196618998614
 30
0.0
 11
318.9236081098126
 21
67.2848820465382
 31
0.0
  0
LINE
  5
522
330
487
100
AcDbEntity
  8
0
 62
     0
370
    -2
100
AcDbLine
 10
290.9236081098118
 20
67.46488204653819
 30
0.0
 11
316.9236081098127
 21
67.46488204653819
 31
0.0
  0
SOLID
  5
523
330
487
100
AcDbEntity
  8
0
 62
     0
100
AcDbTrace
 10
290.9236081098118
 20
67.79821537987152
 30
0.0
 11
290.9236081098118
 21
67.13154871320487
 31
0.0
 12
288.9236081098118
 22
67.46488204653819
 32
0.0
 13
288.9236081098118
 23
67.46488204653819
 33
0.0
  0
SOLID
  5
524
330
487
100
AcDbEntity
  8
0
 62
     0
100
AcDbTrace
 10
316.9236081098127
 20
67.79821537987152
 30
0.0
 11
316.9236081098127
 21
67.13154871320487
 31
0.0
 12
318.9236081098126
 22
67.46488204653819
 32
0.0
 13
318.9236081098126
 23
67.46488204653819
 33
0.0
  0
MTEXT
  5
525
330
487
100
AcDbEntity
  8
0
 62
     0
100
AcDbMText
 10
303.9236081098122
 20
67.46488204653819
 30
0.0
 40
11.0
 41
0.0
 71
     5
 72
     1
  1
\A1;30.0000
  7
BIGFONT
 73
     1
 44
1.0
  0
POINT
  5
526
330
487
100
AcDbEntity
  8
DEFPOINTS
 62
     0
100
AcDbPoint
 10
288.9236081098118
 20
129.5321618998648
 30
0.0
  0
POINT
  5
527
330
487
100
AcDbEntity
  8
DEFPOINTS
 62
     0
100
AcDbPoint
 10
318.9236081098126
 20
130.7821618998614
 30
0.0
  0
POINT
  5
528
330
487
100
AcDbEntity
  8
DEFPOINTS
 62
     0
100
AcDbPoint
 10
318.9236081098126
 20
67.46488204653819
 30
0.0
  0
ENDBLK
  5
492
330
487
100
AcDbEntity
  8
0
100
AcDbBlockEnd
  0
BLOCK
  5
49D
330
493
100
AcDbEntity
  8
0
100
AcDbBlockBegin
  2
*D20
 70
     1
 10
0.0
 20
0.0
 30
0.0
  3
*D20
  1

  0
LINE
  5
532
330
493
100
AcDbEntity
  8
0
 62
     0
370
    -2
100
AcDbLine
 10
303.9236081098126
 20
165.3446618998614
 30
0.0
 11
303.9236081098126
 21
217.6121326847021
 31
0.0
  0
LINE
  5
533
330
493
100
AcDbEntity
  8
0
 62
     0
370
    -2
100
AcDbLine
 10
318.9236081098126
 20
161.8446618998614
 30
0.0
 11
318.9236081098126
 21
217.6121326847021
 31
0.0
  0
LINE
  5
534
330
493
100
AcDbEntity
  8
0
 62
     0
370
    -2
100
AcDbLine
 10
305.9236081098126
 20
217.432132684702
 30
0.0
 11
316.9236081098127
 21
217.432132684702
 31
0.0
  0
SOLID
  5
535
330
493
100
AcDbEntity
  8
0
 62
     0
100
AcDbTrace
 10
305.9236081098126
 20
217.7654660180353
 30
0.0
 11
305.9236081098126
 21
217.0987993513687
 31
0.0
 12
303.9236081098126
 22
217.432132684702
 32
0.0
 13
303.9236081098126
 23
217.432132684702
 33
0.0
  0
SOLID
  5
536
330
493
100
AcDbEntity
  8
0
 62
     0
100
AcDbTrace
 10
316.9236081098127
 20
217.7654660180353
 30
0.0
 11
316.9236081098127
 21
217.0987993513687
 31
0.0
 12
318.9236081098126
 22
217.432132684702
 32
0.0
 13
318.9236081098126
 23
217.432132684702
 33
0.0
  0
MTEXT
  5
537
330
493
100
AcDbEntity
  8
0
 62
     0
100
AcDbMText
 10
311.4236081098126
 20
217.432132684702
 30
0.0
 40
11.0
 41
0.0
 71
     5
 72
     1
  1
\A1;15.0000
  7
BIGFONT
 73
     1
 44
1.0
  0
POINT
  5
538
330
493
100
AcDbEntity
  8
DEFPOINTS
 62
     0
100
AcDbPoint
 10
303.9236081098126
 20
165.2821618998614
 30
0.0
  0
POINT
  5
539
330
493
100
AcDbEntity
  8
DEFPOINTS
 62
     0
100
AcDbPoint
 10
318.9236081098126
 20
161.7821618998614
 30
0.0
  0
POINT
  5
53A
330
493
100
AcDbEntity
  8
DEFPOINTS
 62
     0
100
AcDbPoint
 10
318.9236081098126
 20
217.432132684702
 30
0.0
  0
ENDBLK
  5
49E
330
493
100
AcDbEntity
  8
0
100
AcDbBlockEnd
  0
BLOCK
  5
4AA
330
49F
100
AcDbEntity
  8
0
100
AcDbBlockBegin
  2
*D21
 70
     1
 10
0.0
 20
0.0
 30
0.0
  3
*D21
  1

  0
LINE
  5
545
330
49F
100
AcDbEntity
  8
0
 62
     0
370
    -2
100
AcDbLine
 10
271.9236081098118
 20
207.8446618998614
 30
0.0
 11
271.9236081098118
 21
228.0002871818869
 31
0.0
  0
LINE
  5
546
330
49F
100
AcDbEntity
  8
0
 62
     0
370
    -2
100
AcDbLine
 10
273.9236081098118
 20
209.3946618998614
 30
0.0
 11
273.9236081098118
 21
228.0002871818869
 31
0.0
  0
LINE
  5
547
330
49F
100
AcDbEntity
  8
0
 62
     0
370
    -2
100
AcDbLine
 10
269.9236081098118
 20
227.8202871818868
 30
0.0
 11
267.9236081098118
 21
227.8202871818868
 31
0.0
  0
LINE
  5
548
330
49F
100
AcDbEntity
  8
0
 62
     0
370
    -2
100
AcDbLine
 10
275.9236081098118
 20
227.8202871818868
 30
0.0
 11
277.9236081098118
 21
227.8202871818868
 31
0.0
  0
SOLID
  5
549
330
49F
100
AcDbEntity
  8
0
 62
     0
100
AcDbTrace
 10
269.9236081098118
 20
228.1536205152203
 30
0.0
 11
269.9236081098118
 21
227.4869538485535
 31
0.0
 12
271.9236081098118
 22
227.8202871818868
 32
0.0
 13
271.9236081098118
 23
227.8202871818868
 33
0.0
  0
SOLID
  5
54A
330
49F
100
AcDbEntity
  8
0
 62
     0
100
AcDbTrace
 10
275.9236081098118
 20
228.1536205152203
 30
0.0
 11
275.9236081098118
 21
227.4869538485535
 31
0.0
 12
273.9236081098118
 22
227.8202871818868
 32
0.0
 13
273.9236081098118
 23
227.8202871818868
 33
0.0
  0
MTEXT
  5
54B
330
49F
100
AcDbEntity
  8
0
 62
     0
100
AcDbMText
 10
297.0802747764785
 20
227.8202871818868
 30
0.0
 40
11.0
 41
0.0
 71
     5
 72
     1
  1
\A1;2.0000
  7
BIGFONT
 73
     1
 44
1.0
  0
POINT
  5
54C
330
49F
100
AcDbEntity
  8
DEFPOINTS
 62
     0
100
AcDbPoint
 10
271.9236081098118
 20
207.7821618998614
 30
0.0
  0
POINT
  5
54D
330
49F
100
AcDbEntity
  8
DEFPOINTS
 62
     0
100
AcDbPoint
 10
273.9236081098118
 20
209.3321618998614
 30
0.0
  0
POINT
  5
54E
330
49F
100
AcDbEntity
  8
DEFPOINTS
 62
     0
100
AcDbPoint
 10
273.9236081098118
 20
227.8202871818868
 30
0.0
  0
ENDBLK
  5
4AB
330
49F
100
AcDbEntity
  8
0
100
AcDbBlockEnd
  0
BLOCK
  5
4B6
330
4AC
100
AcDbEntity
  8
0
100
AcDbBlockBegin
  2
*D22
 70
     1
 10
0.0
 20
0.0
 30
0.0
  3
*D22
  1

  0
LINE
  5
558
330
4AC
100
AcDbEntity
  8
0
 62
     0
370
    -2
100
AcDbLine
 10
288.9236081098118
 20
207.8446618998611
 30
0.0
 11
288.9236081098118
 21
231.5796708231209
 31
0.0
  0
LINE
  5
559
330
4AC
100
AcDbEntity
  8
0
 62
     0
370
    -2
100
AcDbLine
 10
303.9236081098126
 20
165.3446618998614
 30
0.0
 11
303.9236081098126
 21
231.5796708231209
 31
0.0
  0
LINE
  5
55A
330
4AC
100
AcDbEntity
  8
0
 62
     0
370
    -2
100
AcDbLine
 10
290.9236081098118
 20
231.3996708231209
 30
0.0
 11
301.9236081098126
 21
231.3996708231209
 31
0.0
  0
SOLID
  5
55B
330
4AC
100
AcDbEntity
  8
0
 62
     0
100
AcDbTrace
 10
290.9236081098118
 20
231.7330041564543
 30
0.0
 11
290.9236081098118
 21
231.0663374897876
 31
0.0
 12
288.9236081098118
 22
231.3996708231209
 32
0.0
 13
288.9236081098118
 23
231.3996708231209
 33
0.0
  0
SOLID
  5
55C
330
4AC
100
AcDbEntity
  8
0
 62
     0
100
AcDbTrace
 10
301.9236081098126
 20
231.7330041564543
 30
0.0
 11
301.9236081098126
 21
231.0663374897876
 31
0.0
 12
303.9236081098126
 22
231.3996708231209
 32
0.0
 13
303.9236081098126
 23
231.3996708231209
 33
0.0
  0
MTEXT
  5
55D
330
4AC
100
AcDbEntity
  8
0
 62
     0
100
AcDbMText
 10
296.4236081098123
 20
231.3996708231209
 30
0.0
 40
11.0
 41
0.0
 71
     5
 72
     1
  1
\A1;15.0000
  7
BIGFONT
 73
     1
 44
1.0
  0
POINT
  5
55E
330
4AC
100
AcDbEntity
  8
DEFPOINTS
 62
     0
100
AcDbPoint
 10
288.9236081098118
 20
207.7821618998612
 30
0.0
  0
POINT
  5
55F
330
4AC
100
AcDbEntity
  8
DEFPOINTS
 62
     0
100
AcDbPoint
 10
303.9236081098126
 20
165.2821618998614
 30
0.0
  0
POINT
  5
560
330
4AC
100
AcDbEntity
  8
DEFPOINTS
 62
     0
100
AcDbPoint
 10
303.9236081098126
 20
231.3996708231209
 30
0.0
  0
ENDBLK
  5
4B7
330
4AC
100
AcDbEntity
  8
0
100
AcDbBlockEnd
  0
BLOCK
  5
4C2
330
4B8
100
AcDbEntity
  8
0
100
AcDbBlockBegin
  2
*D23
 70
     1
 10
0.0
 20
0.0
 30
0.0
  3
*D23
  1

  0
LINE
  5
56A
330
4B8
100
AcDbEntity
  8
0
 62
     0
370
    -2
100
AcDbLine
 10
272.0036264316984
 20
209.3321618998614
 30
0.0
 11
250.7642136888126
 21
209.3321618998614
 31
0.0
  0
LINE
  5
56B
330
4B8
100
AcDbEntity
  8
0
 62
     0
370
    -2
100
AcDbLine
 10
272.0036264316984
 20
199.2321618998614
 30
0.0
 11
250.7642136888126
 21
199.2321618998614
 31
0.0
  0
LINE
  5
56C
330
4B8
100
AcDbEntity
  8
0
 62
     0
370
    -2
100
AcDbLine
 10
250.9442136888127
 20
207.3321618998614
 30
0.0
 11
250.9442136888127
 21
201.2321618998614
 31
0.0
  0
SOLID
  5
56D
330
4B8
100
AcDbEntity
  8
0
 62
     0
100
AcDbTrace
 10
250.6108803554793
 20
207.3321618998614
 30
0.0
 11
251.2775470221459
 21
207.3321618998614
 31
0.0
 12
250.9442136888127
 22
209.3321618998614
 32
0.0
 13
250.9442136888127
 23
209.3321618998614
 33
0.0
  0
SOLID
  5
56E
330
4B8
100
AcDbEntity
  8
0
 62
     0
100
AcDbTrace
 10
250.6108803554793
 20
201.2321618998614
 30
0.0
 11
251.2775470221459
 21
201.2321618998614
 31
0.0
 12
250.9442136888127
 22
199.2321618998614
 32
0.0
 13
250.9442136888127
 23
199.2321618998614
 33
0.0
  0
MTEXT
  5
56F
330
4B8
100
AcDbEntity
  8
0
 62
     0
100
AcDbMText
 10
250.9442136888126
 20
204.2821618998615
 30
0.0
 40
11.0
 41
0.0
 71
     5
 72
     1
  1
\A1;10.1000
  7
BIGFONT
 73
     1
 44
1.0
  0
POINT
  5
570
330
4B8
100
AcDbEntity
  8
DEFPOINTS
 62
     0
100
AcDbPoint
 10
272.0661264316984
 20
209.3321618998614
 30
0.0
  0
POINT
  5
571
330
4B8
100
AcDbEntity
  8
DEFPOINTS
 62
     0
100
AcDbPoint
 10
272.0661264316984
 20
199.2321618998614
 30
0.0
  0
POINT
  5
572
330
4B8
100
AcDbEntity
  8
DEFPOINTS
 62
     0
100
AcDbPoint
 10
250.9442136888127
 20
199.2321618998614
 30
0.0
  0
ENDBLK
  5
4C3
330
4B8
100
AcDbEntity
  8
0
100
AcDbBlockEnd
  0
BLOCK
  5
4CD
330
4C4
100
AcDbEntity
  8
0
100
AcDbBlockBegin
  2
*D24
 70
     1
 10
0.0
 20
0.0
 30
0.0
  3
*D24
  1

  0
LINE
  5
57B
330
4C4
100
AcDbEntity
  8
0
 62
     0
370
    -2
100
AcDbLine
 10
333.2294632256376
 20
180.4564916164054
 30
0.0
 11
331.2294632256373
 21
180.4564916164052
 31
0.0
  0
LINE
  5
57C
330
4C4
100
AcDbEntity
  8
0
 62
     0
370
    -2
100
AcDbLine
 10
331.2294632256373
 20
180.4564916164052
 30
0.0
 11
319.3561420763295
 21
164.9575010158838
 31
0.0
  0
MTEXT
  5
57D
330
4C4
100
AcDbEntity
  8
0
 62
     0
100
AcDbMText
 10
340.652796558971
 20
180.4564916164054
 30
0.0
 40
11.0
 41
0.0
 71
     5
 72
     1
  1
\A1;R2
  7
BIGFONT
 73
     1
 44
1.0
  0
SOLID
  5
57E
330
4C4
100
AcDbEntity
  8
0
 62
     0
100
AcDbTrace
 10
319.0915304833276
 20
165.1602121797601
 30
0.0
 11
319.6207536693313
 21
164.7547898520073
 31
0.0
 12
318.1398750930711
 22
163.3698314578726
 32
0.0
 13
318.1398750930711
 23
163.3698314578726
 33
0.0
  0
LINE
  5
57F
330
4C4
100
AcDbEntity
  8
0
 62
     0
370
    -2
100
AcDbLine
 10
316.8336081098126
 20
161.7821618998613
 30
0.0
 11
317.0136081098127
 21
161.7821618998613
 31
0.0
  0
LINE
  5
580
330
4C4
100
AcDbEntity
  8
0
 62
     0
370
    -2
100
AcDbLine
 10
316.9236081098127
 20
161.6921618998613
 30
0.0
 11
316.9236081098127
 21
161.8721618998613
 31
0.0
  0
POINT
  5
581
330
4C4
100
AcDbEntity
  8
DEFPOINTS
 62
     0
100
AcDbPoint
 10
318.1398750930711
 20
163.3698314578726
 30
0.0
  0
POINT
  5
582
330
4C4
100
AcDbEntity
  8
DEFPOINTS
 62
     0
100
AcDbPoint
 10
316.9236081098127
 20
161.7821618998613
 30
0.0
  0
ENDBLK
  5
4CE
330
4C4
100
AcDbEntity
  8
0
100
AcDbBlockEnd
  0
BLOCK
  5
641
330
640
100
AcDbEntity
  8
0
100
AcDbBlockBegin
  2
*U25
 70
     1
 10
0.0
 20
0.0
 30
0.0
  3
*U25
  1

  0
ENDBLK
  5
642
330
640
100
AcDbEntity
  8
0
100
AcDbBlockEnd
  0
ENDSEC
  0
SECTION
  2
ENTITIES
  0
LINE
  5
3C8
330
174
100
AcDbEntity
  8
1
100
AcDbLine
 10
143.5868114558236
 20
146.2821618998614
 30
0.0
 11
220.3368114558236
 21
146.2821618998614
 31
0.0
  0
ARC
  5
3C9
330
174
100
AcDbEntity
  8
3
100
AcDbCircle
 10
143.5868114558236
 20
146.2821618998614
 30
0.0
 40
53.00000000000007
100
AcDbArc
 50
339.7768490317418
 51
80.22315096825794
  0
LINE
  5
3CA
330
174
100
AcDbEntity
  8
1
100
AcDbLine
 10
211.28680682962
 20
107.1955513466634
 30
0.0
 11
143.5868114558236
 21
146.2821618998614
 31
0.0
  0
ARC
  5
3CB
330
174
100
AcDbEntity
  8
3
100
AcDbCircle
 10
143.5868114558236
 20
146.2821618998614
 30
0.0
 40
61.50000000000011
100
AcDbArc
 50
270.0
 51
76.03371173820119
  0
ARC
  5
3CC
330
174
100
AcDbEntity
  8
3
100
AcDbCircle
 10
143.5868114558236
 20
146.2821618998614
 30
0.0
 40
70.0
100
AcDbArc
 50
270.0
 51
90.0
  0
ARC
  5
3CD
330
174
100
AcDbEntity
  8
3
100
AcDbCircle
 10
143.5868114558236
 20
146.2821618998614
 30
0.0
 40
16.74999999999676
100
AcDbArc
 50
270.0
 51
90.0
  0
ARC
  5
3CE
330
174
100
AcDbEntity
  8
3
100
AcDbCircle
 10
142.7231511566569
 20
146.7807964060736
 30
0.0
 40
19.99726901242456
100
AcDbArc
 50
301.0488915071606
 51
358.9511084928393
  0
LINE
  5
3CF
330
174
100
AcDbEntity
  8
3
100
AcDbLine
 10
163.5783344436291
 20
146.8644063743234
 30
0.0
 11
193.3195429674183
 21
127.96126081952
 31
0.0
  0
LINE
  5
3D0
330
174
100
AcDbEntity
  8
1
100
AcDbLine
 10
143.5868114558236
 20
146.2821618998614
 30
0.0
 11
143.5868114558236
 21
68.78216189986142
 31
0.0
  0
LINE
  5
3D1
330
174
100
AcDbEntity
  8
1
100
AcDbLine
 10
75.88681608202701
 20
107.1955513466634
 30
0.0
 11
143.5868114558236
 21
146.2821618998614
 31
0.0
  0
ARC
  5
3D2
330
174
100
AcDbEntity
  8
3
100
AcDbCircle
 10
143.5868114558236
 20
146.2821618998614
 30
0.0
 40
70.0
100
AcDbArc
 50
90.0
 51
270.0
  0
ARC
  5
3D3
330
174
100
AcDbEntity
  8
3
100
AcDbCircle
 10
143.5868114558236
 20
146.2821618998614
 30
0.0
 40
61.50000000000011
100
AcDbArc
 50
103.9662882617987
 51
270.0
  0
ARC
  5
3D4
330
174
100
AcDbEntity
  8
3
100
AcDbCircle
 10
143.5868114558236
 20
146.2821618998614
 30
0.0
 40
53.00000000000007
100
AcDbArc
 50
99.77684903174207
 51
200.223150968258
  0
LINE
  5
3D5
330
174
100
AcDbEntity
  8
3
100
AcDbLine
 10
123.5952884680179
 20
146.8644063743234
 30
0.0
 11
93.85407994422891
 21
127.96126081952
 31
0.0
  0
ARC
  5
3D6
330
174
100
AcDbEntity
  8
3
100
AcDbCircle
 10
144.4504717549903
 20
146.7807964060736
 30
0.0
 40
19.99726901242456
100
AcDbArc
 50
181.0488915071605
 51
238.9511084928393
  0
ARC
  5
3D7
330
174
100
AcDbEntity
  8
3
100
AcDbCircle
 10
143.5868114558236
 20
146.2821618998614
 30
0.0
 40
16.74999999999676
100
AcDbArc
 50
90.0
 51
270.0
  0
ARC
  5
3D8
330
174
100
AcDbEntity
  8
3
100
AcDbCircle
 10
143.5868114558236
 20
146.2821618998614
 30
0.0
 40
20.0
100
AcDbArc
 50
270.0
 51
298.3317567464578
  0
ARC
  5
3D9
330
174
100
AcDbEntity
  8
3
100
AcDbCircle
 10
143.5868114558236
 20
146.2821618998614
 30
0.0
 40
53.00000000000007
100
AcDbArc
 50
270.0
 51
320.2231509682578
  0
ARC
  5
3DA
330
174
100
AcDbEntity
  8
3
100
AcDbCircle
 10
143.5868114558236
 20
146.2821618998614
 30
0.0
 40
53.00000000000007
100
AcDbArc
 50
219.7768490317421
 51
270.0
  0
LINE
  5
3DB
330
174
100
AcDbEntity
  8
3
100
AcDbLine
 10
134.0952884680179
 20
128.6778728948501
 30
0.0
 11
102.8540799442289
 21
112.3728035514002
 31
0.0
  0
ARC
  5
3DC
330
174
100
AcDbEntity
  8
3
100
AcDbCircle
 10
129.1891391179059
 20
137.9696618998607
 30
0.0
 40
37.87499999999849
100
AcDbArc
 50
198.5788137250004
 51
221.4211862749999
  0
ARC
  5
3DD
330
174
100
AcDbEntity
  8
3
100
AcDbCircle
 10
102.130661542685
 20
113.8289853913929
 30
0.0
 40
1.62597654805238
100
AcDbArc
 50
214.3313099757683
 51
296.4177843764417
  0
ARC
  5
3DE
330
174
100
AcDbEntity
  8
3
100
AcDbCircle
 10
94.7534612094202
 20
126.6066711862217
 30
0.0
 40
1.62597654805238
100
AcDbArc
 50
123.5822156235583
 51
205.6686900242314
  0
ARC
  5
3DF
330
174
100
AcDbEntity
  8
3
100
AcDbCircle
 10
143.5868114558236
 20
146.2821618998614
 30
0.0
 40
20.0
100
AcDbArc
 50
241.668243253542
 51
270.0
  0
ARC
  5
3E0
330
174
100
AcDbEntity
  8
3
100
AcDbCircle
 10
133.8057719711545
 20
129.1763936433832
 30
0.0
 40
0.5764917507422523
100
AcDbArc
 50
300.1459267778062
 51
54.99274524027804
  0
LINE
  5
3E1
330
174
100
AcDbEntity
  8
3
100
AcDbLine
 10
153.0783344436291
 20
128.6778728948501
 30
0.0
 11
184.3195429674183
 21
112.3728035514002
 31
0.0
  0
ARC
  5
3E2
330
174
100
AcDbEntity
  8
3
100
AcDbCircle
 10
153.3678509404925
 20
129.1763936433832
 30
0.0
 40
0.5764917507422523
100
AcDbArc
 50
125.0072547597219
 51
239.8540732221936
  0
ARC
  5
3E3
330
174
100
AcDbEntity
  8
3
100
AcDbCircle
 10
157.9844837937411
 20
137.9696618998607
 30
0.0
 40
37.87499999999849
100
AcDbArc
 50
318.5788137249999
 51
341.4211862749996
  0
ARC
  5
3E4
330
174
100
AcDbEntity
  8
3
100
AcDbCircle
 10
185.0429613689619
 20
113.8289853913929
 30
0.0
 40
1.62597654805238
100
AcDbArc
 50
243.5822156235582
 51
325.6686900242314
  0
ARC
  5
3E5
330
174
100
AcDbEntity
  8
3
100
AcDbCircle
 10
192.4201617022268
 20
126.6066711862217
 30
0.0
 40
1.62597654805238
100
AcDbArc
 50
334.3313099757685
 51
56.41778437644093
  0
LINE
  5
3E6
330
174
100
AcDbEntity
  8
1
100
AcDbLine
 10
143.5868114558236
 20
146.2821618998614
 30
0.0
 11
66.83681145582361
 21
146.2821618998614
 31
0.0
  0
LINE
  5
3EA
330
174
100
AcDbEntity
  8
1
100
AcDbLine
 10
143.5868114558236
 20
225.2821618998614
 30
0.0
 11
143.5868114558236
 21
146.2821618998614
 31
0.0
  0
ARC
  5
3EF
330
174
100
AcDbEntity
  8
3
100
AcDbCircle
 10
143.5868114558236
 20
204.2821618998615
 30
0.0
 40
9.0
100
AcDbArc
 50
270.0
 51
346.9120158284772
  0
ARC
  5
3F0
330
174
100
AcDbEntity
  8
3
100
AcDbCircle
 10
143.5868114558236
 20
145.2848928874368
 30
0.0
 40
19.99726901242456
100
AcDbArc
 50
61.04889150716046
 51
90.0
  0
LINE
  5
3F2
330
174
100
AcDbEntity
  8
3
100
AcDbLine
 10
133.0868114558236
 20
163.3042064304106
 30
0.0
 11
134.5868114558236
 21
198.5124213286638
 31
0.0
  0
ARC
  5
3F3
330
174
100
AcDbEntity
  8
3
100
AcDbCircle
 10
133.6633013367984
 20
163.3056746972425
 30
0.0
 40
0.5764917507422523
100
AcDbArc
 50
180.1459267778063
 51
294.9927452402781
  0
ARC
  5
3F4
330
174
100
AcDbEntity
  8
3
100
AcDbCircle
 10
143.5868114558236
 20
145.2848928874368
 30
0.0
 40
19.99726901242456
100
AcDbArc
 50
90.0
 51
118.9511084928394
  0
ARC
  5
3F5
330
174
100
AcDbEntity
  8
3
100
AcDbCircle
 10
143.5868114558236
 20
146.2821618998614
 30
0.0
 40
20.0
100
AcDbArc
 50
121.6682432535419
 51
178.331756746458
  0
ARC
  5
3F6
330
174
100
AcDbEntity
  8
3
100
AcDbCircle
 10
123.8822618521294
 20
146.3644173589585
 30
0.0
 40
0.5764917507422523
100
AcDbArc
 50
5.007254759721953
 51
119.8540732221933
  0
ARC
  5
3F7
330
174
100
AcDbEntity
  8
3
100
AcDbCircle
 10
143.5868114558236
 20
204.2821618998615
 30
0.0
 40
9.0
100
AcDbArc
 50
193.0879841715226
 51
270.0
  0
ARC
  5
3F8
330
174
100
AcDbEntity
  8
3
100
AcDbCircle
 10
136.2096111225585
 20
198.4108291219696
 30
0.0
 40
1.62597654805238
100
AcDbArc
 50
108.4103920020332
 51
176.4177843764414
  0
ARC
  5
3F9
330
174
100
AcDbEntity
  8
3
100
AcDbCircle
 10
129.9504827608285
 20
201.1119032791718
 30
0.0
 40
5.000000000000011
100
AcDbArc
 50
13.08798417152233
 51
103.9662882617987
  0
LINE
  5
3FB
330
174
100
AcDbEntity
  8
3
100
AcDbLine
 10
154.0868114558236
 20
163.3042064304106
 30
0.0
 11
152.5868114558234
 21
198.5124213286638
 31
0.0
  0
ARC
  5
3FC
330
174
100
AcDbEntity
  8
3
100
AcDbCircle
 10
153.5103215748486
 20
163.3056746972425
 30
0.0
 40
0.5764917507422523
100
AcDbArc
 50
245.0072547597218
 51
359.8540732221936
  0
ARC
  5
3FD
330
174
100
AcDbEntity
  8
3
100
AcDbCircle
 10
143.5868114558236
 20
146.2821618998614
 30
0.0
 40
20.0
100
AcDbArc
 50
1.66824325354184
 51
58.33175674645803
  0
ARC
  5
3FE
330
174
100
AcDbEntity
  8
3
100
AcDbCircle
 10
163.2913610595176
 20
146.3644173589585
 30
0.0
 40
0.5764917507422523
100
AcDbArc
 50
60.14592677780671
 51
174.992745240278
  0
ARC
  5
3FF
330
174
100
AcDbEntity
  8
3
100
AcDbCircle
 10
150.9640117890884
 20
198.4108291219696
 30
0.0
 40
1.62597654805238
100
AcDbArc
 50
3.582215623558467
 51
71.58960799796672
  0
ARC
  5
400
330
174
100
AcDbEntity
  8
3
100
AcDbCircle
 10
157.2231401508185
 20
201.1119032791718
 30
0.0
 40
5.000000000000011
100
AcDbArc
 50
76.03371173820119
 51
166.9120158284775
  0
LINE
  5
403
330
174
100
AcDbEntity
  8
3
100
AcDbLine
 10
318.9236081098126
 20
146.2821618998614
 30
0.0
 11
318.9236081098126
 21
130.7821618998614
 31
0.0
  0
LINE
  5
404
330
174
100
AcDbEntity
  8
1
100
AcDbLine
 10
280.4236081098118
 20
70.98762150962489
 30
0.0
 11
280.423608109812
 21
221.258975593097
 31
0.0
  0
LINE
  5
405
330
174
100
AcDbEntity
  8
3
100
AcDbLine
 10
271.9236081098118
 20
146.2821618998614
 30
0.0
 11
271.9236081098118
 21
84.78216189986142
 31
0.0
  0
LINE
  5
406
330
174
100
AcDbEntity
  8
3
100
AcDbLine
 10
288.9236081098118
 20
146.2821618998614
 30
0.0
 11
288.9236081098118
 21
84.78216189986142
 31
0.0
  0
LINE
  5
407
330
174
100
AcDbEntity
  8
3
100
AcDbLine
 10
303.9236081098126
 20
146.2821618998614
 30
0.0
 11
303.9236081098126
 21
127.2821618998614
 31
0.0
  0
LINE
  5
40B
330
174
100
AcDbEntity
  8
3
100
AcDbLine
 10
316.9236081098127
 20
128.7821618998614
 30
0.0
 11
303.9236081098126
 21
128.7821618998614
 31
0.0
  0
MTEXT
  5
40D
330
174
100
AcDbEntity
  8
0
100
AcDbMText
 10
266.7491729731291
 20
58.86749455892014
 30
0.0
 40
4.0
 41
0.0
 71
     9
 72
     1
  1
{\fMS UI Gothic|b0|i0|c128|p2;　}
 73
     1
 44
1.0
  0
MTEXT
  5
40F
330
174
100
AcDbEntity
  8
0
100
AcDbMText
 10
266.1241729731291
 20
58.86749455892014
 30
0.0
 40
4.0
 41
0.0
 71
     9
 72
     1
  1
{\fMS UI Gothic|b0|i0|c128|p2;　}
 73
     1
 44
1.0
  0
LINE
  5
410
330
174
100
AcDbEntity
  8
1
100
AcDbLine
 10
280.4236081098126
 20
86.78216189986143
 30
0.0
 11
285.3060163756195
 21
86.78216189986143
 31
0.0
  0
ARC
  5
411
330
174
100
AcDbEntity
  8
3
100
AcDbCircle
 10
280.4236081098126
 20
86.78216189986143
 30
0.0
 40
6.5
100
AcDbArc
 50
1.369240361701959
 51
178.630759638298
  0
LINE
  5
412
330
174
100
AcDbEntity
  8
1
100
AcDbLine
 10
285.3060163756195
 20
86.78216189986143
 30
0.0
 11
275.6670503239519
 21
86.78216189986143
 31
0.0
  0
LINE
  5
413
330
174
100
AcDbEntity
  8
1
100
AcDbLine
 10
280.4236081098118
 20
84.78216189986142
 30
0.0
 11
287.5740090783247
 21
84.78216189986142
 31
0.0
  0
ARC
  5
414
330
174
100
AcDbEntity
  8
3
100
AcDbCircle
 10
280.4236081098118
 20
84.78216189986142
 30
0.0
 40
8.5
100
AcDbArc
 50
180.0
 51
0.0
  0
LINE
  5
415
330
174
100
AcDbEntity
  8
1
100
AcDbLine
 10
287.5740090783247
 20
84.78216189986142
 30
0.0
 11
274.2495553738995
 21
84.78216189986142
 31
0.0
  0
ARC
  5
416
330
174
100
AcDbEntity
  8
3
100
AcDbCircle
 10
271.4433012530583
 20
87.23558916052247
 30
0.0
 40
2.5
100
AcDbArc
 50
281.0766910231162
 51
1.067430308594853
  0
ARC
  5
417
330
174
100
AcDbEntity
  8
3
100
AcDbCircle
 10
289.403914966567
 20
87.23558916052247
 30
0.0
 40
2.5
100
AcDbArc
 50
178.932569691405
 51
258.9233089768836
  0
ARC
  5
41A
330
174
100
AcDbEntity
  8
2
100
AcDbCircle
 10
280.4310719321713
 20
123.1922994806093
 30
0.0
 40
4.768967179658572
100
AcDbArc
 50
44.77092344231965
 51
135.2290765576803
  0
ARC
  5
41B
330
174
100
AcDbEntity
  8
2
100
AcDbCircle
 10
280.402858444016
 20
116.2465927165555
 30
0.0
 40
3.873844736783798
100
AcDbArc
 50
209.9240969880034
 51
330.0759030119968
  0
LINE
  5
41C
330
174
100
AcDbEntity
  8
2
100
AcDbLine
 10
277.795306041632
 20
127.3901275043912
 30
0.0
 11
288.9236081098118
 21
140.8389997666943
 31
0.0
  0
ARC
  5
41D
330
174
100
AcDbEntity
  8
2
100
AcDbCircle
 10
293.0494905438643
 20
120.4325377991017
 30
0.0
 40
17.13372331412984
100
AcDbArc
 50
159.0779081684325
 51
200.9220918315674
  0
ARC
  5
41E
330
174
100
AcDbEntity
  8
2
100
AcDbCircle
 10
267.3258278201664
 20
120.5084509953453
 30
0.0
 40
17.56304788975715
100
AcDbArc
 50
339.347982946129
 51
20.12361201752022
  0
LINE
  5
41F
330
174
100
AcDbEntity
  8
3
100
AcDbLine
 10
288.9236081098118
 20
118.3005957313022
 30
0.0
 11
298.2739741763061
 21
126.322259537151
 31
0.0
  0
LINE
  5
420
330
174
100
AcDbEntity
  8
2
100
AcDbLine
 10
283.0931730203925
 20
113.2986749726339
 30
0.0
 11
288.9236081098118
 21
118.3005957313022
 31
0.0
  0
ARC
  5
421
330
174
100
AcDbEntity
  8
3
100
AcDbCircle
 10
296.8320653588833
 20
151.9145968440993
 30
0.0
 40
25.63292472330016
100
AcDbArc
 50
253.3717189494923
 51
286.0608190938277
  0
LINE
  5
422
330
174
100
AcDbEntity
  8
3
100
AcDbLine
 10
288.9236081098126
 20
129.5321618998614
 30
0.0
 11
289.4969128064545
 21
127.3536040526227
 31
0.0
  0
ARC
  5
423
330
174
100
AcDbEntity
  8
3
100
AcDbCircle
 10
316.9236081098127
 20
130.7821618998614
 30
0.0
 40
2.0
100
AcDbArc
 50
270.0
 51
0.0
  0
LINE
  5
427
330
174
100
AcDbEntity
  8
3
100
AcDbLine
 10
316.9236081098127
 20
163.7821618998614
 30
0.0
 11
303.9236081098126
 21
163.7821618998614
 31
0.0
  0
LINE
  5
428
330
174
100
AcDbEntity
  8
1
100
AcDbLine
 10
266.09405039999
 20
146.2821618998614
 30
0.0
 11
323.1537308133833
 21
146.2821618998614
 31
0.0
  0
LINE
  5
42F
330
174
100
AcDbEntity
  8
3
100
AcDbLine
 10
271.9236081098118
 20
146.2821618998614
 30
0.0
 11
271.9236081098118
 21
207.7821618998614
 31
0.0
  0
LINE
  5
430
330
174
100
AcDbEntity
  8
3
100
AcDbLine
 10
276.9978268598126
 20
195.2821618998614
 30
0.0
 11
290.8104638075745
 21
170.0247686239539
 31
0.0
  0
LINE
  5
431
330
174
100
AcDbEntity
  8
3
100
AcDbLine
 10
285.4805170350763
 20
196.2214564306775
 30
0.0
 11
301.1959203345038
 21
170.3737536355666
 31
0.0
  0
LINE
  5
432
330
174
100
AcDbEntity
  8
3
100
AcDbLine
 10
288.9236081098118
 20
146.2821618998614
 30
0.0
 11
288.9236081098118
 21
173.4750190427202
 31
0.0
  0
ARC
  5
433
330
174
100
AcDbEntity
  8
3
100
AcDbCircle
 10
286.4236081098126
 20
167.6257069142403
 30
0.0
 40
5.0
100
AcDbArc
 50
0.0
 51
28.67314648943516
  0
ARC
  5
434
330
174
100
AcDbEntity
  8
3
100
AcDbCircle
 10
296.8320653588833
 20
140.6497269556234
 30
0.0
 40
25.63292472330016
100
AcDbArc
 50
102.1807557261289
 51
106.6282810505067
  0
LINE
  5
435
330
174
100
AcDbEntity
  8
3
100
AcDbLine
 10
288.9236081098126
 20
163.0321618998614
 30
0.0
 11
289.4969128064545
 21
165.2107197471
 31
0.0
  0
LINE
  5
436
330
174
100
AcDbEntity
  8
3
100
AcDbLine
 10
291.4236081098126
 20
165.705572981159
 30
0.0
 11
291.4236081098126
 21
167.6257069142403
 31
0.0
  0
ARC
  5
437
330
174
100
AcDbEntity
  8
3
100
AcDbCircle
 10
296.9236081098126
 20
167.7761878029544
 30
0.0
 40
5.0
100
AcDbArc
 50
0.0000000000008142
 51
31.29960133462835
  0
LINE
  5
438
330
174
100
AcDbEntity
  8
3
100
AcDbLine
 10
301.9236081098126
 20
165.7718889303786
 30
0.0
 11
301.9236081098126
 21
167.7761878029546
 31
0.0
  0
LINE
  5
439
330
174
100
AcDbEntity
  8
3
100
AcDbLine
 10
303.9236081098126
 20
163.7821618998614
 30
0.0
 11
303.9236081098126
 21
165.2821618998614
 31
0.0
  0
ARC
  5
43A
330
174
100
AcDbEntity
  8
3
100
AcDbCircle
 10
296.8320653588833
 20
140.6497269556234
 30
0.0
 40
25.63292472330016
100
AcDbArc
 50
73.93918090617226
 51
78.54297255660046
  0
ARC
  5
43B
330
174
100
AcDbEntity
  8
3
100
AcDbCircle
 10
280.4236081098118
 20
207.7821618998614
 30
0.0
 40
8.5
100
AcDbArc
 50
0.0
 51
180.0
  0
LINE
  5
43E
330
174
100
AcDbEntity
  8
3
100
AcDbLine
 10
271.9236081098118
 20
195.2821618998614
 30
0.0
 11
276.9978268598126
 21
195.2821618998614
 31
0.0
  0
LINE
  5
442
330
174
100
AcDbEntity
  8
3
100
AcDbLine
 10
286.9043488082206
 20
205.2821618998617
 30
0.0
 11
286.9043488082206
 21
196.7821618998613
 31
0.0
  0
LINE
  5
443
330
174
100
AcDbEntity
  8
3
100
AcDbLine
 10
288.9236081098118
 20
190.5584776893365
 30
0.0
 11
288.9236081098118
 21
207.7821618998614
 31
0.0
  0
LINE
  5
444
330
174
100
AcDbEntity
  8
3
100
AcDbLine
 10
286.9043488082206
 20
196.7821618998614
 30
0.0
 11
285.4805170350763
 21
196.2214564306775
 31
0.0
  0
LINE
  5
445
330
174
100
AcDbEntity
  8
0
100
AcDbLine
 10
286.7812439883326
 20
196.7336831770966
 30
0.0
 11
286.9043488082206
 21
196.8567879969844
 31
0.0
  0
ARC
  5
446
330
174
100
AcDbEntity
  8
3
100
AcDbCircle
 10
289.403914966567
 20
205.3287346392003
 30
0.0
 40
2.5
100
AcDbArc
 50
101.0766910231162
 51
181.0674303085948
  0
ARC
  5
44D
330
174
100
AcDbEntity
  8
3
100
AcDbCircle
 10
316.9236081098127
 20
161.7821618998614
 30
0.0
 40
2.0
100
AcDbArc
 50
0.0
 51
90.0
  0
LINE
  5
44E
330
174
100
AcDbEntity
  8
3
100
AcDbLine
 10
318.9236081098126
 20
146.2821618998614
 30
0.0
 11
318.9236081098126
 21
161.7821618998614
 31
0.0
  0
ENDSEC
  0
SECTION
  2
OBJECTS
  0
DICTIONARY
  5
169
330
0
100
AcDbDictionary
281
     1
  3
ACAD_GROUP
350
16A
  3
ACAD_LAYOUT
350
19E
  3
ACAD_MLINESTYLE
350
177
  3
ACAD_PLOTSETTINGS
350
19F
  3
ACAD_PLOTSTYLENAME
350
19C
  3
ACDBVARIABLEDICTIONARY
350
18F
  3
AcmDictionary
350
25B
  3
AMG
350
1A3
  3
AMGSNAPSETTINGS
350
278
  3
DWGPROPS
350
64C
  0
DICTIONARY
  5
584
330
174
100
AcDbDictionary
280
     1
281
     1
  3
ACAD_INDEX
360
585
  0
DICTIONARY
  5
16A
102
{ACAD_REACTORS
330
169
102
}
330
169
100
AcDbDictionary
281
     1
  0
DICTIONARY
  5
19E
102
{ACAD_REACTORS
330
169
102
}
330
169
100
AcDbDictionary
281
     1
  3
Model
350
1A0
  3
ﾚｲｱｳﾄ1
350
1A1
  0
DICTIONARY
  5
177
102
{ACAD_REACTORS
330
169
102
}
330
169
100
AcDbDictionary
281
     1
  3
STANDARD
350
178
  0
DICTIONARY
  5
19F
102
{ACAD_REACTORS
330
169
102
}
330
169
100
AcDbDictionary
281
     1
  0
ACDBDICTIONARYWDFLT
  5
19C
102
{ACAD_REACTORS
330
169
102
}
330
169
100
AcDbDictionary
281
     1
  3
Normal
350
19D
100
AcDbDictionaryWithDefault
340
19D
  0
DICTIONARY
  5
18F
102
{ACAD_REACTORS
330
169
102
}
330
169
100
AcDbDictionary
281
     1
  3
DIMADEC
350
190
  3
DIMASSOC
350
590
  3
INDEXCTL
350
58F
  0
DICTIONARY
  5
25B
102
{ACAD_REACTORS
330
169
102
}
330
169
100
AcDbDictionary
281
     1
  3
AcmBOMDATA
350
64A
  0
DICTIONARY
  5
1A3
102
{ACAD_REACTORS
330
169
102
}
330
169
100
AcDbDictionary
281
     1
  3
AcMgSettings
350
1A4
  3
AMGLAYCFG
350
654
  0
DICTIONARY
  5
278
102
{ACAD_REACTORS
330
169
102
}
330
169
100
AcDbDictionary
281
     1
  3
DIMENSION
350
27D
  3
FEA
350
27C
  3
HATCH (1)
350
279
  3
HATCH (2)
350
27A
  3
SIMPLE WELD
350
27E
  3
SYMBOLS
350
27B
  0
XRECORD
  5
64C
102
{ACAD_REACTORS
330
169
102
}
330
169
100
AcDbXrecord
280
     1
  1
DWGPROPS COOKIE
  2

  3

  4

  6

  7

  8

  9

300
AmdtFileType=84
301
=
302
=
303
=
304
=
305
=
306
=
307
=
308
=
309
=
 40
0.0027682060185185
 41
2450861.875419096
 42
2456448.415930081
  1

 90
        1
  0
DICTIONARY
  5
585
102
{ACAD_REACTORS
330
584
102
}
330
584
100
AcDbDictionary
281
     1
  3
*A1
350
586
  0
LAYOUT
  5
1A0
102
{ACAD_REACTORS
330
19E
102
}
330
19E
100
AcDbPlotSettings
  1

  2
\\KONISHIDENXP\SHARP MX-2700FG
  4

  6

 40
0.0
 41
0.0
 42
0.0
 43
0.0
 44
0.0
 45
0.0
 46
0.0
 47
0.0
 48
0.0
 49
0.0
140
0.0
141
0.0
142
1.0
143
1.0
 70
  1712
 72
     0
 73
     0
 74
     0
  7

 75
     0
147
1.0
148
0.0
149
0.0
100
AcDbLayout
  1
Model
 70
     1
 71
     0
 10
0.0
 20
0.0
 11
12.0
 21
9.0
 12
0.0
 22
0.0
 32
0.0
 14
0.0
 24
0.0
 34
0.0
 15
0.0
 25
0.0
 35
0.0
146
0.0
 13
0.0
 23
0.0
 33
0.0
 16
1.0
 26
0.0
 36
0.0
 17
0.0
 27
1.0
 37
0.0
 76
     0
330
174
  0
LAYOUT
  5
1A1
102
{ACAD_REACTORS
330
19E
102
}
330
19E
100
AcDbPlotSettings
  1

  2
\\KONISHIDENXP\SHARP MX-2700FG
  4

  6

 40
0.0
 41
0.0
 42
0.0
 43
0.0
 44
0.0
 45
0.0
 46
0.0
 47
0.0
 48
0.0
 49
0.0
140
0.0
141
0.0
142
1.0
143
1.0
 70
   688
 72
     0
 73
     0
 74
     5
  7

 75
    16
147
1.0
148
0.0
149
0.0
100
AcDbLayout
  1
ﾚｲｱｳﾄ1
 70
     0
 71
     1
 10
0.0
 20
0.0
 11
12.0
 21
9.0
 12
0.0
 22
0.0
 32
0.0
 14
1.000000000000000E+20
 24
1.000000000000000E+20
 34
1.000000000000000E+20
 15
-1.000000000000000E+20
 25
-1.000000000000000E+20
 35
-1.000000000000000E+20
146
0.0
 13
0.0
 23
0.0
 33
0.0
 16
1.0
 26
0.0
 36
0.0
 17
0.0
 27
1.0
 37
0.0
 76
     0
330
171
  0
MLINESTYLE
  5
178
102
{ACAD_REACTORS
330
177
102
}
330
177
100
AcDbMlineStyle
  2
STANDARD
 70
     0
  3

 62
   256
 51
90.0
 52
90.0
 71
     2
 49
0.5
 62
   256
  6
BYLAYER
 49
-0.5
 62
   256
  6
BYLAYER
  0
ACDBPLACEHOLDER
  5
19D
102
{ACAD_REACTORS
330
19C
102
}
330
19C
  0
DICTIONARYVAR
  5
190
102
{ACAD_REACTORS
330
18F
102
}
330
18F
100
DictionaryVariables
280
     0
  1
0
  0
DICTIONARYVAR
  5
590
102
{ACAD_REACTORS
330
18F
102
}
330
18F
100
DictionaryVariables
280
     0
  1
0
  0
DICTIONARYVAR
  5
58F
102
{ACAD_REACTORS
330
18F
102
}
330
18F
100
DictionaryVariables
280
     0
  1
1
  0
ACMDATADICTIONARY
  5
64A
102
{ACAD_REACTORS
330
25B
102
}
330
25B
100
AcDbDictionary
281
     1
  3
*A1
350
64B
100
AcmDataDictionary
  0
DICTIONARY
  5
1A4
102
{ACAD_REACTORS
330
1A3
102
}
330
1A3
100
AcDbDictionary
281
     1
  3
DWGSETTINGS
350
59C
  0
ACAMGFILTERDAT
  5
27D
102
{ACAD_REACTORS
330
278
102
}
330
278
100
AcAmgFilterDat
 70
    15
  1
DIMENSION,AMDT_*_DIM
  2
*
  3
*
  4
*
  5
*
290
     1
  0
ACAMGFILTERDAT
  5
27C
102
{ACAD_REACTORS
330
278
102
}
330
278
100
AcAmgFilterDat
 70
    15
  1
*
  2
AM_FEA-AM_*
  3
*
  4
*
  5
*
290
     1
  0
ACAMGFILTERDAT
  5
279
102
{ACAD_REACTORS
330
278
102
}
330
278
100
AcAmgFilterDat
 70
    15
  1
HATCH
  2
*
  3
*
  4
*
  5
*
290
     1
  0
ACAMGFILTERDAT
  5
27A
102
{ACAD_REACTORS
330
278
102
}
330
278
100
AcAmgFilterDat
 70
    15
  1
LINE
  2
8,8N,*-8,*-8N,AM_8,AM_8N,*-AM_8,*-AM_8N
  3
*
  4
*
  5
INSERT,STDPART2D
290
     1
  0
ACAMGFILTERDAT
  5
27E
102
{ACAD_REACTORS
330
278
102
}
330
278
100
AcAmgFilterDat
 70
    15
  1
ARC
  2
AM_5
  3
*
  4
2
  5
INSERT
290
     0
  0
ACAMGFILTERDAT
  5
27B
102
{ACAD_REACTORS
330
278
102
}
330
278
100
AcAmgFilterDat
 70
    15
  1
ACMFCFRAME,ACMDATUMTARGET,ACMDATUMID,ACMWELDSYM,ACMSURFSYM,ACMFEATID,ACMPARTREF,ACMBALLOON,AMDTEDGESYM,AMGSCREWCALCTABLE
  2
*
  3
*
  4
*
  5
*
290
     1
  0
LAYER_INDEX
  5
586
102
{ACAD_REACTORS
330
585
102
}
330
585
100
AcDbIndex
 40
2456448.456847685
100
AcDbLayerIndex
  8
0
360
587
 90
        3
  8
1
360
588
 90
       12
  8
3
360
589
 90
       76
  8
4
360
58A
 90
        0
  8
10
360
58B
 90
        0
  8
11
360
58C
 90
        0
  8
2
360
58D
 90
        6
  8
DEFPOINTS
360
58E
 90
        0
  0
ACMDATAENTRYBLOCK
  5
64B
102
{ACAD_REACTORS
330
64A
102
}
330
64A
100
AcmDataEntry
100
AcmDataEntryBlock
  0
IDBUFFER
  5
587
330
0
100
AcDbIdBuffer
330
40D
330
40F
330
445
  0
IDBUFFER
  5
588
330
0
100
AcDbIdBuffer
330
3C8
330
3CA
330
3D0
330
3D1
330
3E6
330
3EA
330
404
330
410
330
412
330
413
330
415
330
428
  0
IDBUFFER
  5
589
330
0
100
AcDbIdBuffer
330
3C9
330
3CB
330
3CC
330
3CD
330
3CE
330
3CF
330
3D2
330
3D3
330
3D4
330
3D5
330
3D6
330
3D7
330
3D8
330
3D9
330
3DA
330
3DB
330
3DC
330
3DD
330
3DE
330
3DF
330
3E0
330
3E1
330
3E2
330
3E3
330
3E4
330
3E5
330
3EF
330
3F0
330
3F2
330
3F3
330
3F4
330
3F5
330
3F6
330
3F7
330
3F8
330
3F9
330
3FB
330
3FC
330
3FD
330
3FE
330
3FF
330
400
330
403
330
405
330
406
330
407
330
40B
330
411
330
414
330
416
330
417
330
41F
330
421
330
422
330
423
330
427
330
42F
330
430
330
431
330
432
330
433
330
434
330
435
330
436
330
437
330
438
330
439
330
43A
330
43B
330
43E
330
442
330
443
330
444
330
446
330
44D
330
44E
  0
IDBUFFER
  5
58A
330
0
100
AcDbIdBuffer
  0
IDBUFFER
  5
58B
330
0
100
AcDbIdBuffer
  0
IDBUFFER
  5
58C
330
0
100
AcDbIdBuffer
  0
IDBUFFER
  5
58D
330
0
100
AcDbIdBuffer
330
41A
330
41B
330
41C
330
41D
330
41E
330
420
  0
IDBUFFER
  5
58E
330
0
100
AcDbIdBuffer
  0
ENDSEC
  0
EOF
