  0
SECTION
  2
HEADER
  9
$ACADVER
  1
AC1015
  9
$ACADMAINTVER
 70
    13
  9
$DWGCODEPAGE
  3
ANSI_932
  9
$INSBASE
 10
0.0
 20
0.0
 30
0.0
  9
$EXTMIN
 10
-8.165128622304107
 20
60.60205462831087
 30
0.0
  9
$EXTMAX
 10
270.2432004732894
 20
205.6020546283109
 30
0.0
  9
$LIMMIN
 10
0.0
 20
0.0
  9
$LIMMAX
 10
400.0
 20
280.0
  9
$ORTHOMODE
 70
     1
  9
$REGENMODE
 70
     1
  9
$FILLMODE
 70
     1
  9
$QTEXTMODE
 70
     0
  9
$MIRRTEXT
 70
     1
  9
$LTSCALE
 40
20.0
  9
$ATTMODE
 70
     1
  9
$TEXTSIZE
 40
0.2
  9
$TRACEWID
 40
0.05
  9
$TEXTSTYLE
  7
STANDARD
  9
$CLAYER
  8
0
  9
$CELTYPE
  6
BYLAYER
  9
$CECOLOR
 62
   256
  9
$CELTSCALE
 40
1.0
  9
$DISPSILH
 70
     0
  9
$DIMSCALE
 40
2.0
  9
$DIMASZ
 40
3.0
  9
$DIMEXO
 40
2.0
  9
$DIMDLI
 40
0.38
  9
$DIMRND
 40
0.0
  9
$DIMDLE
 40
0.0
  9
$DIMEXE
 40
2.0
  9
$DIMTP
 40
0.0
  9
$DIMTM
 40
0.0
  9
$DIMTXT
 40
3.2
  9
$DIMCEN
 40
0.09
  9
$DIMTSZ
 40
0.0
  9
$DIMTOL
 70
     0
  9
$DIMLIM
 70
     0
  9
$DIMTIH
 70
     0
  9
$DIMTOH
 70
     0
  9
$DIMSE1
 70
     0
  9
$DIMSE2
 70
     0
  9
$DIMTAD
 70
     1
  9
$DIMZIN
 70
     0
  9
$DIMBLK
  1

  9
$DIMASO
 70
     0
  9
$DIMSHO
 70
     0
  9
$DIMPOST
  1

  9
$DIMAPOST
  1

  9
$DIMALT
 70
     0
  9
$DIMALTD
 70
     2
  9
$DIMALTF
 40
25.4
  9
$DIMLFAC
 40
1.0
  9
$DIMTOFL
 70
     0
  9
$DIMTVP
 40
1.6
  9
$DIMTIX
 70
     1
  9
$DIMSOXD
 70
     0
  9
$DIMSAH
 70
     0
  9
$DIMBLK1
  1

  9
$DIMBLK2
  1

  9
$DIMSTYLE
  2
STANDARD
  9
$DIMCLRD
 70
     0
  9
$DIMCLRE
 70
     0
  9
$DIMCLRT
 70
     0
  9
$DIMTFAC
 40
1.0
  9
$DIMGAP
 40
0.09
  9
$DIMJUST
 70
     0
  9
$DIMSD1
 70
     0
  9
$DIMSD2
 70
     0
  9
$DIMTOLJ
 70
     1
  9
$DIMTZIN
 70
     0
  9
$DIMALTZ
 70
     0
  9
$DIMALTTZ
 70
     0
  9
$DIMUPT
 70
     0
  9
$DIMDEC
 70
     4
  9
$DIMTDEC
 70
     4
  9
$DIMALTU
 70
     2
  9
$DIMALTTD
 70
     2
  9
$DIMTXSTY
  7
BIGFONT
  9
$DIMAUNIT
 70
     0
  9
$DIMADEC
 70
     0
  9
$DIMALTRND
 40
0.0
  9
$DIMAZIN
 70
     0
  9
$DIMDSEP
 70
    46
  9
$DIMATFIT
 70
     3
  9
$DIMFRAC
 70
     0
  9
$DIMLDRBLK
  1

  9
$DIMLUNIT
 70
     2
  9
$DIMLWD
 70
    -2
  9
$DIMLWE
 70
    -2
  9
$DIMTMOVE
 70
     0
  9
$LUNITS
 70
     2
  9
$LUPREC
 70
     4
  9
$SKETCHINC
 40
0.1
  9
$FILLETRAD
 40
0.0
  9
$AUNITS
 70
     0
  9
$AUPREC
 70
     0
  9
$MENU
  1
ACAD
  9
$ELEVATION
 40
0.0
  9
$PELEVATION
 40
0.0
  9
$THICKNESS
 40
0.0
  9
$LIMCHECK
 70
     0
  9
$CHAMFERA
 40
0.0
  9
$CHAMFERB
 40
0.0
  9
$CHAMFERC
 40
0.0
  9
$CHAMFERD
 40
0.0
  9
$SKPOLY
 70
     0
  9
$TDCREATE
 40
2450861.873533680
  9
$TDUCREATE
 40
2450861.498533680
  9
$TDUPDATE
 40
2456448.456486898
  9
$TDUUPDATE
 40
2456448.081486898
  9
$TDINDWG
 40
0.0057617245
  9
$TDUSRTIMER
 40
0.0057615509
  9
$USRTIMER
 70
     1
  9
$ANGBASE
 50
0.0
  9
$ANGDIR
 70
     0
  9
$PDMODE
 70
     0
  9
$PDSIZE
 40
0.0
  9
$PLINEWID
 40
0.0
  9
$SPLFRAME
 70
     0
  9
$SPLINETYPE
 70
     6
  9
$SPLINESEGS
 70
     8
  9
$HANDSEED
  5
6F8
  9
$SURFTAB1
 70
     6
  9
$SURFTAB2
 70
     6
  9
$SURFTYPE
 70
     6
  9
$SURFU
 70
     6
  9
$SURFV
 70
     6
  9
$UCSBASE
  2

  9
$UCSNAME
  2

  9
$UCSORG
 10
0.0
 20
0.0
 30
0.0
  9
$UCSXDIR
 10
1.0
 20
0.0
 30
0.0
  9
$UCSYDIR
 10
0.0
 20
1.0
 30
0.0
  9
$UCSORTHOREF
  2

  9
$UCSORTHOVIEW
 70
     0
  9
$UCSORGTOP
 10
0.0
 20
0.0
 30
0.0
  9
$UCSORGBOTTOM
 10
0.0
 20
0.0
 30
0.0
  9
$UCSORGLEFT
 10
0.0
 20
0.0
 30
0.0
  9
$UCSORGRIGHT
 10
0.0
 20
0.0
 30
0.0
  9
$UCSORGFRONT
 10
0.0
 20
0.0
 30
0.0
  9
$UCSORGBACK
 10
0.0
 20
0.0
 30
0.0
  9
$PUCSBASE
  2

  9
$PUCSNAME
  2

  9
$PUCSORG
 10
0.0
 20
0.0
 30
0.0
  9
$PUCSXDIR
 10
1.0
 20
0.0
 30
0.0
  9
$PUCSYDIR
 10
0.0
 20
1.0
 30
0.0
  9
$PUCSORTHOREF
  2

  9
$PUCSORTHOVIEW
 70
     0
  9
$PUCSORGTOP
 10
0.0
 20
0.0
 30
0.0
  9
$PUCSORGBOTTOM
 10
0.0
 20
0.0
 30
0.0
  9
$PUCSORGLEFT
 10
0.0
 20
0.0
 30
0.0
  9
$PUCSORGRIGHT
 10
0.0
 20
0.0
 30
0.0
  9
$PUCSORGFRONT
 10
0.0
 20
0.0
 30
0.0
  9
$PUCSORGBACK
 10
0.0
 20
0.0
 30
0.0
  9
$USERI1
 70
     0
  9
$USERI2
 70
     0
  9
$USERI3
 70
     0
  9
$USERI4
 70
     0
  9
$USERI5
 70
     0
  9
$USERR1
 40
0.0
  9
$USERR2
 40
0.0
  9
$USERR3
 40
0.0
  9
$USERR4
 40
0.0
  9
$USERR5
 40
0.0
  9
$WORLDVIEW
 70
     1
  9
$SHADEDGE
 70
     3
  9
$SHADEDIF
 70
    70
  9
$TILEMODE
 70
     1
  9
$MAXACTVP
 70
    16
  9
$PINSBASE
 10
0.0
 20
0.0
 30
0.0
  9
$PLIMCHECK
 70
     0
  9
$PEXTMIN
 10
1.000000000000000E+20
 20
1.000000000000000E+20
 30
1.000000000000000E+20
  9
$PEXTMAX
 10
-1.000000000000000E+20
 20
-1.000000000000000E+20
 30
-1.000000000000000E+20
  9
$PLIMMIN
 10
0.0
 20
0.0
  9
$PLIMMAX
 10
12.0
 20
9.0
  9
$UNITMODE
 70
     0
  9
$VISRETAIN
 70
     0
  9
$PLINEGEN
 70
     1
  9
$PSLTSCALE
 70
     0
  9
$TREEDEPTH
 70
  3020
  9
$CMLSTYLE
  2
STANDARD
  9
$CMLJUST
 70
     0
  9
$CMLSCALE
 40
1.0
  9
$PROXYGRAPHICS
 70
     1
  9
$MEASUREMENT
 70
     0
  9
$CELWEIGHT
370
    -1
  9
$ENDCAPS
280
     0
  9
$JOINSTYLE
280
     0
  9
$LWDISPLAY
290
     0
  9
$INSUNITS
 70
     0
  9
$HYPERLINKBASE
  1

  9
$STYLESHEET
  1

  9
$XEDIT
290
     1
  9
$CEPSNTYPE
380
     0
  9
$PSTYLEMODE
290
     1
  9
$FINGERPRINTGUID
  2
{C16EB21B-DF1F-4E31-994E-45190B502D45}
  9
$VERSIONGUID
  2
{B3675121-3FA9-4361-8AB7-20EA9962145E}
  9
$EXTNAMES
290
     1
  9
$PSVPSCALE
 40
0.0
  9
$OLESTARTUP
290
     0
  0
ENDSEC
  0
SECTION
  2
CLASSES
  0
CLASS
  1
DICTIONARYVAR
  2
AcDbDictionaryVar
  3
AutoCAD 2000
 90
        0
280
     0
281
     0
  0
CLASS
  1
ACDBDICTIONARYWDFLT
  2
AcDbDictionaryWithDefault
  3
AutoCAD 2000
 90
        0
280
     0
281
     0
  0
CLASS
  1
ACDBPLACEHOLDER
  2
AcDbPlaceHolder
  3
AutoCAD 2000
 90
        0
280
     0
281
     0
  0
CLASS
  1
LAYOUT
  2
AcDbLayout
  3
AutoCAD 2000
 90
        0
280
     0
281
     0
  0
CLASS
  1
AMGSETTINGSOBJ
  2
AmgSettingsObj
  3
"AcadM|Product Description: AutoCAD Mechanical 2000|Company: Autodesk"
 90
        0
280
     0
281
     0
  0
CLASS
  1
ACME_DOCUMENT
  2
AcMeDbDoc
  3
AcMeServices
 90
        0
280
     0
281
     0
  0
CLASS
  1
ACMESCOPE
  2
AcMeScope
  3
AcMeServices
 90
        0
280
     0
281
     0
  0
CLASS
  1
ACMECOMMANDHISTORY
  2
AcMeCommandHistory
  3
AcMeServices
 90
        0
280
     0
281
     0
  0
CLASS
  1
ACIMSYSVARMAN
  2
AcImSysVarManager
  3
AcMeServices
 90
        0
280
     0
281
     0
  0
CLASS
  1
ACIMREALSYSVAR
  2
AcImRealSysVar
  3
AcMeServices
 90
        0
280
     0
281
     0
  0
CLASS
  1
ACIMINTSYSVAR
  2
AcImIntSysVar
  3
AcMeServices
 90
        0
280
     0
281
     0
  0
CLASS
  1
ACMEDRAWINGMAN
  2
AcMeDrawingMan
  3
AcMeServices
 90
        0
280
     0
281
     0
  0
CLASS
  1
ACMEVIEW
  2
AcMeView
  3
AcMeServices
 90
        0
280
     0
281
     0
  0
CLASS
  1
ACDBENTITYCACHE
  2
AcMeEntityCache
  3
AcMeServices
 90
        0
280
     0
281
     0
  0
CLASS
  1
GSMANAGER
  2
AcMeGSManager
  3
AcMeServices
 90
        0
280
     0
281
     0
  0
CLASS
  1
AMDTINTERNALREACTOR
  2
AmdtInternalReactor
  3
AcMeServices
 90
        0
280
     0
281
     0
  0
CLASS
  1
ACMESTATEMGR
  2
AcMeStateMgr
  3
AcMeServices
 90
        0
280
     0
281
     0
  0
CLASS
  1
ACGREFMASTER
  2
AcGrefMaster
  3
AcAttribServices
 90
        0
280
     0
281
     0
  0
CLASS
  1
AM_DRAWING_MGR
  2
AcDmDwgMgr
  3
AcMechDwgViewMgmt
 90
        0
280
     0
281
     0
  0
CLASS
  1
AM_DWG_DOCUMENT
  2
AcDmDwgDocument
  3
AcMechDwgViewMgmt
 90
        0
280
     0
281
     0
  0
CLASS
  1
AM_DWG_SHEET
  2
AcDmSheet
  3
AcMechDwgViewMgmt
 90
        0
280
     0
281
     0
  0
CLASS
  1
AM_VIEWDIMPARMAP
  2
AcDmViewDimParMap
  3
AcMechDwgViewMgmt
 90
        0
280
     0
281
     0
  0
CLASS
  1
AM_DWGMGR_NAME
  2
AcDmDwgMgrName
  3
AcMechDwgViewMgmt
 90
        0
280
     0
281
     0
  0
CLASS
  1
ACME_DATABASE
  2
AcMeDbDatabase
  3
AcMeServices
 90
        0
280
     0
281
     0
  0
CLASS
  1
ACRFINSADJUSTERMGR
  2
AcRfInsAdjusterMgr
  3
AcMeServices
 90
        0
280
     0
281
     0
  0
CLASS
  1
ACGREFACADMASTER
  2
AcGrefacadMaster
  3
AcGrefServices
 90
        0
280
     0
281
     0
  0
CLASS
  1
AMDTMENUSTATEMGR
  2
AmdtMenuStateMgr
  3
McadcomServices
 90
        0
280
     0
281
     0
  0
CLASS
  1
AMDTMCOMMENUSTATE
  2
AmdtMcomMenuState
  3
McadcomServices
 90
        0
280
     0
281
     0
  0
CLASS
  1
AMIMASTER
  2
AmiMaster
  3
AmiServices
 90
        0
280
     0
281
     0
  0
CLASS
  1
ASAPP
  2
AcAsAppObject
  3
AutoSurfServices
 90
        0
280
     0
281
     0
  0
CLASS
  1
IM_STATIC_MAN
  2
AcImStaticVarManager
  3
AcMeServices
 90
        0
280
     0
281
     0
  0
CLASS
  1
ACIMSTRSYSVAR
  2
AcImStrSysVar
  3
AcMeServices
 90
        0
280
     0
281
     0
  0
CLASS
  1
ACIMDBLSTATICVAR
  2
AcImDblStaticVar
  3
AcMeServices
 90
        0
280
     0
281
     0
  0
CLASS
  1
ACIMSTRSTATICVAR
  2
AcImStrStaticVar
  3
AcMeServices
 90
        0
280
     0
281
     0
  0
CLASS
  1
ACIMINTSTATICVAR
  2
AcImIntStaticVar
  3
AcMeServices
 90
        0
280
     0
281
     0
  0
CLASS
  1
ACASGREFMASTER
  2
AcAsGrefMaster
  3
AutoSurfResolverServices
 90
        0
280
     0
281
     0
  0
CLASS
  1
ACADGREFMODULE
  2
AcAdGrefModule
  3
AdGrefServices
 90
        0
280
     0
281
     0
  0
CLASS
  1
AMDTMAPISURFMOUDULE
  2
AmdtMApiSurfModule
  3
MApiSurfServices
 90
    32768
280
     0
281
     0
  0
CLASS
  1
MAPIAMMOUDLE
  2
MApiAmModule
  3
MApiAmServices
 90
        0
280
     0
281
     0
  0
CLASS
  1
AMDTADMENUSTATE
  2
AmdtAdMenuState
  3
DesignerServices
 90
        0
280
     0
281
     0
  0
CLASS
  1
ADAPPL
  2
AcAdAppl
  3
DesignerServices
 90
        0
280
     0
281
     0
  0
CLASS
  1
DEPMGR
  2
AcAdDepMgr
  3
DesignerServices
 90
        0
280
     0
281
     0
  0
CLASS
  1
PARAMMGR
  2
AcAdParamMgr
  3
DesignerServices
 90
        0
280
     0
281
     0
  0
CLASS
  1
PARAMSCOPE
  2
AcAdParamScope
  3
DesignerServices
 90
        0
280
     0
281
     0
  0
CLASS
  1
NAMEDAPPL
  2
AcAdNamedAppl
  3
DesignerServices
 90
        0
280
     0
281
     0
  0
CLASS
  1
AMDTDMMENUSTATE
  2
AmdtDmMenuState
  3
AcMechDwgViewMgmt
 90
        0
280
     0
281
     0
  0
CLASS
  1
MAPIADMODULE
  2
MApiAdModule
  3
MApiAdServices
 90
        0
280
     0
281
     0
  0
CLASS
  1
AMDTAMMENUSTATE
  2
AmdtAmMenuState
  3
DesignerAssemblies
 90
        0
280
     0
281
     0
  0
CLASS
  1
ACAMPROJECT
  2
AcAmProject
  3
DesignerAssemblies
 90
        0
280
     0
281
     0
  0
CLASS
  1
ACAMGRCOMPDEF
  2
AcAmGrCompDef
  3
DesignerAssemblies
 90
        0
280
     0
281
     0
  0
CLASS
  1
ACCMCONTEXT
  2
AcCmContext
  3
DesignerAssemblies
 90
        0
280
     0
281
     0
  0
CLASS
  1
ACAMCOMPDEF
  2
AcAmCompDef
  3
DesignerAssemblies
 90
        0
280
     0
281
     0
  0
CLASS
  1
ACAMCOMPDEFMGR
  2
AcAmCompDefMgr
  3
DesignerAssemblies
 90
        0
280
     0
281
     0
  0
CLASS
  1
AMCONTEXTMGR
  2
AcAmContextMgr
  3
DesignerAssemblies
 90
        0
280
     0
281
     0
  0
CLASS
  1
ACAMCONTEXTMODELER
  2
AcAmContextModeler
  3
DesignerAssemblies
 90
        0
280
     0
281
     0
  0
CLASS
  1
ACMDATADICTIONARY
  2
AcmDataDictionary
  3
"AcmSymBB|Product Description: AutoCAD Mechanical 2000|Company: Autodesk"
 90
        0
280
     0
281
     0
  0
CLASS
  1
ACMDATAENTRYBLOCK
  2
AcmDataEntryBlock
  3
"AcmSymBB|Product Description: AutoCAD Mechanical 2000|Company: Autodesk"
 90
        0
280
     0
281
     0
  0
CLASS
  1
CATALOGSTATE
  2
AcAmCatalogState
  3
DesignerAssemblies
 90
        0
280
     0
281
     0
  0
CLASS
  1
ACAMGRCOMPDEFSET
  2
AcAmGrCompDefSet
  3
DesignerAssemblies
 90
        0
280
     0
281
     0
  0
CLASS
  1
AMDTBROWSERDBTAB
  2
AmdtBrowserDbTab
  3
McadcomServices
 90
        0
280
     0
281
     0
  0
CLASS
  1
CBROWSERAPPOBJECT
  2
CBrowserAppObject
  3
McadcomServices
 90
        0
280
     0
281
     0
  0
CLASS
  1
DM_PLACEHOLDER
  2
AcDmSelsetPlaceholder
  3
AcMechDwgViewMgmt
 90
        0
280
     0
281
     0
  0
CLASS
  1
AMGOBJPROPCFG
  2
AmgObjPropCfg
  3
"AmgLay|Product Description: AutoCAD Mechanical 2000|Company: Autodesk"
 90
        1
280
     0
281
     0
  0
CLASS
  1
ACAMGFILTERDAT
  2
AcAmgFilterDat
  3
"AcadM|Product Description: AutoCAD Mechanical 2000|Company: Autodesk"
 90
        0
280
     0
281
     0
  0
CLASS
  1
AMDTFORMULAUPDATEDISPATCHER
  2
AmdtFormulaUpdateDispatcher
  3
AcMeServices
 90
        0
280
     0
281
     0
  0
CLASS
  1
LAYER_INDEX
  2
AcDbLayerIndex
  3
AutoCAD 2000
 90
        0
280
     0
281
     0
  0
CLASS
  1
IDBUFFER
  2
AcDbIdBuffer
  3
AutoCAD 2000
 90
        0
280
     0
281
     0
  0
ENDSEC
  0
SECTION
  2
TABLES
  0
TABLE
  2
VPORT
  5
15A
330
0
100
AcDbSymbolTable
 70
     3
  0
VPORT
  5
6F7
330
15A
100
AcDbSymbolTableRecord
100
AcDbViewportTableRecord
  2
*Active
 70
     0
 10
0.0
 20
0.0
 11
1.0
 21
1.0
 12
0.0
 22
0.0
 13
0.0
 23
0.0
 14
10.0
 24
10.0
 15
10.0
 25
10.0
 16
0.0
 26
0.0
 36
1.0
 17
158.2634192995078
 27
151.3072212843079
 37
0.0
 40
264.9790562253205
 41
1.489721886336154
 42
50.0
 43
0.0
 44
0.0
 50
0.0
 51
0.0
 71
     0
 72
 20000
 73
     1
 74
     1
 75
     0
 76
     0
 77
     0
 78
     0
281
     0
 65
     0
110
0.0
120
0.0
130
0.0
111
1.0
121
0.0
131
0.0
112
0.0
122
1.0
132
0.0
 79
     0
146
0.0
  0
ENDTAB
  0
TABLE
  2
LTYPE
  5
157
330
0
100
AcDbSymbolTable
 70
    19
  0
LTYPE
  5
163
330
157
100
AcDbSymbolTableRecord
100
AcDbLinetypeTableRecord
  2
BYBLOCK
 70
     0
  3

 72
    65
 73
     0
 40
0.0
  0
LTYPE
  5
164
330
157
100
AcDbSymbolTableRecord
100
AcDbLinetypeTableRecord
  2
BYLAYER
 70
     0
  3

 72
    65
 73
     0
 40
0.0
  0
LTYPE
  5
165
330
157
100
AcDbSymbolTableRecord
100
AcDbLinetypeTableRecord
  2
CONTINUOUS
 70
     0
  3
実線
 72
    65
 73
     0
 40
0.0
  0
LTYPE
  5
173
330
157
100
AcDbSymbolTableRecord
100
AcDbLinetypeTableRecord
  2
CENTER
 70
     0
  3
____ _ ____ _ ____ _ ____ _ ____ _ ____ _ ____
 72
    65
 73
     4
 40
2.0
 49
1.25
 74
     0
 49
-0.25
 74
     0
 49
0.25
 74
     0
 49
-0.25
 74
     0
  0
LTYPE
  5
174
330
157
100
AcDbSymbolTableRecord
100
AcDbLinetypeTableRecord
  2
HIDDEN
 70
     0
  3
_ _ _ _ _ _ _ _ _ _ _ _ _ _ _ _ _ _ _ _ _ _ _
 72
    65
 73
     2
 40
0.375
 49
0.25
 74
     0
 49
-0.125
 74
     0
  0
LTYPE
  5
175
330
157
100
AcDbSymbolTableRecord
100
AcDbLinetypeTableRecord
  2
TENSEN1
 70
     0
  3

 72
    65
 73
     2
 40
0.4
 49
0.3
 74
     0
 49
-0.1
 74
     0
  0
LTYPE
  5
1BC
330
157
100
AcDbSymbolTableRecord
100
AcDbLinetypeTableRecord
  2
PHANTOM2
 70
     0
  3
Phantom (.5x) ___ _ _ ___ _ _ ___ _ _ ___ _ _
 72
    65
 73
     6
 40
1.25
 49
0.625
 74
     0
 49
-0.125
 74
     0
 49
0.125
 74
     0
 49
-0.125
 74
     0
 49
0.125
 74
     0
 49
-0.125
 74
     0
  0
LTYPE
  5
21E
330
157
100
AcDbSymbolTableRecord
100
AcDbLinetypeTableRecord
  2
ASULTYPE
 70
     0
  3
実線
 72
    65
 73
     2
 40
3.0
 49
2.5
 74
     0
 49
0.5
 74
     0
  0
LTYPE
  5
21F
330
157
100
AcDbSymbolTableRecord
100
AcDbLinetypeTableRecord
  2
ASVLTYPE
 70
     0
  3
__ __ __ __ __ __ __ __ __ __ __ __ __ __ __ __ __ __ __ __ __
 72
    65
 73
     2
 40
0.75
 49
0.5
 74
     0
 49
-0.25
 74
     0
  0
LTYPE
  5
260
330
157
100
AcDbSymbolTableRecord
100
AcDbLinetypeTableRecord
  2
AM_ISO02W050
 70
     0
  3
__ __ __ __ __ __ __ __ __ __ __ __ __ __ __
 72
    65
 73
     2
 40
7.5
 49
6.0
 74
     0
 49
-1.5
 74
     0
  0
LTYPE
  5
261
330
157
100
AcDbSymbolTableRecord
100
AcDbLinetypeTableRecord
  2
AM_ISO08W050
 70
     0
  3
____ . ____ . ____ . ____ . ____ . ____ . ____
 72
    65
 73
     4
 40
18.0
 49
12.0
 74
     0
 49
-1.5
 74
     0
 49
3.0
 74
     0
 49
-1.5
 74
     0
  0
LTYPE
  5
262
330
157
100
AcDbSymbolTableRecord
100
AcDbLinetypeTableRecord
  2
AM_ISO09W050
 70
     0
  3
_____ . . _____ . . _____ . . ____ .. ____
 72
    65
 73
     6
 40
22.5
 49
12.0
 74
     0
 49
-1.5
 74
     0
 49
3.0
 74
     0
 49
-1.5
 74
     0
 49
3.0
 74
     0
 49
-1.5
 74
     0
  0
LTYPE
  5
263
330
157
100
AcDbSymbolTableRecord
100
AcDbLinetypeTableRecord
  2
Amconstr
 70
     0
  3
_______________________
 72
    65
 73
     2
 40
9999.0
 49
9999.0
 74
     0
 49
0.0
 74
     0
  0
LTYPE
  5
264
330
157
100
AcDbSymbolTableRecord
100
AcDbLinetypeTableRecord
  2
AM_ISO08W050x2
 70
     0
  3
__ . __ . __ . __ . __ . __
 72
    65
 73
     4
 40
9.0
 49
6.0
 74
     0
 49
-0.75
 74
     0
 49
1.5
 74
     0
 49
-0.75
 74
     0
  0
LTYPE
  5
265
330
157
100
AcDbSymbolTableRecord
100
AcDbLinetypeTableRecord
  2
AM_ISO02W050x2
 70
     0
  3
 _ _ _ _ _ _ _ _ _ _ _ _
 72
    65
 73
     2
 40
3.75
 49
3.0
 74
     0
 49
-0.75
 74
     0
  0
LTYPE
  5
268
330
157
100
AcDbSymbolTableRecord
100
AcDbLinetypeTableRecord
  2
Amzigzag
 70
     0
  3
/\/-/\/-/\/-/\/-/\/-/\/
 72
    65
 73
     2
 40
11.00009999999999
 49
0.0001
 74
     4
 75
   135
340
267
 46
0.04
 50
0.0
 44
0.0
 45
0.0
 49
-11.0
 74
     0
  0
LTYPE
  5
269
330
157
100
AcDbSymbolTableRecord
100
AcDbLinetypeTableRecord
  2
CENTER2
 70
     0
  3
Center (.5x) ___ _ ___ _ ___ _ ___ _ ___ _ ___
 72
    65
 73
     4
 40
1.125
 49
0.75
 74
     0
 49
-0.125
 74
     0
 49
0.125
 74
     0
 49
-0.125
 74
     0
  0
LTYPE
  5
26A
330
157
100
AcDbSymbolTableRecord
100
AcDbLinetypeTableRecord
  2
HIDDEN2
 70
     0
  3
Hidden (.5x) _ _ _ _ _ _ _ _ _ _ _ _ _ _ _ _ _
 72
    65
 73
     2
 40
0.1875
 49
0.125
 74
     0
 49
-0.0625
 74
     0
  0
LTYPE
  5
26B
330
157
100
AcDbSymbolTableRecord
100
AcDbLinetypeTableRecord
  2
Amzigzag2
 70
     0
  3
/\/-/\/-/\/-/\/-/\/-/\/
 72
    65
 73
     2
 40
0.4401
 49
0.0001
 74
     4
 75
   135
340
267
 46
0.0016
 50
0.0
 44
0.0
 45
0.0
 49
-0.4400000000000002
 74
     0
  0
LTYPE
  5
337
330
157
100
AcDbSymbolTableRecord
100
AcDbLinetypeTableRecord
  2
TENSEN
 70
     0
  3

 72
    65
 73
     2
 40
4.0
 49
3.0
 74
     0
 49
-1.0
 74
     0
  0
LTYPE
  5
338
330
157
100
AcDbSymbolTableRecord
100
AcDbLinetypeTableRecord
  2
ITTEN1
 70
     0
  3

 72
    65
 73
     4
 40
8.199999999999999
 49
5.0
 74
     0
 49
-1.0
 74
     0
 49
1.199999999999999
 74
     0
 49
-1.0
 74
     0
  0
ENDTAB
  0
TABLE
  2
LAYER
  5
154
330
0
100
AcDbSymbolTable
 70
     8
  0
LAYER
  5
160
330
154
100
AcDbSymbolTableRecord
100
AcDbLayerTableRecord
  2
0
 70
     0
 62
     7
  6
CONTINUOUS
370
    -3
390
192
  0
LAYER
  5
179
330
154
100
AcDbSymbolTableRecord
100
AcDbLayerTableRecord
  2
1
 70
     0
 62
     1
  6
CENTER
370
    -3
390
192
  0
LAYER
  5
17A
330
154
100
AcDbSymbolTableRecord
100
AcDbLayerTableRecord
  2
3
 70
     0
 62
     7
  6
CONTINUOUS
370
    -3
390
192
  0
LAYER
  5
17B
330
154
100
AcDbSymbolTableRecord
100
AcDbLayerTableRecord
  2
4
 70
     0
 62
     4
  6
CONTINUOUS
370
    -3
390
192
  0
LAYER
  5
17C
330
154
100
AcDbSymbolTableRecord
100
AcDbLayerTableRecord
  2
10
 70
     0
 62
     7
  6
CONTINUOUS
370
    -3
390
192
  0
LAYER
  5
17D
330
154
100
AcDbSymbolTableRecord
100
AcDbLayerTableRecord
  2
11
 70
     0
 62
     7
  6
CONTINUOUS
370
    -3
390
192
  0
LAYER
  5
17E
330
154
100
AcDbSymbolTableRecord
100
AcDbLayerTableRecord
  2
2
 70
     0
 62
     7
  6
TENSEN1
370
    -3
390
192
  0
LAYER
  5
339
330
154
100
AcDbSymbolTableRecord
100
AcDbLayerTableRecord
  2
DEFPOINTS
 70
     0
 62
     7
  6
CONTINUOUS
290
     0
370
    -3
390
192
  0
ENDTAB
  0
TABLE
  2
STYLE
  5
155
330
0
100
AcDbSymbolTable
 70
     5
  0
STYLE
  5
161
330
155
100
AcDbSymbolTableRecord
100
AcDbTextStyleTableRecord
  2
STANDARD
 70
     0
 40
6.0
 41
1.0
 50
0.0
 71
     0
 42
0.2
  3
TXT.shx
  4
extfont.shx
  0
STYLE
  5
170
330
155
100
AcDbSymbolTableRecord
100
AcDbTextStyleTableRecord
  2
K80
 70
     0
 40
0.0
 41
0.8
 50
0.0
 71
     0
 42
0.2
  3
TXT
  4
BIGFONT
  0
STYLE
  5
171
330
155
100
AcDbSymbolTableRecord
100
AcDbTextStyleTableRecord
  2
07500
 70
     0
 40
0.0
 41
0.75
 50
0.0
 71
     0
 42
6.0
  3
TXT
  4
BIGFONT
  0
STYLE
  5
172
330
155
100
AcDbSymbolTableRecord
100
AcDbTextStyleTableRecord
  2
BIGFONT
 70
     0
 40
10.0
 41
0.8
 50
0.0
 71
     0
 42
10.0
  3

  4
bigfont
  0
STYLE
  5
267
330
155
100
AcDbSymbolTableRecord
100
AcDbTextStyleTableRecord
  2

 70
     1
 40
0.0
 41
1.0
 50
0.0
 71
     0
 42
10.0
  3
ltypeshp.shx
  4

  0
ENDTAB
  0
TABLE
  2
VIEW
  5
158
330
0
100
AcDbSymbolTable
 70
     1
  0
VIEW
  5
176
330
158
100
AcDbSymbolTableRecord
100
AcDbViewTableRecord
  2
ALL
 70
     0
 40
540.0
 10
441.9831929999999
 20
270.0
 41
0.0
 11
0.0
 21
0.0
 31
1.0
 12
0.0
 22
0.0
 32
0.0
 42
50.0
 43
0.0
 44
0.0
 50
0.0
 71
     0
281
     0
 72
     0
  0
ENDTAB
  0
TABLE
  2
UCS
  5
159
330
0
100
AcDbSymbolTable
 70
     0
  0
ENDTAB
  0
TABLE
  2
APPID
  5
15B
330
0
100
AcDbSymbolTable
 70
    12
  0
APPID
  5
162
330
15B
100
AcDbSymbolTableRecord
100
AcDbRegAppTableRecord
  2
ACAD
 70
     0
  0
APPID
  5
19B
330
15B
100
AcDbSymbolTableRecord
100
AcDbRegAppTableRecord
  2
GENIUS_GENDIM_13
 70
     0
  0
APPID
  5
19C
330
15B
100
AcDbSymbolTableRecord
100
AcDbRegAppTableRecord
  2
GENIUS_GENDTOL_13
 70
     0
  0
APPID
  5
19D
330
15B
100
AcDbSymbolTableRecord
100
AcDbRegAppTableRecord
  2
GENIUS_GE3DTOL_13
 70
     0
  0
APPID
  5
19F
330
15B
100
AcDbSymbolTableRecord
100
AcDbRegAppTableRecord
  2
MCAD_NO_VIS
 70
     0
  0
APPID
  5
1A0
330
15B
100
AcDbSymbolTableRecord
100
AcDbRegAppTableRecord
  2
ACAD_TEMP_GRAPHIC
 70
     0
  0
APPID
  5
1D1
330
15B
100
AcDbSymbolTableRecord
100
AcDbRegAppTableRecord
  2
AD_DRAW
 70
     0
  0
APPID
  5
1D4
330
15B
100
AcDbSymbolTableRecord
100
AcDbRegAppTableRecord
  2
ACATTRIBSERVICES
 70
     0
  0
APPID
  5
220
330
15B
100
AcDbSymbolTableRecord
100
AcDbRegAppTableRecord
  2
ASURF_PCURVE_APPNAME
 70
     0
  0
APPID
  5
24F
330
15B
100
AcDbSymbolTableRecord
100
AcDbRegAppTableRecord
  2
DESIGNERASSEMBLIES
 70
     0
  0
APPID
  5
257
330
15B
100
AcDbSymbolTableRecord
100
AcDbRegAppTableRecord
  2
ACADM_DIM_EDIT
 70
     0
  0
APPID
  5
258
330
15B
100
AcDbSymbolTableRecord
100
AcDbRegAppTableRecord
  2
AMDT_DM_ADJ
 70
     0
  0
ENDTAB
  0
TABLE
  2
DIMSTYLE
  5
15C
330
0
100
AcDbSymbolTable
 70
     1
100
AcDbDimStyleTable
 71
     1
340
178
  0
DIMSTYLE
105
178
330
15C
100
AcDbSymbolTableRecord
100
AcDbDimStyleTableRecord
  2
STANDARD
 70
     0
340
172
  0
ENDTAB
  0
TABLE
  2
BLOCK_RECORD
  5
153
330
0
100
AcDbSymbolTable
 70
    30
  0
BLOCK_RECORD
  5
169
102
{ACAD_XDICTIONARY
360
626
102
}
330
153
100
AcDbSymbolTableRecord
100
AcDbBlockTableRecord
  2
*MODEL_SPACE
340
195
  0
BLOCK_RECORD
  5
166
330
153
100
AcDbSymbolTableRecord
100
AcDbBlockTableRecord
  2
*PAPER_SPACE
340
196
  0
BLOCK_RECORD
  5
16E
330
153
100
AcDbSymbolTableRecord
100
AcDbBlockTableRecord
  2
WAKU
340
0
  0
BLOCK_RECORD
  5
16F
330
153
100
AcDbSymbolTableRecord
100
AcDbBlockTableRecord
  2
QQ
340
0
  0
BLOCK_RECORD
  5
246
330
153
100
AcDbSymbolTableRecord
100
AcDbBlockTableRecord
  2
*U2
340
0
  0
BLOCK_RECORD
  5
293
330
153
100
AcDbSymbolTableRecord
100
AcDbBlockTableRecord
  2
*D3
340
0
  0
BLOCK_RECORD
  5
2A0
330
153
100
AcDbSymbolTableRecord
100
AcDbBlockTableRecord
  2
*D4
340
0
  0
BLOCK_RECORD
  5
2AB
330
153
100
AcDbSymbolTableRecord
100
AcDbBlockTableRecord
  2
*D5
340
0
  0
BLOCK_RECORD
  5
2B8
330
153
100
AcDbSymbolTableRecord
100
AcDbBlockTableRecord
  2
*D6
340
0
  0
BLOCK_RECORD
  5
2C6
330
153
100
AcDbSymbolTableRecord
100
AcDbBlockTableRecord
  2
*D7
340
0
  0
BLOCK_RECORD
  5
2D3
330
153
100
AcDbSymbolTableRecord
100
AcDbBlockTableRecord
  2
*D8
340
0
  0
BLOCK_RECORD
  5
2E0
330
153
100
AcDbSymbolTableRecord
100
AcDbBlockTableRecord
  2
*D9
340
0
  0
BLOCK_RECORD
  5
2EB
330
153
100
AcDbSymbolTableRecord
100
AcDbBlockTableRecord
  2
*D10
340
0
  0
BLOCK_RECORD
  5
2F8
330
153
100
AcDbSymbolTableRecord
100
AcDbBlockTableRecord
  2
*D11
340
0
  0
BLOCK_RECORD
  5
305
330
153
100
AcDbSymbolTableRecord
100
AcDbBlockTableRecord
  2
*D12
340
0
  0
BLOCK_RECORD
  5
312
330
153
100
AcDbSymbolTableRecord
100
AcDbBlockTableRecord
  2
*D13
340
0
  0
BLOCK_RECORD
  5
31F
330
153
100
AcDbSymbolTableRecord
100
AcDbBlockTableRecord
  2
*D14
340
0
  0
BLOCK_RECORD
  5
32C
330
153
100
AcDbSymbolTableRecord
100
AcDbBlockTableRecord
  2
*D15
340
0
  0
BLOCK_RECORD
  5
467
330
153
100
AcDbSymbolTableRecord
100
AcDbBlockTableRecord
  2
*D16
340
0
  0
BLOCK_RECORD
  5
474
330
153
100
AcDbSymbolTableRecord
100
AcDbBlockTableRecord
  2
*D17
340
0
  0
BLOCK_RECORD
  5
47F
330
153
100
AcDbSymbolTableRecord
100
AcDbBlockTableRecord
  2
*D18
340
0
  0
BLOCK_RECORD
  5
48A
330
153
100
AcDbSymbolTableRecord
100
AcDbBlockTableRecord
  2
*D19
340
0
  0
BLOCK_RECORD
  5
497
330
153
100
AcDbSymbolTableRecord
100
AcDbBlockTableRecord
  2
*D20
340
0
  0
BLOCK_RECORD
  5
4A2
330
153
100
AcDbSymbolTableRecord
100
AcDbBlockTableRecord
  2
*D21
340
0
  0
BLOCK_RECORD
  5
4AF
330
153
100
AcDbSymbolTableRecord
100
AcDbBlockTableRecord
  2
*D22
340
0
  0
BLOCK_RECORD
  5
4BC
330
153
100
AcDbSymbolTableRecord
100
AcDbBlockTableRecord
  2
*D23
340
0
  0
BLOCK_RECORD
  5
4C9
330
153
100
AcDbSymbolTableRecord
100
AcDbBlockTableRecord
  2
*D24
340
0
  0
BLOCK_RECORD
  5
4D6
330
153
100
AcDbSymbolTableRecord
100
AcDbBlockTableRecord
  2
*D25
340
0
  0
BLOCK_RECORD
  5
4E3
330
153
100
AcDbSymbolTableRecord
100
AcDbBlockTableRecord
  2
*D26
340
0
  0
BLOCK_RECORD
  5
4F1
330
153
100
AcDbSymbolTableRecord
100
AcDbBlockTableRecord
  2
*D27
340
0
  0
BLOCK_RECORD
  5
4FE
330
153
100
AcDbSymbolTableRecord
100
AcDbBlockTableRecord
  2
*D28
340
0
  0
BLOCK_RECORD
  5
6DF
330
153
100
AcDbSymbolTableRecord
100
AcDbBlockTableRecord
  2
*U29
340
0
  0
ENDTAB
  0
ENDSEC
  0
SECTION
  2
BLOCKS
  0
BLOCK
  5
181
330
169
100
AcDbEntity
  8
0
100
AcDbBlockBegin
  2
*MODEL_SPACE
 70
     0
 10
0.0
 20
0.0
 30
0.0
  3
*MODEL_SPACE
  1

  0
ENDBLK
  5
182
330
169
100
AcDbEntity
  8
0
100
AcDbBlockEnd
  0
BLOCK
  5
17F
330
166
100
AcDbEntity
 67
     1
  8
0
100
AcDbBlockBegin
  2
*PAPER_SPACE
 70
     0
 10
0.0
 20
0.0
 30
0.0
  3
*PAPER_SPACE
  1

  0
ENDBLK
  5
180
330
166
100
AcDbEntity
 67
     1
  8
0
100
AcDbBlockEnd
  0
BLOCK
  5
31
330
16E
100
AcDbEntity
  8
0
100
AcDbBlockBegin
  2
WAKU
 70
     0
 10
549.0
 20
0.0
 30
0.0
  3
WAKU
  1

  0
LINE
  5
32
330
16E
100
AcDbEntity
  8
11
100
AcDbLine
 10
452.0
 20
12.0
 30
0.0
 11
549.0
 21
12.0
 31
0.0
  0
LINE
  5
33
330
16E
100
AcDbEntity
  8
11
100
AcDbLine
 10
477.0
 20
0.0
 30
0.0
 11
477.0
 21
12.0
 31
0.0
  0
LINE
  5
34
330
16E
100
AcDbEntity
  8
11
100
AcDbLine
 10
452.0
 20
12.0
 30
0.0
 11
452.0
 21
0.0
 31
0.0
  0
TEXT
  5
35
330
16E
100
AcDbEntity
  8
11
100
AcDbText
 10
454.0
 20
8.5
 30
0.0
 40
2.5
  1
尺度
100
AcDbText
  0
TEXT
  5
36
330
16E
100
AcDbEntity
  8
11
100
AcDbText
 10
479.0
 20
8.5
 30
0.0
 40
2.5
  1
図番
100
AcDbText
  0
ENDBLK
  5
37
330
16E
100
AcDbEntity
  8
0
100
AcDbBlockEnd
  0
BLOCK
  5
38
330
16F
100
AcDbEntity
  8
0
100
AcDbBlockBegin
  2
QQ
 70
     0
 10
270.0
 20
0.0
 30
0.0
  3
QQ
  1

  0
LINE
  5
39
330
16F
100
AcDbEntity
  8
11
100
AcDbLine
 10
173.0
 20
36.0
 30
0.0
 11
270.0
 21
36.0
 31
0.0
  0
TEXT
  5
3A
330
16F
100
AcDbEntity
  8
11
100
AcDbText
 10
175.0
 20
32.5
 30
0.0
 40
2.5
  1
部品名称
100
AcDbText
  0
LINE
  5
3B
330
16F
100
AcDbEntity
  8
11
100
AcDbLine
 10
173.0
 20
36.0
 30
0.0
 11
173.0
 21
0.0
 31
0.0
  0
LINE
  5
3C
330
16F
100
AcDbEntity
  8
11
100
AcDbLine
 10
173.0
 20
24.0
 30
0.0
 11
270.0
 21
24.0
 31
0.0
  0
TEXT
  5
3D
330
16F
100
AcDbEntity
  8
11
100
AcDbText
 10
175.0
 20
20.5
 30
0.0
 40
2.5
  1
品番
100
AcDbText
  0
LINE
  5
3E
330
16F
100
AcDbEntity
  8
11
100
AcDbLine
 10
173.0
 20
12.0
 30
0.0
 11
270.0
 21
12.0
 31
0.0
  0
TEXT
  5
3F
330
16F
100
AcDbEntity
  8
11
100
AcDbText
 10
175.0
 20
8.5
 30
0.0
 40
2.5
  1
尺度
100
AcDbText
  0
TEXT
  5
40
330
16F
100
AcDbEntity
  8
11
100
AcDbText
 10
200.0
 20
8.5
 30
0.0
 40
2.5
  1
図番
100
AcDbText
  0
LINE
  5
41
330
16F
100
AcDbEntity
  8
11
100
AcDbLine
 10
198.0
 20
0.0
 30
0.0
 11
198.0
 21
12.0
 31
0.0
  0
ENDBLK
  5
42
330
16F
100
AcDbEntity
  8
0
100
AcDbBlockEnd
  0
BLOCK
  5
247
330
246
100
AcDbEntity
  8
0
100
AcDbBlockBegin
  2
*U2
 70
     1
 10
0.0
 20
0.0
 30
0.0
  3
*U2
  1

  0
ENDBLK
  5
248
330
246
100
AcDbEntity
  8
0
100
AcDbBlockEnd
  0
BLOCK
  5
29E
330
293
100
AcDbEntity
  8
0
100
AcDbBlockBegin
  2
*D3
 70
     1
 10
0.0
 20
0.0
 30
0.0
  3
*D3
  1

  0
LINE
  5
294
330
293
100
AcDbEntity
  8
0
 62
     0
370
    -2
100
AcDbLine
 10
105.258675819223
 20
227.4999999999999
 30
0.0
 11
189.167032876005
 21
227.4999999999999
 31
0.0
  0
LINE
  5
295
330
293
100
AcDbEntity
  8
0
 62
     0
370
    -2
100
AcDbLine
 10
105.258675819223
 20
102.4999999999999
 30
0.0
 11
189.167032876005
 21
102.4999999999999
 31
0.0
  0
LINE
  5
296
330
293
100
AcDbEntity
  8
0
 62
     0
370
    -2
100
AcDbLine
 10
188.167032876005
 20
225.0
 30
0.0
 11
188.167032876005
 21
170.2321508164651
 31
0.0
  0
LINE
  5
297
330
293
100
AcDbEntity
  8
0
 62
     0
370
    -2
100
AcDbLine
 10
188.167032876005
 20
105.0
 30
0.0
 11
188.167032876005
 21
158.3854841497986
 31
0.0
  0
SOLID
  5
298
330
293
100
AcDbEntity
  8
0
 62
     0
100
AcDbTrace
 10
187.7503662093385
 20
225.0
 30
0.0
 11
188.5836995426718
 21
225.0
 31
0.0
 12
188.167032876005
 22
227.4999999999999
 32
0.0
 13
188.167032876005
 23
227.4999999999999
 33
0.0
  0
SOLID
  5
299
330
293
100
AcDbEntity
  8
0
 62
     0
100
AcDbTrace
 10
187.7503662093385
 20
105.0
 30
0.0
 11
188.5836995426718
 21
105.0
 31
0.0
 12
188.167032876005
 22
102.4999999999999
 32
0.0
 13
188.167032876005
 23
102.4999999999999
 33
0.0
  0
MTEXT
  5
29A
330
293
100
AcDbEntity
  8
0
 62
     0
100
AcDbMText
 10
188.167032876005
 20
164.3088174831319
 30
0.0
 40
5.0
 41
0.0
 71
     5
 72
     1
  1
\A1;125
 11
0.0000000000000001
 21
1.0
 31
0.0
 73
     1
 44
1.0
  0
POINT
  5
29B
330
293
100
AcDbEntity
  8
DEFPOINTS
 62
     0
100
AcDbPoint
 10
104.258675819223
 20
227.4999999999999
 30
0.0
  0
POINT
  5
29C
330
293
100
AcDbEntity
  8
DEFPOINTS
 62
     0
100
AcDbPoint
 10
104.258675819223
 20
102.4999999999999
 30
0.0
  0
POINT
  5
29D
330
293
100
AcDbEntity
  8
DEFPOINTS
 62
     0
100
AcDbPoint
 10
188.167032876005
 20
102.4999999999999
 30
0.0
  0
ENDBLK
  5
29F
330
293
100
AcDbEntity
  8
0
100
AcDbBlockEnd
  0
BLOCK
  5
2A9
330
2A0
100
AcDbEntity
  8
0
100
AcDbBlockBegin
  2
*D4
 70
     1
 10
0.0
 20
0.0
 30
0.0
  3
*D4
  1

  0
LINE
  5
2A1
330
2A0
100
AcDbEntity
  8
0
 62
     0
370
    -2
100
AcDbLine
 10
67.32850556617922
 20
245.6150309493969
 30
0.0
 11
69.82850556617925
 21
245.6150309493969
 31
0.0
  0
LINE
  5
2A2
330
2A0
100
AcDbEntity
  8
0
 62
     0
370
    -2
100
AcDbLine
 10
69.82850556617925
 20
245.6150309493969
 30
0.0
 11
98.53479548750776
 21
220.9233823686771
 31
0.0
  0
MTEXT
  5
2A3
330
2A0
100
AcDbEntity
  8
0
 62
     0
100
AcDbMText
 10
59.32183889951253
 20
245.6150309493969
 30
0.0
 40
5.0
 41
0.0
 71
     5
 72
     1
  1
\A1;\U+220510.1
 73
     1
 44
1.0
  0
SOLID
  5
2A4
330
2A0
100
AcDbEntity
  8
0
 62
     0
100
AcDbTrace
 10
98.80650533125376
 20
221.2392698042024
 30
0.0
 11
98.26308564376178
 21
220.6074949331521
 31
0.0
 12
100.4301201006585
 22
219.2931233062013
 32
0.0
 13
100.4301201006585
 23
219.2931233062013
 33
0.0
  0
LINE
  5
2A5
330
2A0
100
AcDbEntity
  8
0
 62
     0
370
    -2
100
AcDbLine
 10
104.168675819223
 20
215.9999999999999
 30
0.0
 11
104.348675819223
 21
215.9999999999999
 31
0.0
  0
LINE
  5
2A6
330
2A0
100
AcDbEntity
  8
0
 62
     0
370
    -2
100
AcDbLine
 10
104.258675819223
 20
215.9099999999999
 30
0.0
 11
104.2586758192231
 21
216.0899999999999
 31
0.0
  0
POINT
  5
2A7
330
2A0
100
AcDbEntity
  8
DEFPOINTS
 62
     0
100
AcDbPoint
 10
100.4301201006585
 20
219.2931233062013
 30
0.0
  0
POINT
  5
2A8
330
2A0
100
AcDbEntity
  8
DEFPOINTS
 62
     0
100
AcDbPoint
 10
108.0872315377875
 20
212.7068766937985
 30
0.0
  0
ENDBLK
  5
2AA
330
2A0
100
AcDbEntity
  8
0
100
AcDbBlockEnd
  0
BLOCK
  5
2B6
330
2AB
100
AcDbEntity
  8
0
100
AcDbBlockBegin
  2
*D5
 70
     1
 10
0.0
 20
0.0
 30
0.0
  3
*D5
  1

  0
LINE
  5
2AC
330
2AB
100
AcDbEntity
  8
0
 62
     0
370
    -2
100
AcDbLine
 10
119.7586758192229
 20
216.0
 30
0.0
 11
175.3859782555998
 21
216.0
 31
0.0
  0
LINE
  5
2AD
330
2AB
100
AcDbEntity
  8
0
 62
     0
370
    -2
100
AcDbLine
 10
171.2749203818388
 20
164.9999999999999
 30
0.0
 11
175.3859782555998
 21
164.9999999999999
 31
0.0
  0
LINE
  5
2AE
330
2AB
100
AcDbEntity
  8
0
 62
     0
370
    -2
100
AcDbLine
 10
174.3859782555998
 20
213.5
 30
0.0
 11
174.3859782555998
 21
195.3513060498366
 31
0.0
  0
LINE
  5
2AF
330
2AB
100
AcDbEntity
  8
0
 62
     0
370
    -2
100
AcDbLine
 10
174.3859782555998
 20
167.4999999999999
 30
0.0
 11
174.3859782555998
 21
188.5046393831698
 31
0.0
  0
SOLID
  5
2B0
330
2AB
100
AcDbEntity
  8
0
 62
     0
100
AcDbTrace
 10
173.9693115889331
 20
213.5
 30
0.0
 11
174.8026449222664
 21
213.5
 31
0.0
 12
174.3859782555998
 22
216.0
 32
0.0
 13
174.3859782555998
 23
216.0
 33
0.0
  0
SOLID
  5
2B1
330
2AB
100
AcDbEntity
  8
0
 62
     0
100
AcDbTrace
 10
173.9693115889331
 20
167.4999999999999
 30
0.0
 11
174.8026449222664
 21
167.4999999999999
 31
0.0
 12
174.3859782555998
 22
164.9999999999999
 32
0.0
 13
174.3859782555998
 23
164.9999999999999
 33
0.0
  0
MTEXT
  5
2B2
330
2AB
100
AcDbEntity
  8
0
 62
     0
100
AcDbMText
 10
174.3859782555998
 20
191.9279727165031
 30
0.0
 40
5.0
 41
0.0
 71
     5
 72
     1
  1
\A1;51
 11
0.0000000000000001
 21
1.0
 31
0.0
 73
     1
 44
1.0
  0
POINT
  5
2B3
330
2AB
100
AcDbEntity
  8
DEFPOINTS
 62
     0
100
AcDbPoint
 10
118.758675819223
 20
216.0
 30
0.0
  0
POINT
  5
2B4
330
2AB
100
AcDbEntity
  8
DEFPOINTS
 62
     0
100
AcDbPoint
 10
170.2749203818386
 20
164.9999999999999
 30
0.0
  0
POINT
  5
2B5
330
2AB
100
AcDbEntity
  8
DEFPOINTS
 62
     0
100
AcDbPoint
 10
174.3859782555998
 20
164.9999999999999
 30
0.0
  0
ENDBLK
  5
2B7
330
2AB
100
AcDbEntity
  8
0
100
AcDbBlockEnd
  0
BLOCK
  5
2C4
330
2B8
100
AcDbEntity
  8
0
100
AcDbBlockBegin
  2
*D6
 70
     1
 10
0.0
 20
0.0
 30
0.0
  3
*D6
  1

  0
LINE
  5
2B9
330
2B8
100
AcDbEntity
  8
0
 62
     0
370
    -2
100
AcDbLine
 10
258.8185974330405
 20
221.0499999999999
 30
0.0
 11
226.6120765361022
 21
221.0499999999999
 31
0.0
  0
LINE
  5
2BA
330
2B8
100
AcDbEntity
  8
0
 62
     0
370
    -2
100
AcDbLine
 10
258.6670049148167
 20
210.9499999999999
 30
0.0
 11
226.6120765361022
 21
210.9499999999999
 31
0.0
  0
LINE
  5
2BB
330
2B8
100
AcDbEntity
  8
0
 62
     0
370
    -2
100
AcDbLine
 10
227.6120765361021
 20
213.4499999999999
 30
0.0
 11
227.6120765361021
 21
218.5499999999999
 31
0.0
  0
LINE
  5
2BC
330
2B8
100
AcDbEntity
  8
0
 62
     0
370
    -2
100
AcDbLine
 10
227.6120765361021
 20
221.0499999999999
 30
0.0
 11
227.6120765361021
 21
228.31604857258
 31
0.0
  0
LINE
  5
2BD
330
2B8
100
AcDbEntity
  8
0
 62
     0
370
    -2
100
AcDbLine
 10
227.6120765361021
 20
228.31604857258
 30
0.0
 11
230.1120765361023
 21
228.31604857258
 31
0.0
  0
SOLID
  5
2BE
330
2B8
100
AcDbEntity
  8
0
 62
     0
100
AcDbTrace
 10
227.1954098694355
 20
213.4499999999999
 30
0.0
 11
228.0287432027689
 21
213.4499999999999
 31
0.0
 12
227.6120765361021
 22
210.9499999999999
 32
0.0
 13
227.6120765361021
 23
210.9499999999999
 33
0.0
  0
SOLID
  5
2BF
330
2B8
100
AcDbEntity
  8
0
 62
     0
100
AcDbTrace
 10
227.1954098694355
 20
218.5499999999999
 30
0.0
 11
228.0287432027689
 21
218.5499999999999
 31
0.0
 12
227.6120765361021
 22
221.0499999999999
 32
0.0
 13
227.6120765361021
 23
221.0499999999999
 33
0.0
  0
MTEXT
  5
2C0
330
2B8
100
AcDbEntity
  8
0
 62
     0
100
AcDbMText
 10
235.6187432027688
 20
228.31604857258
 30
0.0
 40
5.0
 41
0.0
 71
     5
 72
     1
  1
\A1;10.1
 73
     1
 44
1.0
  0
POINT
  5
2C1
330
2B8
100
AcDbEntity
  8
DEFPOINTS
 62
     0
100
AcDbPoint
 10
259.8185974330405
 20
221.0499999999999
 30
0.0
  0
POINT
  5
2C2
330
2B8
100
AcDbEntity
  8
DEFPOINTS
 62
     0
100
AcDbPoint
 10
259.6670049148166
 20
210.9499999999999
 30
0.0
  0
POINT
  5
2C3
330
2B8
100
AcDbEntity
  8
DEFPOINTS
 62
     0
100
AcDbPoint
 10
227.6120765361021
 20
210.9499999999999
 30
0.0
  0
ENDBLK
  5
2C5
330
2B8
100
AcDbEntity
  8
0
100
AcDbBlockEnd
  0
BLOCK
  5
2D1
330
2C6
100
AcDbEntity
  8
0
100
AcDbBlockBegin
  2
*D7
 70
     1
 10
0.0
 20
0.0
 30
0.0
  3
*D7
  1

  0
LINE
  5
2C7
330
2C6
100
AcDbEntity
  8
0
 62
     0
370
    -2
100
AcDbLine
 10
259.6670049148166
 20
220.5
 30
0.0
 11
259.6670049148166
 21
259.0
 31
0.0
  0
LINE
  5
2C8
330
2C6
100
AcDbEntity
  8
0
 62
     0
370
    -2
100
AcDbLine
 10
306.6670049148167
 20
182.0
 30
0.0
 11
306.6670049148167
 21
259.0
 31
0.0
  0
LINE
  5
2C9
330
2C6
100
AcDbEntity
  8
0
 62
     0
370
    -2
100
AcDbLine
 10
262.1670049148166
 20
258.0
 30
0.0
 11
279.4103382481499
 21
258.0
 31
0.0
  0
LINE
  5
2CA
330
2C6
100
AcDbEntity
  8
0
 62
     0
370
    -2
100
AcDbLine
 10
304.1670049148166
 20
258.0
 30
0.0
 11
287.9236715814834
 21
258.0
 31
0.0
  0
SOLID
  5
2CB
330
2C6
100
AcDbEntity
  8
0
 62
     0
100
AcDbTrace
 10
262.1670049148166
 20
258.4166666666666
 30
0.0
 11
262.1670049148166
 21
257.5833333333333
 31
0.0
 12
259.6670049148166
 22
258.0
 32
0.0
 13
259.6670049148166
 23
258.0
 33
0.0
  0
SOLID
  5
2CC
330
2C6
100
AcDbEntity
  8
0
 62
     0
100
AcDbTrace
 10
304.1670049148166
 20
258.4166666666666
 30
0.0
 11
304.1670049148166
 21
257.5833333333333
 31
0.0
 12
306.6670049148167
 22
258.0
 32
0.0
 13
306.6670049148167
 23
258.0
 33
0.0
  0
MTEXT
  5
2CD
330
2C6
100
AcDbEntity
  8
0
 62
     0
100
AcDbMText
 10
283.6670049148167
 20
258.0
 30
0.0
 40
5.0
 41
0.0
 71
     5
 72
     1
  1
\A1;47
 73
     1
 44
1.0
  0
POINT
  5
2CE
330
2C6
100
AcDbEntity
  8
DEFPOINTS
 62
     0
100
AcDbPoint
 10
259.6670049148166
 20
219.4999999999999
 30
0.0
  0
POINT
  5
2CF
330
2C6
100
AcDbEntity
  8
DEFPOINTS
 62
     0
100
AcDbPoint
 10
306.6670049148167
 20
181.0
 30
0.0
  0
POINT
  5
2D0
330
2C6
100
AcDbEntity
  8
DEFPOINTS
 62
     0
100
AcDbPoint
 10
306.6670049148167
 20
258.0
 30
0.0
  0
ENDBLK
  5
2D2
330
2C6
100
AcDbEntity
  8
0
100
AcDbBlockEnd
  0
BLOCK
  5
2DE
330
2D3
100
AcDbEntity
  8
0
100
AcDbBlockBegin
  2
*D8
 70
     1
 10
0.0
 20
0.0
 30
0.0
  3
*D8
  1

  0
LINE
  5
2D4
330
2D3
100
AcDbEntity
  8
0
 62
     0
370
    -2
100
AcDbLine
 10
306.1670049148166
 20
182.4999999999999
 30
0.0
 11
339.6670049148168
 21
182.4999999999999
 31
0.0
  0
LINE
  5
2D5
330
2D3
100
AcDbEntity
  8
0
 62
     0
370
    -2
100
AcDbLine
 10
306.1670049148166
 20
147.4999999999999
 30
0.0
 11
339.6670049148168
 21
147.4999999999999
 31
0.0
  0
LINE
  5
2D6
330
2D3
100
AcDbEntity
  8
0
 62
     0
370
    -2
100
AcDbLine
 10
338.6670049148168
 20
179.9999999999999
 30
0.0
 11
338.6670049148168
 21
169.2566666666665
 31
0.0
  0
LINE
  5
2D7
330
2D3
100
AcDbEntity
  8
0
 62
     0
370
    -2
100
AcDbLine
 10
338.6670049148168
 20
149.9999999999999
 30
0.0
 11
338.6670049148168
 21
160.7433333333331
 31
0.0
  0
SOLID
  5
2D8
330
2D3
100
AcDbEntity
  8
0
 62
     0
100
AcDbTrace
 10
338.2503382481501
 20
179.9999999999999
 30
0.0
 11
339.0836715814835
 21
179.9999999999999
 31
0.0
 12
338.6670049148168
 22
182.4999999999999
 32
0.0
 13
338.6670049148168
 23
182.4999999999999
 33
0.0
  0
SOLID
  5
2D9
330
2D3
100
AcDbEntity
  8
0
 62
     0
100
AcDbTrace
 10
338.2503382481501
 20
149.9999999999999
 30
0.0
 11
339.0836715814835
 21
149.9999999999999
 31
0.0
 12
338.6670049148168
 22
147.4999999999999
 32
0.0
 13
338.6670049148168
 23
147.4999999999999
 33
0.0
  0
MTEXT
  5
2DA
330
2D3
100
AcDbEntity
  8
0
 62
     0
100
AcDbMText
 10
338.6670049148166
 20
164.9999999999999
 30
0.0
 40
5.0
 41
0.0
 71
     5
 72
     1
  1
\A1;35
 11
0.0000000000000001
 21
1.0
 31
0.0
 73
     1
 44
1.0
  0
POINT
  5
2DB
330
2D3
100
AcDbEntity
  8
DEFPOINTS
 62
     0
100
AcDbPoint
 10
305.1670049148166
 20
182.4999999999999
 30
0.0
  0
POINT
  5
2DC
330
2D3
100
AcDbEntity
  8
DEFPOINTS
 62
     0
100
AcDbPoint
 10
305.1670049148166
 20
147.4999999999999
 30
0.0
  0
POINT
  5
2DD
330
2D3
100
AcDbEntity
  8
DEFPOINTS
 62
     0
100
AcDbPoint
 10
338.6670049148168
 20
147.4999999999999
 30
0.0
  0
ENDBLK
  5
2DF
330
2D3
100
AcDbEntity
  8
0
100
AcDbBlockEnd
  0
BLOCK
  5
2E9
330
2E0
100
AcDbEntity
  8
0
100
AcDbBlockBegin
  2
*D9
 70
     1
 10
0.0
 20
0.0
 30
0.0
  3
*D9
  1

  0
LINE
  5
2E1
330
2E0
100
AcDbEntity
  8
0
 62
     0
370
    -2
100
AcDbLine
 10
319.6670049148175
 20
138.4999999999998
 30
0.0
 11
317.1670049148175
 21
138.4999999999998
 31
0.0
  0
LINE
  5
2E2
330
2E0
100
AcDbEntity
  8
0
 62
     0
370
    -2
100
AcDbLine
 10
317.1670049148175
 20
138.4999999999998
 30
0.0
 11
308.1773116936442
 21
146.365981568526
 31
0.0
  0
MTEXT
  5
2E3
330
2E0
100
AcDbEntity
  8
0
 62
     0
100
AcDbMText
 10
326.4236715814843
 20
138.4999999999998
 30
0.0
 40
5.0
 41
0.0
 71
     5
 72
     1
  1
\A1;R1.5
 73
     1
 44
1.0
  0
SOLID
  5
2E4
330
2E0
100
AcDbEntity
  8
0
 62
     0
100
AcDbTrace
 10
308.4516886135895
 20
146.6795551913205
 30
0.0
 11
307.902934773699
 21
146.0524079457313
 31
0.0
 12
306.2958699568769
 22
148.0122430881971
 32
0.0
 13
306.2958699568769
 23
148.0122430881971
 33
0.0
  0
LINE
  5
2E5
330
2E0
100
AcDbEntity
  8
0
 62
     0
370
    -2
100
AcDbLine
 10
305.0770049148167
 20
149.0
 30
0.0
 11
305.2570049148167
 21
149.0
 31
0.0
  0
LINE
  5
2E6
330
2E0
100
AcDbEntity
  8
0
 62
     0
370
    -2
100
AcDbLine
 10
305.1670049148166
 20
148.91
 30
0.0
 11
305.1670049148166
 21
149.09
 31
0.0
  0
POINT
  5
2E7
330
2E0
100
AcDbEntity
  8
DEFPOINTS
 62
     0
100
AcDbPoint
 10
306.2958699568769
 20
148.0122430881971
 30
0.0
  0
POINT
  5
2E8
330
2E0
100
AcDbEntity
  8
DEFPOINTS
 62
     0
100
AcDbPoint
 10
305.1670049148166
 20
149.0
 30
0.0
  0
ENDBLK
  5
2EA
330
2E0
100
AcDbEntity
  8
0
100
AcDbBlockEnd
  0
BLOCK
  5
2F6
330
2EB
100
AcDbEntity
  8
0
100
AcDbBlockBegin
  2
*D10
 70
     1
 10
0.0
 20
0.0
 30
0.0
  3
*D10
  1

  0
LINE
  5
2EC
330
2EB
100
AcDbEntity
  8
0
 62
     0
370
    -2
100
AcDbLine
 10
277.6670049148167
 20
182.9999999999999
 30
0.0
 11
277.6670049148167
 21
202.9999999999999
 31
0.0
  0
LINE
  5
2ED
330
2EB
100
AcDbEntity
  8
0
 62
     0
370
    -2
100
AcDbLine
 10
306.6670049148167
 20
182.0
 30
0.0
 11
306.6670049148167
 21
202.9999999999999
 31
0.0
  0
LINE
  5
2EE
330
2EB
100
AcDbEntity
  8
0
 62
     0
370
    -2
100
AcDbLine
 10
280.1670049148166
 20
201.9999999999999
 30
0.0
 11
287.4103382481499
 21
201.9999999999999
 31
0.0
  0
LINE
  5
2EF
330
2EB
100
AcDbEntity
  8
0
 62
     0
370
    -2
100
AcDbLine
 10
304.1670049148166
 20
201.9999999999999
 30
0.0
 11
295.9236715814834
 21
201.9999999999999
 31
0.0
  0
SOLID
  5
2F0
330
2EB
100
AcDbEntity
  8
0
 62
     0
100
AcDbTrace
 10
280.1670049148166
 20
202.4166666666666
 30
0.0
 11
280.1670049148166
 21
201.5833333333333
 31
0.0
 12
277.6670049148167
 22
201.9999999999999
 32
0.0
 13
277.6670049148167
 23
201.9999999999999
 33
0.0
  0
SOLID
  5
2F1
330
2EB
100
AcDbEntity
  8
0
 62
     0
100
AcDbTrace
 10
304.1670049148166
 20
202.4166666666666
 30
0.0
 11
304.1670049148166
 21
201.5833333333333
 31
0.0
 12
306.6670049148167
 22
201.9999999999999
 32
0.0
 13
306.6670049148167
 23
201.9999999999999
 33
0.0
  0
MTEXT
  5
2F2
330
2EB
100
AcDbEntity
  8
0
 62
     0
100
AcDbMText
 10
291.6670049148166
 20
201.9999999999999
 30
0.0
 40
5.0
 41
0.0
 71
     5
 72
     1
  1
\A1;29
 73
     1
 44
1.0
  0
POINT
  5
2F3
330
2EB
100
AcDbEntity
  8
DEFPOINTS
 62
     0
100
AcDbPoint
 10
277.6670049148167
 20
181.9999999999999
 30
0.0
  0
POINT
  5
2F4
330
2EB
100
AcDbEntity
  8
DEFPOINTS
 62
     0
100
AcDbPoint
 10
306.6670049148167
 20
181.0
 30
0.0
  0
POINT
  5
2F5
330
2EB
100
AcDbEntity
  8
DEFPOINTS
 62
     0
100
AcDbPoint
 10
306.6670049148167
 20
201.9999999999999
 30
0.0
  0
ENDBLK
  5
2F7
330
2EB
100
AcDbEntity
  8
0
100
AcDbBlockEnd
  0
BLOCK
  5
303
330
2F8
100
AcDbEntity
  8
0
100
AcDbBlockBegin
  2
*D11
 70
     1
 10
0.0
 20
0.0
 30
0.0
  3
*D11
  1

  0
LINE
  5
2F9
330
2F8
100
AcDbEntity
  8
0
 62
     0
370
    -2
100
AcDbLine
 10
294.6670049148167
 20
185.0
 30
0.0
 11
294.6670049148167
 21
195.4999999999999
 31
0.0
  0
LINE
  5
2FA
330
2F8
100
AcDbEntity
  8
0
 62
     0
370
    -2
100
AcDbLine
 10
306.6670049148167
 20
182.0
 30
0.0
 11
306.6670049148167
 21
195.4999999999999
 31
0.0
  0
LINE
  5
2FB
330
2F8
100
AcDbEntity
  8
0
 62
     0
370
    -2
100
AcDbLine
 10
292.1670049148167
 20
194.4999999999999
 30
0.0
 11
289.6670049148166
 21
194.4999999999999
 31
0.0
  0
LINE
  5
2FC
330
2F8
100
AcDbEntity
  8
0
 62
     0
370
    -2
100
AcDbLine
 10
309.1670049148167
 20
194.4999999999999
 30
0.0
 11
311.6670049148166
 21
194.4999999999999
 31
0.0
  0
SOLID
  5
2FD
330
2F8
100
AcDbEntity
  8
0
 62
     0
100
AcDbTrace
 10
292.1670049148167
 20
194.9166666666666
 30
0.0
 11
292.1670049148167
 21
194.0833333333333
 31
0.0
 12
294.6670049148167
 22
194.4999999999999
 32
0.0
 13
294.6670049148167
 23
194.4999999999999
 33
0.0
  0
SOLID
  5
2FE
330
2F8
100
AcDbEntity
  8
0
 62
     0
100
AcDbTrace
 10
309.1670049148167
 20
194.9166666666666
 30
0.0
 11
309.1670049148167
 21
194.0833333333333
 31
0.0
 12
306.6670049148167
 22
194.4999999999999
 32
0.0
 13
306.6670049148167
 23
194.4999999999999
 33
0.0
  0
MTEXT
  5
2FF
330
2F8
100
AcDbEntity
  8
0
 62
     0
100
AcDbMText
 10
300.1670049148167
 20
194.4999999999999
 30
0.0
 40
5.0
 41
0.0
 71
     5
 72
     1
  1
\A1;12
 73
     1
 44
1.0
  0
POINT
  5
300
330
2F8
100
AcDbEntity
  8
DEFPOINTS
 62
     0
100
AcDbPoint
 10
294.6670049148167
 20
184.0
 30
0.0
  0
POINT
  5
301
330
2F8
100
AcDbEntity
  8
DEFPOINTS
 62
     0
100
AcDbPoint
 10
306.6670049148167
 20
181.0
 30
0.0
  0
POINT
  5
302
330
2F8
100
AcDbEntity
  8
DEFPOINTS
 62
     0
100
AcDbPoint
 10
306.6670049148167
 20
194.4999999999999
 30
0.0
  0
ENDBLK
  5
304
330
2F8
100
AcDbEntity
  8
0
100
AcDbBlockEnd
  0
BLOCK
  5
310
330
305
100
AcDbEntity
  8
0
100
AcDbBlockBegin
  2
*D12
 70
     1
 10
0.0
 20
0.0
 30
0.0
  3
*D12
  1

  0
LINE
  5
306
330
305
100
AcDbEntity
  8
0
 62
     0
370
    -2
100
AcDbLine
 10
259.6670049148166
 20
220.5
 30
0.0
 11
259.6670049148166
 21
251.9999999999999
 31
0.0
  0
LINE
  5
307
330
305
100
AcDbEntity
  8
0
 62
     0
370
    -2
100
AcDbLine
 10
275.6670049148167
 20
220.5
 30
0.0
 11
275.6670049148167
 21
251.9999999999999
 31
0.0
  0
LINE
  5
308
330
305
100
AcDbEntity
  8
0
 62
     0
370
    -2
100
AcDbLine
 10
262.1670049148166
 20
250.9999999999999
 30
0.0
 11
264.2436715814834
 21
250.9999999999999
 31
0.0
  0
LINE
  5
309
330
305
100
AcDbEntity
  8
0
 62
     0
370
    -2
100
AcDbLine
 10
273.1670049148167
 20
250.9999999999999
 30
0.0
 11
271.0903382481499
 21
250.9999999999999
 31
0.0
  0
SOLID
  5
30A
330
305
100
AcDbEntity
  8
0
 62
     0
100
AcDbTrace
 10
262.1670049148166
 20
251.4166666666666
 30
0.0
 11
262.1670049148166
 21
250.5833333333333
 31
0.0
 12
259.6670049148166
 22
250.9999999999999
 32
0.0
 13
259.6670049148166
 23
250.9999999999999
 33
0.0
  0
SOLID
  5
30B
330
305
100
AcDbEntity
  8
0
 62
     0
100
AcDbTrace
 10
273.1670049148167
 20
251.4166666666666
 30
0.0
 11
273.1670049148167
 21
250.5833333333333
 31
0.0
 12
275.6670049148167
 22
250.9999999999999
 32
0.0
 13
275.6670049148167
 23
250.9999999999999
 33
0.0
  0
MTEXT
  5
30C
330
305
100
AcDbEntity
  8
0
 62
     0
100
AcDbMText
 10
267.6670049148166
 20
250.9999999999999
 30
0.0
 40
5.0
 41
0.0
 71
     5
 72
     1
  1
\A1;16
 73
     1
 44
1.0
  0
POINT
  5
30D
330
305
100
AcDbEntity
  8
DEFPOINTS
 62
     0
100
AcDbPoint
 10
259.6670049148166
 20
219.4999999999999
 30
0.0
  0
POINT
  5
30E
330
305
100
AcDbEntity
  8
DEFPOINTS
 62
     0
100
AcDbPoint
 10
275.6670049148167
 20
219.4999999999999
 30
0.0
  0
POINT
  5
30F
330
305
100
AcDbEntity
  8
DEFPOINTS
 62
     0
100
AcDbPoint
 10
275.6670049148167
 20
250.9999999999999
 30
0.0
  0
ENDBLK
  5
311
330
305
100
AcDbEntity
  8
0
100
AcDbBlockEnd
  0
BLOCK
  5
31D
330
312
100
AcDbEntity
  8
0
100
AcDbBlockBegin
  2
*D13
 70
     1
 10
0.0
 20
0.0
 30
0.0
  3
*D13
  1

  0
LINE
  5
313
330
312
100
AcDbEntity
  8
0
 62
     0
370
    -2
100
AcDbLine
 10
259.6670049148166
 20
220.5
 30
0.0
 11
259.6670049148166
 21
244.9999999999999
 31
0.0
  0
LINE
  5
314
330
312
100
AcDbEntity
  8
0
 62
     0
370
    -2
100
AcDbLine
 10
274.6670049148166
 20
219.8116676687384
 30
0.0
 11
274.6670049148166
 21
244.9999999999999
 31
0.0
  0
LINE
  5
315
330
312
100
AcDbEntity
  8
0
 62
     0
370
    -2
100
AcDbLine
 10
262.1670049148166
 20
243.9999999999999
 30
0.0
 11
264.2436715814834
 21
243.9999999999999
 31
0.0
  0
LINE
  5
316
330
312
100
AcDbEntity
  8
0
 62
     0
370
    -2
100
AcDbLine
 10
272.1670049148166
 20
243.9999999999999
 30
0.0
 11
271.0903382481499
 21
243.9999999999999
 31
0.0
  0
SOLID
  5
317
330
312
100
AcDbEntity
  8
0
 62
     0
100
AcDbTrace
 10
262.1670049148166
 20
244.4166666666665
 30
0.0
 11
262.1670049148166
 21
243.5833333333333
 31
0.0
 12
259.6670049148166
 22
243.9999999999999
 32
0.0
 13
259.6670049148166
 23
243.9999999999999
 33
0.0
  0
SOLID
  5
318
330
312
100
AcDbEntity
  8
0
 62
     0
100
AcDbTrace
 10
272.1670049148166
 20
244.4166666666665
 30
0.0
 11
272.1670049148166
 21
243.5833333333333
 31
0.0
 12
274.6670049148166
 22
243.9999999999999
 32
0.0
 13
274.6670049148166
 23
243.9999999999999
 33
0.0
  0
MTEXT
  5
319
330
312
100
AcDbEntity
  8
0
 62
     0
100
AcDbMText
 10
267.6670049148166
 20
243.9999999999999
 30
0.0
 40
5.0
 41
0.0
 71
     5
 72
     1
  1
\A1;15
 73
     1
 44
1.0
  0
POINT
  5
31A
330
312
100
AcDbEntity
  8
DEFPOINTS
 62
     0
100
AcDbPoint
 10
259.6670049148166
 20
219.4999999999999
 30
0.0
  0
POINT
  5
31B
330
312
100
AcDbEntity
  8
DEFPOINTS
 62
     0
100
AcDbPoint
 10
274.6670049148166
 20
218.8116676687384
 30
0.0
  0
POINT
  5
31C
330
312
100
AcDbEntity
  8
DEFPOINTS
 62
     0
100
AcDbPoint
 10
274.6670049148166
 20
243.9999999999999
 30
0.0
  0
ENDBLK
  5
31E
330
312
100
AcDbEntity
  8
0
100
AcDbBlockEnd
  0
BLOCK
  5
32A
330
31F
100
AcDbEntity
  8
0
100
AcDbBlockBegin
  2
*D14
 70
     1
 10
0.0
 20
0.0
 30
0.0
  3
*D14
  1

  0
LINE
  5
320
330
31F
100
AcDbEntity
  8
0
 62
     0
370
    -2
100
AcDbLine
 10
259.6670049148166
 20
220.5
 30
0.0
 11
259.6670049148166
 21
241.4595736829927
 31
0.0
  0
LINE
  5
321
330
31F
100
AcDbEntity
  8
0
 62
     0
370
    -2
100
AcDbLine
 10
261.6670049148166
 20
222.0499999999999
 30
0.0
 11
261.6670049148166
 21
241.4595736829927
 31
0.0
  0
LINE
  5
322
330
31F
100
AcDbEntity
  8
0
 62
     0
370
    -2
100
AcDbLine
 10
264.1670049148166
 20
240.4595736829926
 30
0.0
 11
266.6670049148166
 21
240.4595736829926
 31
0.0
  0
LINE
  5
323
330
31F
100
AcDbEntity
  8
0
 62
     0
370
    -2
100
AcDbLine
 10
257.1670049148166
 20
240.4595736829926
 30
0.0
 11
254.2089357808349
 21
240.4595736829926
 31
0.0
  0
SOLID
  5
324
330
31F
100
AcDbEntity
  8
0
 62
     0
100
AcDbTrace
 10
264.1670049148166
 20
240.8762403496592
 30
0.0
 11
264.1670049148166
 21
240.042907016326
 31
0.0
 12
261.6670049148166
 22
240.4595736829926
 32
0.0
 13
261.6670049148166
 23
240.4595736829926
 33
0.0
  0
SOLID
  5
325
330
31F
100
AcDbEntity
  8
0
 62
     0
100
AcDbTrace
 10
257.1670049148166
 20
240.8762403496592
 30
0.0
 11
257.1670049148166
 21
240.042907016326
 31
0.0
 12
259.6670049148166
 22
240.4595736829926
 32
0.0
 13
259.6670049148166
 23
240.4595736829926
 33
0.0
  0
MTEXT
  5
326
330
31F
100
AcDbEntity
  8
0
 62
     0
100
AcDbMText
 10
252.4522691141684
 20
240.4595736829926
 30
0.0
 40
5.0
 41
0.0
 71
     5
 72
     1
  1
\A1;2
 73
     1
 44
1.0
  0
POINT
  5
327
330
31F
100
AcDbEntity
  8
DEFPOINTS
 62
     0
100
AcDbPoint
 10
259.6670049148166
 20
219.4999999999999
 30
0.0
  0
POINT
  5
328
330
31F
100
AcDbEntity
  8
DEFPOINTS
 62
     0
100
AcDbPoint
 10
261.6670049148166
 20
221.0499999999999
 30
0.0
  0
POINT
  5
329
330
31F
100
AcDbEntity
  8
DEFPOINTS
 62
     0
100
AcDbPoint
 10
261.6670049148166
 20
240.4595736829926
 30
0.0
  0
ENDBLK
  5
32B
330
31F
100
AcDbEntity
  8
0
100
AcDbBlockEnd
  0
BLOCK
  5
335
330
32C
100
AcDbEntity
  8
0
100
AcDbBlockBegin
  2
*D15
 70
     1
 10
0.0
 20
0.0
 30
0.0
  3
*D15
  1

  0
LINE
  5
32D
330
32C
100
AcDbEntity
  8
0
 62
     0
370
    -2
100
AcDbLine
 10
77.83100221901874
 20
186.9692981173685
 30
0.0
 11
80.33100221901873
 21
186.9692981173685
 31
0.0
  0
LINE
  5
32E
330
32C
100
AcDbEntity
  8
0
 62
     0
370
    -2
100
AcDbLine
 10
80.33100221901873
 20
186.9692981173685
 30
0.0
 11
97.99750748229591
 21
170.7487190796436
 31
0.0
  0
MTEXT
  5
32F
330
32C
100
AcDbEntity
  8
0
 62
     0
100
AcDbMText
 10
71.90766888568538
 20
186.9692981173685
 30
0.0
 40
5.0
 41
0.0
 71
     5
 72
     1
  1
\A1;\U+220512
 73
     1
 44
1.0
  0
SOLID
  5
330
330
32C
100
AcDbEntity
  8
0
 62
     0
100
AcDbTrace
 10
98.27930743718042
 20
171.0556390961597
 30
0.0
 11
97.71570752741141
 21
170.4417990631276
 31
0.0
 12
99.83902758139215
 22
169.0579193503366
 32
0.0
 13
99.83902758139215
 23
169.0579193503366
 33
0.0
  0
LINE
  5
331
330
32C
100
AcDbEntity
  8
0
 62
     0
370
    -2
100
AcDbLine
 10
104.168675819223
 20
165.0
 30
0.0
 11
104.3486758192231
 21
165.0
 31
0.0
  0
LINE
  5
332
330
32C
100
AcDbEntity
  8
0
 62
     0
370
    -2
100
AcDbLine
 10
104.2586758192231
 20
164.9099999999999
 30
0.0
 11
104.2586758192231
 21
165.09
 31
0.0
  0
POINT
  5
333
330
32C
100
AcDbEntity
  8
DEFPOINTS
 62
     0
100
AcDbPoint
 10
99.83902758139215
 20
169.0579193503366
 30
0.0
  0
POINT
  5
334
330
32C
100
AcDbEntity
  8
DEFPOINTS
 62
     0
100
AcDbPoint
 10
108.6783240570541
 20
160.9420806496633
 30
0.0
  0
ENDBLK
  5
336
330
32C
100
AcDbEntity
  8
0
100
AcDbBlockEnd
  0
BLOCK
  5
472
330
467
100
AcDbEntity
  8
0
100
AcDbBlockBegin
  2
*D16
 70
     1
 10
0.0
 20
0.0
 30
0.0
  3
*D16
  1

  0
LINE
  5
515
330
467
100
AcDbEntity
  8
0
 62
     0
370
    -2
100
AcDbLine
 10
61.3348713776959
 20
195.1020546283108
 30
0.0
 11
145.243228434478
 21
195.1020546283108
 31
0.0
  0
LINE
  5
516
330
467
100
AcDbEntity
  8
0
 62
     0
370
    -2
100
AcDbLine
 10
61.33487137769585
 20
70.10205462831092
 30
0.0
 11
145.2432284344779
 21
70.10205462831091
 31
0.0
  0
LINE
  5
517
330
467
100
AcDbEntity
  8
0
 62
     0
370
    -2
100
AcDbLine
 10
144.243228434478
 20
192.6020546283108
 30
0.0
 11
144.2432284344779
 21
141.3342054447761
 31
0.0
  0
LINE
  5
518
330
467
100
AcDbEntity
  8
0
 62
     0
370
    -2
100
AcDbLine
 10
144.2432284344779
 20
72.60205462831091
 30
0.0
 11
144.2432284344779
 21
122.4875387781094
 31
0.0
  0
SOLID
  5
519
330
467
100
AcDbEntity
  8
0
 62
     0
100
AcDbTrace
 10
143.8265617678113
 20
192.6020546283108
 30
0.0
 11
144.6598951011446
 21
192.6020546283108
 31
0.0
 12
144.243228434478
 22
195.1020546283108
 32
0.0
 13
144.243228434478
 23
195.1020546283108
 33
0.0
  0
SOLID
  5
51A
330
467
100
AcDbEntity
  8
0
 62
     0
100
AcDbTrace
 10
143.8265617678113
 20
72.60205462831091
 30
0.0
 11
144.6598951011446
 21
72.60205462831091
 31
0.0
 12
144.2432284344779
 22
70.10205462831091
 32
0.0
 13
144.2432284344779
 23
70.10205462831091
 33
0.0
  0
MTEXT
  5
51B
330
467
100
AcDbEntity
  8
0
 62
     0
100
AcDbMText
 10
144.2432284344779
 20
131.9108721114427
 30
0.0
 40
10.0
 41
0.0
 71
     5
 72
     1
  1
\A1;125
  7
BIGFONT
 11
0.0000000000000001
 21
1.0
 31
0.0
 73
     1
 44
1.0
  0
POINT
  5
51C
330
467
100
AcDbEntity
  8
DEFPOINTS
 62
     0
100
AcDbPoint
 10
60.3348713776959
 20
195.1020546283108
 30
0.0
  0
POINT
  5
51D
330
467
100
AcDbEntity
  8
DEFPOINTS
 62
     0
100
AcDbPoint
 10
60.33487137769586
 20
70.10205462831092
 30
0.0
  0
POINT
  5
51E
330
467
100
AcDbEntity
  8
DEFPOINTS
 62
     0
100
AcDbPoint
 10
144.2432284344779
 20
70.10205462831091
 30
0.0
  0
ENDBLK
  5
473
330
467
100
AcDbEntity
  8
0
100
AcDbBlockEnd
  0
BLOCK
  5
47D
330
474
100
AcDbEntity
  8
0
100
AcDbBlockBegin
  2
*D17
 70
     1
 10
0.0
 20
0.0
 30
0.0
  3
*D17
  1

  0
LINE
  5
527
330
474
100
AcDbEntity
  8
0
 62
     0
370
    -2
100
AcDbLine
 10
33.90719777749156
 20
154.5713527456794
 30
0.0
 11
36.40719777749171
 21
154.5713527456794
 31
0.0
  0
LINE
  5
528
330
474
100
AcDbEntity
  8
0
 62
     0
370
    -2
100
AcDbLine
 10
36.40719777749171
 20
154.5713527456794
 30
0.0
 11
54.07370304076875
 21
138.3507737079547
 31
0.0
  0
MTEXT
  5
529
330
474
100
AcDbEntity
  8
0
 62
     0
100
AcDbMText
 10
24.48386444415821
 20
154.5713527456794
 30
0.0
 40
10.0
 41
0.0
 71
     5
 72
     1
  1
\A1;\U+220512
  7
BIGFONT
 73
     1
 44
1.0
  0
SOLID
  5
52A
330
474
100
AcDbEntity
  8
0
 62
     0
100
AcDbTrace
 10
54.35550299565324
 20
138.6576937244706
 30
0.0
 11
53.79190308588428
 21
138.0438536914387
 31
0.0
 12
55.91522313986501
 22
136.6599739786477
 32
0.0
 13
55.91522313986501
 23
136.6599739786477
 33
0.0
  0
LINE
  5
52B
330
474
100
AcDbEntity
  8
0
 62
     0
370
    -2
100
AcDbLine
 10
60.244871377696
 20
132.602054628311
 30
0.0
 11
60.424871377696
 21
132.602054628311
 31
0.0
  0
LINE
  5
52C
330
474
100
AcDbEntity
  8
0
 62
     0
370
    -2
100
AcDbLine
 10
60.334871377696
 20
132.512054628311
 30
0.0
 11
60.33487137769599
 21
132.692054628311
 31
0.0
  0
POINT
  5
52D
330
474
100
AcDbEntity
  8
DEFPOINTS
 62
     0
100
AcDbPoint
 10
55.91522313986501
 20
136.6599739786477
 30
0.0
  0
POINT
  5
52E
330
474
100
AcDbEntity
  8
DEFPOINTS
 62
     0
100
AcDbPoint
 10
64.754519615527
 20
128.5441352779741
 30
0.0
  0
ENDBLK
  5
47E
330
474
100
AcDbEntity
  8
0
100
AcDbBlockEnd
  0
BLOCK
  5
488
330
47F
100
AcDbEntity
  8
0
100
AcDbBlockBegin
  2
*D18
 70
     1
 10
0.0
 20
0.0
 30
0.0
  3
*D18
  1

  0
LINE
  5
537
330
47F
100
AcDbEntity
  8
0
 62
     0
370
    -2
100
AcDbLine
 10
23.40470112465216
 20
213.2170855777078
 30
0.0
 11
25.90470112465216
 21
213.2170855777078
 31
0.0
  0
LINE
  5
538
330
47F
100
AcDbEntity
  8
0
 62
     0
370
    -2
100
AcDbLine
 10
25.90470112465216
 20
213.2170855777078
 30
0.0
 11
54.61099104598059
 21
188.5254369969882
 31
0.0
  0
MTEXT
  5
539
330
47F
100
AcDbEntity
  8
0
 62
     0
100
AcDbMText
 10
10.64803445798548
 20
213.2170855777076
 30
0.0
 40
10.0
 41
0.0
 71
     5
 72
     1
  1
\A1;\U+220510.1
  7
BIGFONT
 73
     1
 44
1.0
  0
SOLID
  5
53A
330
47F
100
AcDbEntity
  8
0
 62
     0
100
AcDbTrace
 10
54.88270088972656
 20
188.8413244325133
 30
0.0
 11
54.3392812022346
 21
188.209549561463
 31
0.0
 12
56.50631565913135
 22
186.8951779345123
 32
0.0
 13
56.50631565913135
 23
186.8951779345123
 33
0.0
  0
LINE
  5
53B
330
47F
100
AcDbEntity
  8
0
 62
     0
370
    -2
100
AcDbLine
 10
60.24487137769592
 20
183.6020546283108
 30
0.0
 11
60.42487137769594
 21
183.6020546283108
 31
0.0
  0
LINE
  5
53C
330
47F
100
AcDbEntity
  8
0
 62
     0
370
    -2
100
AcDbLine
 10
60.33487137769593
 20
183.5120546283109
 30
0.0
 11
60.33487137769593
 21
183.6920546283108
 31
0.0
  0
POINT
  5
53D
330
47F
100
AcDbEntity
  8
DEFPOINTS
 62
     0
100
AcDbPoint
 10
56.50631565913135
 20
186.8951779345123
 30
0.0
  0
POINT
  5
53E
330
47F
100
AcDbEntity
  8
DEFPOINTS
 62
     0
100
AcDbPoint
 10
64.16342709626047
 20
180.3089313221095
 30
0.0
  0
ENDBLK
  5
489
330
47F
100
AcDbEntity
  8
0
100
AcDbBlockEnd
  0
BLOCK
  5
495
330
48A
100
AcDbEntity
  8
0
100
AcDbBlockBegin
  2
*D19
 70
     1
 10
0.0
 20
0.0
 30
0.0
  3
*D19
  1

  0
LINE
  5
549
330
48A
100
AcDbEntity
  8
0
 62
     0
370
    -2
100
AcDbLine
 10
75.83487137769589
 20
183.6020546283108
 30
0.0
 11
131.4621738140727
 21
183.6020546283108
 31
0.0
  0
LINE
  5
54A
330
48A
100
AcDbEntity
  8
0
 62
     0
370
    -2
100
AcDbLine
 10
127.3511159403115
 20
132.6020546283107
 30
0.0
 11
131.4621738140727
 21
132.6020546283107
 31
0.0
  0
LINE
  5
54B
330
48A
100
AcDbEntity
  8
0
 62
     0
370
    -2
100
AcDbLine
 10
130.4621738140727
 20
181.1020546283108
 30
0.0
 11
130.4621738140727
 21
164.9533606781474
 31
0.0
  0
LINE
  5
54C
330
48A
100
AcDbEntity
  8
0
 62
     0
370
    -2
100
AcDbLine
 10
130.4621738140727
 20
135.1020546283107
 30
0.0
 11
130.4621738140727
 21
154.1066940114806
 31
0.0
  0
SOLID
  5
54D
330
48A
100
AcDbEntity
  8
0
 62
     0
100
AcDbTrace
 10
130.0455071474059
 20
181.1020546283108
 30
0.0
 11
130.8788404807392
 21
181.1020546283108
 31
0.0
 12
130.4621738140727
 22
183.6020546283108
 32
0.0
 13
130.4621738140727
 23
183.6020546283108
 33
0.0
  0
SOLID
  5
54E
330
48A
100
AcDbEntity
  8
0
 62
     0
100
AcDbTrace
 10
130.0455071474059
 20
135.1020546283107
 30
0.0
 11
130.8788404807392
 21
135.1020546283107
 31
0.0
 12
130.4621738140727
 22
132.6020546283107
 32
0.0
 13
130.4621738140727
 23
132.6020546283107
 33
0.0
  0
MTEXT
  5
54F
330
48A
100
AcDbEntity
  8
0
 62
     0
100
AcDbMText
 10
130.4621738140726
 20
159.530027344814
 30
0.0
 40
10.0
 41
0.0
 71
     5
 72
     1
  1
\A1;51
  7
BIGFONT
 11
0.0000000000000001
 21
1.0
 31
0.0
 73
     1
 44
1.0
  0
POINT
  5
550
330
48A
100
AcDbEntity
  8
DEFPOINTS
 62
     0
100
AcDbPoint
 10
74.83487137769589
 20
183.6020546283108
 30
0.0
  0
POINT
  5
551
330
48A
100
AcDbEntity
  8
DEFPOINTS
 62
     0
100
AcDbPoint
 10
126.3511159403115
 20
132.6020546283107
 30
0.0
  0
POINT
  5
552
330
48A
100
AcDbEntity
  8
DEFPOINTS
 62
     0
100
AcDbPoint
 10
130.4621738140727
 20
132.6020546283107
 30
0.0
  0
ENDBLK
  5
496
330
48A
100
AcDbEntity
  8
0
100
AcDbBlockEnd
  0
BLOCK
  5
4A0
330
497
100
AcDbEntity
  8
0
100
AcDbBlockBegin
  2
*D20
 70
     1
 10
0.0
 20
0.0
 30
0.0
  3
*D20
  1

  0
LINE
  5
55B
330
497
100
AcDbEntity
  8
0
 62
     0
370
    -2
100
AcDbLine
 10
275.7432004732905
 20
106.1020546283107
 30
0.0
 11
273.2432004732904
 21
106.1020546283107
 31
0.0
  0
LINE
  5
55C
330
497
100
AcDbEntity
  8
0
 62
     0
370
    -2
100
AcDbLine
 10
273.2432004732904
 20
106.1020546283107
 30
0.0
 11
264.253507252117
 21
113.9680361968369
 31
0.0
  0
MTEXT
  5
55D
330
497
100
AcDbEntity
  8
0
 62
     0
100
AcDbMText
 10
286.4998671399573
 20
106.1020546283107
 30
0.0
 40
10.0
 41
0.0
 71
     5
 72
     1
  1
\A1;R1.5
  7
BIGFONT
 73
     1
 44
1.0
  0
SOLID
  5
55E
330
497
100
AcDbEntity
  8
0
 62
     0
100
AcDbTrace
 10
264.5278841720624
 20
114.2816098196314
 30
0.0
 11
263.9791303321719
 21
113.6544625740423
 31
0.0
 12
262.3720655153499
 22
115.6142977165081
 32
0.0
 13
262.3720655153499
 23
115.6142977165081
 33
0.0
  0
LINE
  5
55F
330
497
100
AcDbEntity
  8
0
 62
     0
370
    -2
100
AcDbLine
 10
261.1532004732894
 20
116.6020546283109
 30
0.0
 11
261.3332004732894
 21
116.6020546283107
 31
0.0
  0
LINE
  5
560
330
497
100
AcDbEntity
  8
0
 62
     0
370
    -2
100
AcDbLine
 10
261.2432004732895
 20
116.5120546283108
 30
0.0
 11
261.2432004732895
 21
116.6920546283108
 31
0.0
  0
POINT
  5
561
330
497
100
AcDbEntity
  8
DEFPOINTS
 62
     0
100
AcDbPoint
 10
262.3720655153499
 20
115.6142977165081
 30
0.0
  0
POINT
  5
562
330
497
100
AcDbEntity
  8
DEFPOINTS
 62
     0
100
AcDbPoint
 10
261.2432004732895
 20
116.6020546283107
 30
0.0
  0
ENDBLK
  5
4A1
330
497
100
AcDbEntity
  8
0
100
AcDbBlockEnd
  0
BLOCK
  5
4AD
330
4A2
100
AcDbEntity
  8
0
100
AcDbBlockBegin
  2
*D21
 70
     1
 10
0.0
 20
0.0
 30
0.0
  3
*D21
  1

  0
LINE
  5
56D
330
4A2
100
AcDbEntity
  8
0
 62
     0
370
    -2
100
AcDbLine
 10
262.2432004732895
 20
150.1020546283108
 30
0.0
 11
295.7432004732896
 21
150.1020546283108
 31
0.0
  0
LINE
  5
56E
330
4A2
100
AcDbEntity
  8
0
 62
     0
370
    -2
100
AcDbLine
 10
262.2432004732895
 20
115.1020546283108
 30
0.0
 11
295.7432004732895
 21
115.1020546283108
 31
0.0
  0
LINE
  5
56F
330
4A2
100
AcDbEntity
  8
0
 62
     0
370
    -2
100
AcDbLine
 10
294.7432004732896
 20
147.6020546283108
 30
0.0
 11
294.7432004732896
 21
139.3587212949775
 31
0.0
  0
LINE
  5
570
330
4A2
100
AcDbEntity
  8
0
 62
     0
370
    -2
100
AcDbLine
 10
294.7432004732895
 20
117.6020546283107
 30
0.0
 11
294.7432004732895
 21
125.8453879616441
 31
0.0
  0
SOLID
  5
571
330
4A2
100
AcDbEntity
  8
0
 62
     0
100
AcDbTrace
 10
294.3265338066229
 20
147.6020546283108
 30
0.0
 11
295.1598671399563
 21
147.6020546283108
 31
0.0
 12
294.7432004732896
 22
150.1020546283108
 32
0.0
 13
294.7432004732896
 23
150.1020546283108
 33
0.0
  0
SOLID
  5
572
330
4A2
100
AcDbEntity
  8
0
 62
     0
100
AcDbTrace
 10
294.3265338066229
 20
117.6020546283107
 30
0.0
 11
295.1598671399561
 21
117.6020546283107
 31
0.0
 12
294.7432004732895
 22
115.1020546283108
 32
0.0
 13
294.7432004732895
 23
115.1020546283108
 33
0.0
  0
MTEXT
  5
573
330
4A2
100
AcDbEntity
  8
0
 62
     0
100
AcDbMText
 10
294.7432004732895
 20
132.6020546283107
 30
0.0
 40
10.0
 41
0.0
 71
     5
 72
     1
  1
\A1;35
  7
BIGFONT
 11
0.0000000000000001
 21
1.0
 31
0.0
 73
     1
 44
1.0
  0
POINT
  5
574
330
4A2
100
AcDbEntity
  8
DEFPOINTS
 62
     0
100
AcDbPoint
 10
261.2432004732895
 20
150.1020546283108
 30
0.0
  0
POINT
  5
575
330
4A2
100
AcDbEntity
  8
DEFPOINTS
 62
     0
100
AcDbPoint
 10
261.2432004732895
 20
115.1020546283108
 30
0.0
  0
POINT
  5
576
330
4A2
100
AcDbEntity
  8
DEFPOINTS
 62
     0
100
AcDbPoint
 10
294.7432004732895
 20
115.1020546283108
 30
0.0
  0
ENDBLK
  5
4AE
330
4A2
100
AcDbEntity
  8
0
100
AcDbBlockEnd
  0
BLOCK
  5
4BA
330
4AF
100
AcDbEntity
  8
0
100
AcDbBlockBegin
  2
*D22
 70
     1
 10
0.0
 20
0.0
 30
0.0
  3
*D22
  1

  0
LINE
  5
581
330
4AF
100
AcDbEntity
  8
0
 62
     0
370
    -2
100
AcDbLine
 10
215.7432004732894
 20
188.1020546283108
 30
0.0
 11
215.7432004732894
 21
219.6020546283107
 31
0.0
  0
LINE
  5
582
330
4AF
100
AcDbEntity
  8
0
 62
     0
370
    -2
100
AcDbLine
 10
231.7432004732894
 20
188.1020546283108
 30
0.0
 11
231.7432004732894
 21
219.6020546283107
 31
0.0
  0
LINE
  5
583
330
4AF
100
AcDbEntity
  8
0
 62
     0
370
    -2
100
AcDbLine
 10
218.2432004732894
 20
218.6020546283108
 30
0.0
 11
218.3198671399561
 21
218.6020546283108
 31
0.0
  0
LINE
  5
584
330
4AF
100
AcDbEntity
  8
0
 62
     0
370
    -2
100
AcDbLine
 10
229.2432004732894
 20
218.6020546283108
 30
0.0
 11
229.1665338066229
 21
218.6020546283108
 31
0.0
  0
SOLID
  5
585
330
4AF
100
AcDbEntity
  8
0
 62
     0
100
AcDbTrace
 10
218.2432004732894
 20
219.0187212949775
 30
0.0
 11
218.2432004732894
 21
218.1853879616441
 31
0.0
 12
215.7432004732894
 22
218.6020546283108
 32
0.0
 13
215.7432004732894
 23
218.6020546283108
 33
0.0
  0
SOLID
  5
586
330
4AF
100
AcDbEntity
  8
0
 62
     0
100
AcDbTrace
 10
229.2432004732894
 20
219.0187212949775
 30
0.0
 11
229.2432004732894
 21
218.1853879616441
 31
0.0
 12
231.7432004732894
 22
218.6020546283108
 32
0.0
 13
231.7432004732894
 23
218.6020546283108
 33
0.0
  0
MTEXT
  5
587
330
4AF
100
AcDbEntity
  8
0
 62
     0
100
AcDbMText
 10
223.7432004732894
 20
218.6020546283108
 30
0.0
 40
10.0
 41
0.0
 71
     5
 72
     1
  1
\A1;16
  7
BIGFONT
 73
     1
 44
1.0
  0
POINT
  5
588
330
4AF
100
AcDbEntity
  8
DEFPOINTS
 62
     0
100
AcDbPoint
 10
215.7432004732894
 20
187.1020546283109
 30
0.0
  0
POINT
  5
589
330
4AF
100
AcDbEntity
  8
DEFPOINTS
 62
     0
100
AcDbPoint
 10
231.7432004732894
 20
187.1020546283109
 30
0.0
  0
POINT
  5
58A
330
4AF
100
AcDbEntity
  8
DEFPOINTS
 62
     0
100
AcDbPoint
 10
231.7432004732894
 20
218.6020546283108
 30
0.0
  0
ENDBLK
  5
4BB
330
4AF
100
AcDbEntity
  8
0
100
AcDbBlockEnd
  0
BLOCK
  5
4C7
330
4BC
100
AcDbEntity
  8
0
100
AcDbBlockBegin
  2
*D23
 70
     1
 10
0.0
 20
0.0
 30
0.0
  3
*D23
  1

  0
LINE
  5
595
330
4BC
100
AcDbEntity
  8
0
 62
     0
370
    -2
100
AcDbLine
 10
215.7432004732894
 20
188.1020546283108
 30
0.0
 11
215.7432004732894
 21
212.6020546283108
 31
0.0
  0
LINE
  5
596
330
4BC
100
AcDbEntity
  8
0
 62
     0
370
    -2
100
AcDbLine
 10
230.7432004732894
 20
187.4137222970493
 30
0.0
 11
230.7432004732894
 21
212.6020546283108
 31
0.0
  0
LINE
  5
597
330
4BC
100
AcDbEntity
  8
0
 62
     0
370
    -2
100
AcDbLine
 10
213.2432004732894
 20
211.6020546283108
 30
0.0
 11
210.7432004732894
 21
211.6020546283108
 31
0.0
  0
LINE
  5
598
330
4BC
100
AcDbEntity
  8
0
 62
     0
370
    -2
100
AcDbLine
 10
233.2432004732894
 20
211.6020546283108
 30
0.0
 11
235.7432004732894
 21
211.6020546283108
 31
0.0
  0
SOLID
  5
599
330
4BC
100
AcDbEntity
  8
0
 62
     0
100
AcDbTrace
 10
213.2432004732894
 20
212.0187212949775
 30
0.0
 11
213.2432004732894
 21
211.1853879616441
 31
0.0
 12
215.7432004732894
 22
211.6020546283108
 32
0.0
 13
215.7432004732894
 23
211.6020546283108
 33
0.0
  0
SOLID
  5
59A
330
4BC
100
AcDbEntity
  8
0
 62
     0
100
AcDbTrace
 10
233.2432004732894
 20
212.0187212949775
 30
0.0
 11
233.2432004732894
 21
211.1853879616441
 31
0.0
 12
230.7432004732894
 22
211.6020546283108
 32
0.0
 13
230.7432004732894
 23
211.6020546283108
 33
0.0
  0
MTEXT
  5
59B
330
4BC
100
AcDbEntity
  8
0
 62
     0
100
AcDbMText
 10
223.7432004732894
 20
211.6020546283108
 30
0.0
 40
10.0
 41
0.0
 71
     5
 72
     1
  1
\A1;15
  7
BIGFONT
 73
     1
 44
1.0
  0
POINT
  5
59C
330
4BC
100
AcDbEntity
  8
DEFPOINTS
 62
     0
100
AcDbPoint
 10
215.7432004732894
 20
187.1020546283109
 30
0.0
  0
POINT
  5
59D
330
4BC
100
AcDbEntity
  8
DEFPOINTS
 62
     0
100
AcDbPoint
 10
230.7432004732894
 20
186.4137222970493
 30
0.0
  0
POINT
  5
59E
330
4BC
100
AcDbEntity
  8
DEFPOINTS
 62
     0
100
AcDbPoint
 10
230.7432004732894
 20
211.6020546283108
 30
0.0
  0
ENDBLK
  5
4C8
330
4BC
100
AcDbEntity
  8
0
100
AcDbBlockEnd
  0
BLOCK
  5
4D4
330
4C9
100
AcDbEntity
  8
0
100
AcDbBlockBegin
  2
*D24
 70
     1
 10
0.0
 20
0.0
 30
0.0
  3
*D24
  1

  0
LINE
  5
5A9
330
4C9
100
AcDbEntity
  8
0
 62
     0
370
    -2
100
AcDbLine
 10
215.7432004732894
 20
188.1020546283108
 30
0.0
 11
215.7432004732894
 21
209.0616283113035
 31
0.0
  0
LINE
  5
5AA
330
4C9
100
AcDbEntity
  8
0
 62
     0
370
    -2
100
AcDbLine
 10
217.7432004732894
 20
189.6520546283108
 30
0.0
 11
217.7432004732894
 21
209.0616283113035
 31
0.0
  0
LINE
  5
5AB
330
4C9
100
AcDbEntity
  8
0
 62
     0
370
    -2
100
AcDbLine
 10
220.2432004732894
 20
208.0616283113036
 30
0.0
 11
222.7432004732894
 21
208.0616283113036
 31
0.0
  0
LINE
  5
5AC
330
4C9
100
AcDbEntity
  8
0
 62
     0
370
    -2
100
AcDbLine
 10
213.2432004732894
 20
208.0616283113036
 30
0.0
 11
210.7432004732894
 21
208.0616283113036
 31
0.0
  0
SOLID
  5
5AD
330
4C9
100
AcDbEntity
  8
0
 62
     0
100
AcDbTrace
 10
220.2432004732894
 20
208.4782949779703
 30
0.0
 11
220.2432004732894
 21
207.6449616446369
 31
0.0
 12
217.7432004732894
 22
208.0616283113036
 32
0.0
 13
217.7432004732894
 23
208.0616283113036
 33
0.0
  0
SOLID
  5
5AE
330
4C9
100
AcDbEntity
  8
0
 62
     0
100
AcDbTrace
 10
213.2432004732894
 20
208.4782949779703
 30
0.0
 11
213.2432004732894
 21
207.6449616446369
 31
0.0
 12
215.7432004732894
 22
208.0616283113036
 32
0.0
 13
215.7432004732894
 23
208.0616283113036
 33
0.0
  0
MTEXT
  5
5AF
330
4C9
100
AcDbEntity
  8
0
 62
     0
100
AcDbMText
 10
207.9865338066229
 20
208.0616283113036
 30
0.0
 40
10.0
 41
0.0
 71
     5
 72
     1
  1
\A1;2
  7
BIGFONT
 73
     1
 44
1.0
  0
POINT
  5
5B0
330
4C9
100
AcDbEntity
  8
DEFPOINTS
 62
     0
100
AcDbPoint
 10
215.7432004732894
 20
187.1020546283109
 30
0.0
  0
POINT
  5
5B1
330
4C9
100
AcDbEntity
  8
DEFPOINTS
 62
     0
100
AcDbPoint
 10
217.7432004732894
 20
188.6520546283108
 30
0.0
  0
POINT
  5
5B2
330
4C9
100
AcDbEntity
  8
DEFPOINTS
 62
     0
100
AcDbPoint
 10
217.7432004732894
 20
208.0616283113036
 30
0.0
  0
ENDBLK
  5
4D5
330
4C9
100
AcDbEntity
  8
0
100
AcDbBlockEnd
  0
BLOCK
  5
4E1
330
4D6
100
AcDbEntity
  8
0
100
AcDbBlockBegin
  2
*D25
 70
     1
 10
0.0
 20
0.0
 30
0.0
  3
*D25
  1

  0
LINE
  5
5BD
330
4D6
100
AcDbEntity
  8
0
 62
     0
370
    -2
100
AcDbLine
 10
215.7432004732894
 20
188.1020546283108
 30
0.0
 11
215.7432004732894
 21
226.6020546283109
 31
0.0
  0
LINE
  5
5BE
330
4D6
100
AcDbEntity
  8
0
 62
     0
370
    -2
100
AcDbLine
 10
262.7432004732895
 20
149.6020546283109
 30
0.0
 11
262.7432004732895
 21
226.6020546283109
 31
0.0
  0
LINE
  5
5BF
330
4D6
100
AcDbEntity
  8
0
 62
     0
370
    -2
100
AcDbLine
 10
218.2432004732894
 20
225.6020546283107
 30
0.0
 11
232.9865338066229
 21
225.6020546283107
 31
0.0
  0
LINE
  5
5C0
330
4D6
100
AcDbEntity
  8
0
 62
     0
370
    -2
100
AcDbLine
 10
260.2432004732895
 20
225.6020546283107
 30
0.0
 11
246.4998671399561
 21
225.6020546283107
 31
0.0
  0
SOLID
  5
5C1
330
4D6
100
AcDbEntity
  8
0
 62
     0
100
AcDbTrace
 10
218.2432004732894
 20
226.0187212949774
 30
0.0
 11
218.2432004732894
 21
225.1853879616442
 31
0.0
 12
215.7432004732894
 22
225.6020546283107
 32
0.0
 13
215.7432004732894
 23
225.6020546283107
 33
0.0
  0
SOLID
  5
5C2
330
4D6
100
AcDbEntity
  8
0
 62
     0
100
AcDbTrace
 10
260.2432004732895
 20
226.0187212949774
 30
0.0
 11
260.2432004732895
 21
225.1853879616442
 31
0.0
 12
262.7432004732895
 22
225.6020546283107
 32
0.0
 13
262.7432004732895
 23
225.6020546283107
 33
0.0
  0
MTEXT
  5
5C3
330
4D6
100
AcDbEntity
  8
0
 62
     0
100
AcDbMText
 10
239.7432004732894
 20
225.6020546283107
 30
0.0
 40
10.0
 41
0.0
 71
     5
 72
     1
  1
\A1;47
  7
BIGFONT
 73
     1
 44
1.0
  0
POINT
  5
5C4
330
4D6
100
AcDbEntity
  8
DEFPOINTS
 62
     0
100
AcDbPoint
 10
215.7432004732894
 20
187.1020546283109
 30
0.0
  0
POINT
  5
5C5
330
4D6
100
AcDbEntity
  8
DEFPOINTS
 62
     0
100
AcDbPoint
 10
262.7432004732895
 20
148.6020546283109
 30
0.0
  0
POINT
  5
5C6
330
4D6
100
AcDbEntity
  8
DEFPOINTS
 62
     0
100
AcDbPoint
 10
262.7432004732895
 20
225.6020546283107
 30
0.0
  0
ENDBLK
  5
4E2
330
4D6
100
AcDbEntity
  8
0
100
AcDbBlockEnd
  0
BLOCK
  5
4EF
330
4E3
100
AcDbEntity
  8
0
100
AcDbBlockBegin
  2
*D26
 70
     1
 10
0.0
 20
0.0
 30
0.0
  3
*D26
  1

  0
LINE
  5
5D2
330
4E3
100
AcDbEntity
  8
0
 62
     0
370
    -2
100
AcDbLine
 10
214.8947929915134
 20
188.6520546283108
 30
0.0
 11
179.438272094575
 21
188.6520546283108
 31
0.0
  0
LINE
  5
5D3
330
4E3
100
AcDbEntity
  8
0
 62
     0
370
    -2
100
AcDbLine
 10
214.7432004732894
 20
178.5520546283108
 30
0.0
 11
179.438272094575
 21
178.5520546283108
 31
0.0
  0
LINE
  5
5D4
330
4E3
100
AcDbEntity
  8
0
 62
     0
370
    -2
100
AcDbLine
 10
180.438272094575
 20
181.0520546283108
 30
0.0
 11
180.438272094575
 21
186.1520546283108
 31
0.0
  0
LINE
  5
5D5
330
4E3
100
AcDbEntity
  8
0
 62
     0
370
    -2
100
AcDbLine
 10
180.438272094575
 20
188.6520546283108
 30
0.0
 11
180.438272094575
 21
195.9181032008909
 31
0.0
  0
LINE
  5
5D6
330
4E3
100
AcDbEntity
  8
0
 62
     0
370
    -2
100
AcDbLine
 10
180.438272094575
 20
195.9181032008909
 30
0.0
 11
182.938272094575
 21
195.9181032008909
 31
0.0
  0
SOLID
  5
5D7
330
4E3
100
AcDbEntity
  8
0
 62
     0
100
AcDbTrace
 10
180.0216054279084
 20
181.0520546283108
 30
0.0
 11
180.8549387612417
 21
181.0520546283108
 31
0.0
 12
180.438272094575
 22
178.5520546283108
 32
0.0
 13
180.438272094575
 23
178.5520546283108
 33
0.0
  0
SOLID
  5
5D8
330
4E3
100
AcDbEntity
  8
0
 62
     0
100
AcDbTrace
 10
180.0216054279084
 20
186.1520546283108
 30
0.0
 11
180.8549387612417
 21
186.1520546283108
 31
0.0
 12
180.438272094575
 22
188.6520546283108
 32
0.0
 13
180.438272094575
 23
188.6520546283108
 33
0.0
  0
MTEXT
  5
5D9
330
4E3
100
AcDbEntity
  8
0
 62
     0
100
AcDbMText
 10
191.6949387612416
 20
195.918103200891
 30
0.0
 40
10.0
 41
0.0
 71
     5
 72
     1
  1
\A1;10.1
  7
BIGFONT
 73
     1
 44
1.0
  0
POINT
  5
5DA
330
4E3
100
AcDbEntity
  8
DEFPOINTS
 62
     0
100
AcDbPoint
 10
215.8947929915134
 20
188.6520546283108
 30
0.0
  0
POINT
  5
5DB
330
4E3
100
AcDbEntity
  8
DEFPOINTS
 62
     0
100
AcDbPoint
 10
215.7432004732894
 20
178.5520546283108
 30
0.0
  0
POINT
  5
5DC
330
4E3
100
AcDbEntity
  8
DEFPOINTS
 62
     0
100
AcDbPoint
 10
180.438272094575
 20
178.5520546283108
 30
0.0
  0
ENDBLK
  5
4F0
330
4E3
100
AcDbEntity
  8
0
100
AcDbBlockEnd
  0
BLOCK
  5
4FC
330
4F1
100
AcDbEntity
  8
0
100
AcDbBlockBegin
  2
*D27
 70
     1
 10
0.0
 20
0.0
 30
0.0
  3
*D27
  1

  0
LINE
  5
5E7
330
4F1
100
AcDbEntity
  8
0
 62
     0
370
    -2
100
AcDbLine
 10
250.7432004732894
 20
152.6020546283108
 30
0.0
 11
250.7432004732894
 21
163.1020546283108
 31
0.0
  0
LINE
  5
5E8
330
4F1
100
AcDbEntity
  8
0
 62
     0
370
    -2
100
AcDbLine
 10
262.7432004732895
 20
149.6020546283109
 30
0.0
 11
262.7432004732895
 21
163.1020546283108
 31
0.0
  0
LINE
  5
5E9
330
4F1
100
AcDbEntity
  8
0
 62
     0
370
    -2
100
AcDbLine
 10
248.2432004732894
 20
162.1020546283108
 30
0.0
 11
245.7432004732894
 21
162.1020546283108
 31
0.0
  0
LINE
  5
5EA
330
4F1
100
AcDbEntity
  8
0
 62
     0
370
    -2
100
AcDbLine
 10
265.2432004732895
 20
162.1020546283108
 30
0.0
 11
267.7432004732894
 21
162.1020546283108
 31
0.0
  0
SOLID
  5
5EB
330
4F1
100
AcDbEntity
  8
0
 62
     0
100
AcDbTrace
 10
248.2432004732894
 20
162.5187212949775
 30
0.0
 11
248.2432004732894
 21
161.6853879616441
 31
0.0
 12
250.7432004732894
 22
162.1020546283108
 32
0.0
 13
250.7432004732894
 23
162.1020546283108
 33
0.0
  0
SOLID
  5
5EC
330
4F1
100
AcDbEntity
  8
0
 62
     0
100
AcDbTrace
 10
265.2432004732895
 20
162.5187212949775
 30
0.0
 11
265.2432004732895
 21
161.6853879616441
 31
0.0
 12
262.7432004732895
 22
162.1020546283108
 32
0.0
 13
262.7432004732895
 23
162.1020546283108
 33
0.0
  0
MTEXT
  5
5ED
330
4F1
100
AcDbEntity
  8
0
 62
     0
100
AcDbMText
 10
256.2432004732895
 20
162.1020546283108
 30
0.0
 40
10.0
 41
0.0
 71
     5
 72
     1
  1
\A1;12
  7
BIGFONT
 73
     1
 44
1.0
  0
POINT
  5
5EE
330
4F1
100
AcDbEntity
  8
DEFPOINTS
 62
     0
100
AcDbPoint
 10
250.7432004732894
 20
151.6020546283108
 30
0.0
  0
POINT
  5
5EF
330
4F1
100
AcDbEntity
  8
DEFPOINTS
 62
     0
100
AcDbPoint
 10
262.7432004732895
 20
148.6020546283109
 30
0.0
  0
POINT
  5
5F0
330
4F1
100
AcDbEntity
  8
DEFPOINTS
 62
     0
100
AcDbPoint
 10
262.7432004732895
 20
162.1020546283108
 30
0.0
  0
ENDBLK
  5
4FD
330
4F1
100
AcDbEntity
  8
0
100
AcDbBlockEnd
  0
BLOCK
  5
509
330
4FE
100
AcDbEntity
  8
0
100
AcDbBlockBegin
  2
*D28
 70
     1
 10
0.0
 20
0.0
 30
0.0
  3
*D28
  1

  0
LINE
  5
5FB
330
4FE
100
AcDbEntity
  8
0
 62
     0
370
    -2
100
AcDbLine
 10
233.7432004732894
 20
150.6020546283108
 30
0.0
 11
233.7432004732894
 21
170.6020546283108
 31
0.0
  0
LINE
  5
5FC
330
4FE
100
AcDbEntity
  8
0
 62
     0
370
    -2
100
AcDbLine
 10
262.7432004732895
 20
149.6020546283109
 30
0.0
 11
262.7432004732895
 21
170.6020546283108
 31
0.0
  0
LINE
  5
5FD
330
4FE
100
AcDbEntity
  8
0
 62
     0
370
    -2
100
AcDbLine
 10
236.2432004732894
 20
169.6020546283108
 30
0.0
 11
240.9865338066229
 21
169.6020546283108
 31
0.0
  0
LINE
  5
5FE
330
4FE
100
AcDbEntity
  8
0
 62
     0
370
    -2
100
AcDbLine
 10
260.2432004732895
 20
169.6020546283108
 30
0.0
 11
254.4998671399561
 21
169.6020546283108
 31
0.0
  0
SOLID
  5
5FF
330
4FE
100
AcDbEntity
  8
0
 62
     0
100
AcDbTrace
 10
236.2432004732894
 20
170.0187212949774
 30
0.0
 11
236.2432004732894
 21
169.1853879616441
 31
0.0
 12
233.7432004732894
 22
169.6020546283108
 32
0.0
 13
233.7432004732894
 23
169.6020546283108
 33
0.0
  0
SOLID
  5
600
330
4FE
100
AcDbEntity
  8
0
 62
     0
100
AcDbTrace
 10
260.2432004732895
 20
170.0187212949774
 30
0.0
 11
260.2432004732895
 21
169.1853879616441
 31
0.0
 12
262.7432004732895
 22
169.6020546283108
 32
0.0
 13
262.7432004732895
 23
169.6020546283108
 33
0.0
  0
MTEXT
  5
601
330
4FE
100
AcDbEntity
  8
0
 62
     0
100
AcDbMText
 10
247.7432004732894
 20
169.6020546283108
 30
0.0
 40
10.0
 41
0.0
 71
     5
 72
     1
  1
\A1;29
  7
BIGFONT
 73
     1
 44
1.0
  0
POINT
  5
602
330
4FE
100
AcDbEntity
  8
DEFPOINTS
 62
     0
100
AcDbPoint
 10
233.7432004732894
 20
149.6020546283108
 30
0.0
  0
POINT
  5
603
330
4FE
100
AcDbEntity
  8
DEFPOINTS
 62
     0
100
AcDbPoint
 10
262.7432004732895
 20
148.6020546283109
 30
0.0
  0
POINT
  5
604
330
4FE
100
AcDbEntity
  8
DEFPOINTS
 62
     0
100
AcDbPoint
 10
262.7432004732895
 20
169.6020546283108
 30
0.0
  0
ENDBLK
  5
50A
330
4FE
100
AcDbEntity
  8
0
100
AcDbBlockEnd
  0
BLOCK
  5
6E0
330
6DF
100
AcDbEntity
  8
0
100
AcDbBlockBegin
  2
*U29
 70
     1
 10
0.0
 20
0.0
 30
0.0
  3
*U29
  1

  0
ENDBLK
  5
6E1
330
6DF
100
AcDbEntity
  8
0
100
AcDbBlockEnd
  0
ENDSEC
  0
SECTION
  2
ENTITIES
  0
ARC
  5
3D4
330
169
100
AcDbEntity
  8
3
100
AcDbCircle
 10
60.3348713776959
 20
132.6020546283108
 30
0.0
 40
54.5
100
AcDbArc
 50
104.2272691094371
 51
270.0
  0
LINE
  5
3D5
330
169
100
AcDbEntity
  8
3
100
AcDbLine
 10
48.79158155359629
 20
115.0591797203364
 30
0.0
 11
24.99320558803759
 21
102.3825797948182
 31
0.0
  0
ARC
  5
3D6
330
169
100
AcDbEntity
  8
3
100
AcDbCircle
 10
47.85826305139322
 20
125.3986814525464
 30
0.0
 40
34.13555374481765
100
AcDbArc
 50
199.349232102157
 51
220.6507678978407
  0
LINE
  5
3D9
330
169
100
AcDbEntity
  8
1
100
AcDbLine
 10
60.3348713776959
 20
132.6020546283108
 30
0.0
 11
-2.884983098568113
 21
96.10205462831093
 31
0.0
  0
LINE
  5
3DB
330
169
100
AcDbEntity
  8
1
100
AcDbLine
 10
60.33487137769586
 20
132.6020546283108
 30
0.0
 11
60.33487137769586
 21
60.60205462831087
 31
0.0
  0
ARC
  5
3DE
330
169
100
AcDbEntity
  8
3
100
AcDbCircle
 10
60.3348713776959
 20
132.6020546283108
 30
0.0
 40
46.5
100
AcDbArc
 50
220.5326438949242
 51
270.0
  0
ARC
  5
3DF
330
169
100
AcDbEntity
  8
3
100
AcDbCircle
 10
24.11643400795066
 20
105.2649882606693
 30
0.0
 40
3.012807157396373
100
AcDbArc
 50
224.2896643026551
 51
286.9187225246886
  0
LINE
  5
3E2
330
169
100
AcDbEntity
  8
1
100
AcDbLine
 10
-8.165128622304107
 20
132.6020546283108
 30
0.0
 11
60.33487137769586
 21
132.6020546283107
 31
0.0
  0
ARC
  5
3E3
330
169
100
AcDbEntity
  8
3
100
AcDbCircle
 10
60.3348713776959
 20
132.6020546283108
 30
0.0
 40
46.5
100
AcDbArc
 50
100.5326438949236
 51
199.4673561050765
  0
LINE
  5
3E4
330
169
100
AcDbEntity
  8
3
100
AcDbLine
 10
39.37065113992764
 20
131.3767098513815
 30
0.0
 11
16.49320558803759
 21
117.1050116591537
 31
0.0
  0
ARC
  5
3E6
330
169
100
AcDbEntity
  8
3
100
AcDbCircle
 10
18.5510587535046
 20
114.9045009645565
 30
0.0
 40
3.012807157396373
100
AcDbArc
 50
133.0812774753119
 51
195.7103356973433
  0
LINE
  5
3E8
330
169
100
AcDbEntity
  8
1
100
AcDbLine
 10
60.3348713776959
 20
132.6020546283108
 30
0.0
 11
60.3348713776959
 21
205.6020546283109
 31
0.0
  0
ARC
  5
3F0
330
169
100
AcDbEntity
  8
3
100
AcDbCircle
 10
52.05465964035671
 20
152.9625421402176
 30
0.0
 40
1.958712825157349
100
AcDbArc
 50
234.3817601546128
 51
295.7557268189717
  0
ARC
  5
3F2
330
169
100
AcDbEntity
  8
3
100
AcDbCircle
 10
60.3348713776959
 20
132.6820621498234
 30
0.0
 40
19.95110754706889
100
AcDbArc
 50
90.0
 51
111.8615091741645
  0
ARC
  5
3F3
330
169
100
AcDbEntity
  8
3
100
AcDbCircle
 10
60.3348713776959
 20
132.6020546283108
 30
0.0
 40
21.0
100
AcDbArc
 50
116.6549055113469
 51
183.3450944886541
  0
ARC
  5
3F6
330
169
100
AcDbEntity
  8
3
100
AcDbCircle
 10
60.3348713776959
 20
132.6020546283108
 30
0.0
 40
21.0
100
AcDbArc
 50
236.6549055113468
 51
269.9999999999998
  0
ARC
  5
3F8
330
169
100
AcDbEntity
  8
3
100
AcDbCircle
 10
60.33487137769586
 20
132.6020546283108
 30
0.0
 40
17.49999999999997
100
AcDbArc
 50
90.0
 51
270.0
  0
ARC
  5
3F9
330
169
100
AcDbEntity
  8
3
100
AcDbCircle
 10
60.26558283157214
 20
132.5620508675545
 30
0.0
 40
19.95110754706889
100
AcDbArc
 50
188.138490825834
 51
231.8615091741647
  0
ARC
  5
3FA
330
169
100
AcDbEntity
  8
3
100
AcDbCircle
 10
46.84227782761833
 20
115.2509371591077
 30
0.0
 40
1.958712825157349
100
AcDbArc
 50
354.3817601546126
 51
55.75572681897183
  0
ARC
  5
3FB
330
169
100
AcDbEntity
  8
3
100
AcDbCircle
 10
38.56206609027913
 20
129.5926845856072
 30
0.0
 40
1.958712825157349
100
AcDbArc
 50
4.244273181028696
 51
65.61823984538843
  0
LINE
  5
404
330
169
100
AcDbEntity
  8
3
100
AcDbLine
 10
50.91394096402718
 20
151.3702743132146
 30
0.0
 11
51.83487137769589
 21
178.3185724309606
 31
0.0
  0
ARC
  5
405
330
169
100
AcDbEntity
  8
3
100
AcDbCircle
 10
60.3348713776959
 20
183.6020546283108
 30
0.0
 40
9.0
100
AcDbArc
 50
186.3793702084445
 51
270.0
  0
ARC
  5
407
330
169
100
AcDbEntity
  8
3
100
AcDbCircle
 10
46.73064184615009
 20
180.134612683322
 30
0.0
 40
5.299999999999998
100
AcDbArc
 50
27.74615204489236
 51
87.73100696353083
  0
ARC
  5
408
330
169
100
AcDbEntity
  8
3
100
AcDbCircle
 10
54.76949612324983
 20
177.6366746597066
 30
0.0
 40
3.012807157396373
100
AcDbArc
 50
143.2509004080634
 51
166.9187225246862
  0
LINE
  5
412
330
169
100
AcDbEntity
  8
1
100
AcDbLine
 10
223.7432004732894
 20
63.60205462831086
 30
0.0
 11
223.7432004732894
 21
200.6020546283107
 31
0.0
  0
LINE
  5
413
330
169
100
AcDbEntity
  8
3
100
AcDbLine
 10
231.7432004732894
 20
78.10205462831087
 30
0.0
 11
231.7432004732894
 21
108.0842138861934
 31
0.0
  0
LINE
  5
414
330
169
100
AcDbEntity
  8
3
100
AcDbLine
 10
215.7432004732894
 20
78.10205462831087
 30
0.0
 11
215.7432004732894
 21
132.6020546283107
 31
0.0
  0
ARC
  5
415
330
169
100
AcDbEntity
  8
3
100
AcDbCircle
 10
231.2606747083748
 20
109.7747177326078
 30
0.0
 40
11.76483587876199
100
AcDbArc
 50
149.0033034181744
 51
210.9966965818254
  0
LINE
  5
416
330
169
100
AcDbEntity
  8
3
100
AcDbLine
 10
228.7034448315256
 20
106.0514654680718
 30
0.0
 11
236.7918411179204
 21
112.1290668780689
 31
0.0
  0
ARC
  5
417
330
169
100
AcDbEntity
  8
3
100
AcDbCircle
 10
223.7432004732894
 20
78.10205462831087
 30
0.0
 40
8.0
100
AcDbArc
 50
180.0
 51
0.0
  0
ARC
  5
418
330
169
100
AcDbEntity
  8
3
100
AcDbCircle
 10
223.7432004732894
 20
80.10205462831086
 30
0.0
 40
6.0
100
AcDbArc
 50
4.78019184719807
 51
175.2198081528019
  0
ARC
  5
41A
330
169
100
AcDbEntity
  8
3
100
AcDbCircle
 10
214.1973230574667
 20
81.41844412692538
 30
0.0
 40
3.658985691591584
100
AcDbArc
 50
294.9917630081916
 51
347.1077024497715
  0
LINE
  5
41B
330
169
100
AcDbEntity
  8
3
100
AcDbLine
 10
215.7432004732894
 20
102.3825797948182
 30
0.0
 11
215.7432004732894
 21
105.5825797948182
 31
0.0
  0
ARC
  5
41F
330
169
100
AcDbEntity
  8
3
100
AcDbCircle
 10
233.2890778891123
 20
81.41844412692538
 30
0.0
 40
3.658985691591584
100
AcDbArc
 50
192.8922975502285
 51
245.0082369918082
  0
ARC
  5
420
330
169
100
AcDbEntity
  8
3
100
AcDbCircle
 10
223.7432004732894
 20
105.5825797948182
 30
0.0
 40
3.2
100
AcDbArc
 50
198.2009772128665
 51
329.9149789397599
  0
ARC
  5
421
330
169
100
AcDbEntity
  8
3
100
AcDbCircle
 10
233.1639524326529
 20
99.14159599771357
 30
0.0
 40
8.224501453407636
100
AcDbArc
 50
122.8433363524457
 51
147.1799530354479
  0
ARC
  5
427
330
169
100
AcDbEntity
  8
3
100
AcDbCircle
 10
223.7432004732894
 20
187.1020546283109
 30
0.0
 40
8.0
100
AcDbArc
 50
0.0
 51
180.0
  0
LINE
  5
42C
330
169
100
AcDbEntity
  8
3
100
AcDbLine
 10
215.7432004732894
 20
174.6020546283109
 30
0.0
 11
223.119846559727
 21
173.8672666821283
 31
0.0
  0
LINE
  5
430
330
169
100
AcDbEntity
  8
1
100
AcDbLine
 10
204.2432004732894
 20
132.6020546283107
 30
0.0
 11
270.2432004732894
 21
132.6020546283107
 31
0.0
  0
LINE
  5
431
330
169
100
AcDbEntity
  8
3
100
AcDbLine
 10
215.7432004732894
 20
187.1020546283108
 30
0.0
 11
215.7432004732894
 21
132.6020546283107
 31
0.0
  0
LINE
  5
432
330
169
100
AcDbEntity
  8
3
100
AcDbLine
 10
215.7432004732894
 20
117.1020546283108
 30
0.0
 11
215.7432004732894
 21
113.9020546283108
 31
0.0
  0
LINE
  5
439
330
169
100
AcDbEntity
  8
3
100
AcDbLine
 10
250.7432004732894
 20
150.1020546283108
 30
0.0
 11
250.7432004732894
 21
151.6020546283108
 31
0.0
  0
LINE
  5
43A
330
169
100
AcDbEntity
  8
3
100
AcDbLine
 10
233.7432004732894
 20
149.6020546283108
 30
0.0
 11
234.7432004732894
 21
152.0646482443233
 31
0.0
  0
LINE
  5
43C
330
169
100
AcDbEntity
  8
3
100
AcDbLine
 10
231.7432004732894
 20
162.6089990727551
 30
0.0
 11
231.7432004732894
 21
132.6020546283107
 31
0.0
  0
ARC
  5
43F
330
169
100
AcDbEntity
  8
3
100
AcDbCircle
 10
242.2432004732894
 20
130.6645546283109
 30
0.0
 40
19.0625
100
AcDbArc
 50
246.831120214881
 51
296.4810398303743
  0
ARC
  5
440
330
169
100
AcDbEntity
  8
2
100
AcDbCircle
 10
232.6730504024503
 20
123.2201483869697
 30
0.0
 40
13.30801790912283
100
AcDbArc
 50
332.1796137087561
 51
28.29047263609304
  0
LINE
  5
442
330
169
100
AcDbEntity
  8
3
100
AcDbLine
 10
233.7432004732894
 20
132.6020546283107
 30
0.0
 11
233.7432004732894
 21
115.6020546283107
 31
0.0
  0
ARC
  5
443
330
169
100
AcDbEntity
  8
2
100
AcDbCircle
 10
249.4848045422576
 20
123.1600344982888
 30
0.0
 40
12.98110205567608
100
AcDbArc
 50
148.4094027106604
 51
208.8124611123249
  0
ARC
  5
444
330
169
100
AcDbEntity
  8
2
100
AcDbCircle
 10
226.9059374607363
 20
138.2394846391453
 30
0.0
 40
14.14909710656092
100
AcDbArc
 50
312.1723323175267
 51
323.9782840815458
  0
LINE
  5
445
330
169
100
AcDbEntity
  8
3
100
AcDbLine
 10
231.7432004732894
 20
123.5857251292889
 30
0.0
 11
231.7432004732894
 21
132.6020546283107
 31
0.0
  0
LINE
  5
446
330
169
100
AcDbEntity
  8
2
100
AcDbLine
 10
233.7432004732894
 20
124.8720664068719
 30
0.0
 11
236.4051146611028
 21
127.7531801686979
 31
0.0
  0
LINE
  5
447
330
169
100
AcDbEntity
  8
3
100
AcDbLine
 10
233.7432004732894
 20
115.6020546283107
 30
0.0
 11
234.7432004732894
 21
113.1394610122983
 31
0.0
  0
ARC
  5
448
330
169
100
AcDbEntity
  8
3
100
AcDbCircle
 10
230.6115608727764
 20
108.9423835436677
 30
0.0
 40
11.70375945835365
100
AcDbArc
 50
122.8063792645387
 51
142.7607377572608
  0
LINE
  5
449
330
169
100
AcDbEntity
  8
3
100
AcDbLine
 10
224.270442991011
 20
118.779466925878
 30
0.0
 11
233.7432004732894
 21
124.8720664068719
 31
0.0
  0
ARC
  5
44A
330
169
100
AcDbEntity
  8
2
100
AcDbCircle
 10
239.1462619553385
 20
120.617305802669
 30
0.0
 40
6.330366541516919
100
AcDbArc
 50
285.3052006577247
 51
303.0032824993659
  0
ARC
  5
44B
330
169
100
AcDbEntity
  8
2
100
AcDbCircle
 10
241.2486037294504
 20
118.6503142286432
 30
0.0
 40
3.5911385732006
100
AcDbArc
 50
209.0990771591777
 51
332.8083627632143
  0
LINE
  5
44C
330
169
100
AcDbEntity
  8
2
100
AcDbLine
 10
236.7918411179204
 20
112.1290668780689
 30
0.0
 11
239.1626863156778
 21
113.7145008383315
 31
0.0
  0
ARC
  5
44D
330
169
100
AcDbEntity
  8
2
100
AcDbCircle
 10
242.6225577274518
 20
108.6474852047785
 30
0.0
 40
6.1355812778155
100
AcDbArc
 50
107.1119210370427
 51
124.3261338567054
  0
LINE
  5
44E
330
169
100
AcDbEntity
  8
3
100
AcDbLine
 10
233.7432004732894
 20
132.6020546283107
 30
0.0
 11
233.7432004732894
 21
149.6020546283108
 31
0.0
  0
ARC
  5
44F
330
169
100
AcDbEntity
  8
2
100
AcDbCircle
 10
241.2444225680808
 20
127.7742847966564
 30
0.0
 40
3.60242526201815
100
AcDbArc
 50
29.12007201976603
 51
143.4717673358985
  0
LINE
  5
450
330
169
100
AcDbEntity
  8
3
100
AcDbLine
 10
262.7432004732895
 20
116.6020546283107
 30
0.0
 11
262.7432004732895
 21
132.6020546283107
 31
0.0
  0
LINE
  5
451
330
169
100
AcDbEntity
  8
3
100
AcDbLine
 10
250.7432004732894
 20
115.1020546283108
 30
0.0
 11
261.2432004732895
 21
115.1020546283108
 31
0.0
  0
LINE
  5
452
330
169
100
AcDbEntity
  8
3
100
AcDbLine
 10
250.7432004732894
 20
115.1020546283108
 30
0.0
 11
250.7432004732894
 21
113.6020546283107
 31
0.0
  0
ARC
  5
453
330
169
100
AcDbEntity
  8
3
100
AcDbCircle
 10
261.2432004732895
 20
116.6020546283109
 30
0.0
 40
1.5
100
AcDbArc
 50
270.0
 51
0.0
  0
LINE
  5
454
330
169
100
AcDbEntity
  8
3
100
AcDbLine
 10
262.7432004732895
 20
148.6020546283108
 30
0.0
 11
262.7432004732895
 21
132.6020546283107
 31
0.0
  0
LINE
  5
455
330
169
100
AcDbEntity
  8
3
100
AcDbLine
 10
250.7432004732894
 20
150.1020546283108
 30
0.0
 11
261.2432004732895
 21
150.1020546283108
 31
0.0
  0
ARC
  5
456
330
169
100
AcDbEntity
  8
3
100
AcDbCircle
 10
261.2432004732895
 20
148.6020546283109
 30
0.0
 40
1.5
100
AcDbArc
 50
0.0
 51
90.0
  0
ARC
  5
457
330
169
100
AcDbEntity
  8
3
100
AcDbCircle
 10
240.1744919715314
 20
124.4980775515097
 30
0.0
 40
29.09163406848938
100
AcDbArc
 50
68.6975972690617
 51
78.50385381400363
  0
LINE
  5
459
330
169
100
AcDbEntity
  8
3
100
AcDbLine
 10
223.119846559727
 20
173.8672666821283
 30
0.0
 11
234.9472865683018
 21
157.120331115378
 31
0.0
  0
LINE
  5
45A
330
169
100
AcDbEntity
  8
3
100
AcDbLine
 10
230.1954136249741
 20
175.8782646775431
 30
0.0
 11
244.3254256753504
 21
157.1648287204984
 31
0.0
  0
ARC
  5
45B
330
169
100
AcDbEntity
  8
3
100
AcDbCircle
 10
231.4750957436438
 20
154.6380132702354
 30
0.0
 40
4.268256202145495
100
AcDbArc
 50
331.9845118589582
 51
35.56150745422527
  0
ARC
  5
45C
330
169
100
AcDbEntity
  8
3
100
AcDbCircle
 10
238.1741218646532
 20
149.5513703931368
 30
0.0
 40
4.252973918445966
100
AcDbArc
 50
133.5625718686235
 51
143.7758332322395
  0
ARC
  5
45D
330
169
100
AcDbEntity
  8
3
100
AcDbCircle
 10
238.4932004732895
 20
152.4494125996833
 30
0.0
 40
7.5
100
AcDbArc
 50
4.25652866297446
 51
38.95590783775815
  0
LINE
  5
45E
330
169
100
AcDbEntity
  8
3
100
AcDbLine
 10
231.7432004732894
 20
187.1020546283108
 30
0.0
 11
231.7432004732894
 21
173.9638967335739
 31
0.0
  0
LINE
  5
45F
330
169
100
AcDbEntity
  8
3
100
AcDbLine
 10
230.7432004732894
 20
186.4137222970493
 30
0.0
 11
230.7432004732894
 21
177.6020546283108
 31
0.0
  0
LINE
  5
462
330
169
100
AcDbEntity
  8
3
100
AcDbLine
 10
230.7432004732894
 20
176.1020546283108
 30
0.0
 11
230.1954136249741
 21
175.8782646775431
 31
0.0
  0
LINE
  5
463
330
169
100
AcDbEntity
  8
3
100
AcDbLine
 10
230.7432004732894
 20
177.6020546283108
 30
0.0
 11
230.7432004732894
 21
176.1020546283108
 31
0.0
  0
ARC
  5
465
330
169
100
AcDbEntity
  8
3
100
AcDbCircle
 10
233.2890778891123
 20
183.7856651296963
 30
0.0
 40
3.658985691591584
100
AcDbArc
 50
114.9917630081915
 51
134.0900238598081
  0
ARC
  5
606
330
169
100
AcDbEntity
  8
3
100
AcDbCircle
 10
60.3348713776959
 20
132.6020546283108
 30
0.0
 40
19.0
100
AcDbArc
 50
90.0
 51
269.9999999999998
  0
ARC
  5
608
330
169
100
AcDbEntity
  8
3
100
AcDbCircle
 10
60.3348713776959
 20
132.6020546283108
 30
0.0
 40
62.5
100
AcDbArc
 50
90.0
 51
270.0
  0
ARC
  5
60A
330
169
100
AcDbEntity
  8
3
100
AcDbCircle
 10
60.33487137769586
 20
132.6020546283108
 30
0.0
 40
62.5
100
AcDbArc
 50
270.0
 51
90.0
  0
ARC
  5
60B
330
169
100
AcDbEntity
  8
3
100
AcDbCircle
 10
60.33487137769586
 20
132.6020546283108
 30
0.0
 40
19.0
100
AcDbArc
 50
270.0
 51
90.0
  0
ARC
  5
60C
330
169
100
AcDbEntity
  8
3
100
AcDbCircle
 10
60.3348713776959
 20
132.6020546283108
 30
0.0
 40
17.49999999999997
100
AcDbArc
 50
270.0
 51
90.0
  0
ARC
  5
60D
330
169
100
AcDbEntity
  8
3
100
AcDbCircle
 10
60.33487137769586
 20
132.6020546283108
 30
0.0
 40
21.0
100
AcDbArc
 50
356.6549055113456
 51
63.34509448865304
  0
ARC
  5
60E
330
169
100
AcDbEntity
  8
3
100
AcDbCircle
 10
60.33487137769586
 20
132.6020546283108
 30
0.0
 40
46.5
100
AcDbArc
 50
340.5326438949233
 51
79.46735610507637
  0
ARC
  5
60F
330
169
100
AcDbEntity
  8
3
100
AcDbCircle
 10
60.33487137769586
 20
132.6020546283108
 30
0.0
 40
54.5
100
AcDbArc
 50
270.0
 51
75.77273089056281
  0
LINE
  5
610
330
169
100
AcDbEntity
  8
1
100
AcDbLine
 10
128.8348713776957
 20
132.6020546283108
 30
0.0
 11
60.33487137769588
 21
132.6020546283107
 31
0.0
  0
LINE
  5
611
330
169
100
AcDbEntity
  8
1
100
AcDbLine
 10
60.33487137769586
 20
132.6020546283108
 30
0.0
 11
123.5547258539597
 21
96.10205462831093
 31
0.0
  0
ARC
  5
612
330
169
100
AcDbEntity
  8
3
100
AcDbCircle
 10
60.33487137769586
 20
132.6020546283108
 30
0.0
 40
46.5
100
AcDbArc
 50
270.0
 51
319.4673561050758
  0
LINE
  5
613
330
169
100
AcDbEntity
  8
3
100
AcDbLine
 10
81.29909161546411
 20
131.3767098513815
 30
0.0
 11
104.176537167354
 21
117.1050116591537
 31
0.0
  0
LINE
  5
614
330
169
100
AcDbEntity
  8
3
100
AcDbLine
 10
71.87816120179545
 20
115.0591797203364
 30
0.0
 11
95.67653716735417
 21
102.3825797948182
 31
0.0
  0
ARC
  5
615
330
169
100
AcDbEntity
  8
3
100
AcDbCircle
 10
72.81147970399851
 20
125.3986814525464
 30
0.0
 40
34.13555374481765
100
AcDbArc
 50
319.3492321021591
 51
340.6507678978428
  0
ARC
  5
616
330
169
100
AcDbEntity
  8
3
100
AcDbCircle
 10
102.118684001887
 20
114.9045009645565
 30
0.0
 40
3.012807157396373
100
AcDbArc
 50
344.2896643026565
 51
46.91872252468793
  0
ARC
  5
617
330
169
100
AcDbEntity
  8
3
100
AcDbCircle
 10
96.55330874744109
 20
105.2649882606693
 30
0.0
 40
3.012807157396373
100
AcDbArc
 50
253.0812774753113
 51
315.7103356973448
  0
ARC
  5
618
330
169
100
AcDbEntity
  8
3
100
AcDbCircle
 10
60.4041599238196
 20
132.5620508675545
 30
0.0
 40
19.95110754706889
100
AcDbArc
 50
308.1384908258351
 51
351.8615091741658
  0
ARC
  5
619
330
169
100
AcDbEntity
  8
3
100
AcDbCircle
 10
60.33487137769586
 20
132.6020546283108
 30
0.0
 40
21.0
100
AcDbArc
 50
270.0
 51
303.345094488653
  0
ARC
  5
61A
330
169
100
AcDbEntity
  8
3
100
AcDbCircle
 10
73.82746492777343
 20
115.2509371591077
 30
0.0
 40
1.958712825157349
100
AcDbArc
 50
124.244273181028
 51
185.6182398453871
  0
ARC
  5
61B
330
169
100
AcDbEntity
  8
3
100
AcDbCircle
 10
82.10767666511264
 20
129.5926845856072
 30
0.0
 40
1.958712825157349
100
AcDbArc
 50
114.3817601546115
 51
175.7557268189713
  0
ARC
  5
61F
330
169
100
AcDbEntity
  8
3
100
AcDbCircle
 10
73.93910090924165
 20
180.134612683322
 30
0.0
 40
5.299999999999998
100
AcDbArc
 50
92.26899303646915
 51
152.2538479551076
  0
LINE
  5
620
330
169
100
AcDbEntity
  8
3
100
AcDbLine
 10
69.75580179136457
 20
151.3702743132146
 30
0.0
 11
68.83487137769586
 21
178.3185724309606
 31
0.0
  0
ARC
  5
621
330
169
100
AcDbEntity
  8
3
100
AcDbCircle
 10
68.61508311503505
 20
152.9625421402176
 30
0.0
 40
1.958712825157349
100
AcDbArc
 50
244.2442731810283
 51
305.618239845387
  0
ARC
  5
622
330
169
100
AcDbEntity
  8
3
100
AcDbCircle
 10
60.33487137769586
 20
132.6820621498234
 30
0.0
 40
19.95110754706889
100
AcDbArc
 50
68.13849082583543
 51
90.0
  0
ARC
  5
624
330
169
100
AcDbEntity
  8
3
100
AcDbCircle
 10
60.33487137769586
 20
183.6020546283108
 30
0.0
 40
9.0
100
AcDbArc
 50
270.0
 51
353.6206297915554
  0
ARC
  5
625
330
169
100
AcDbEntity
  8
3
100
AcDbCircle
 10
65.9002466321419
 20
177.6366746597066
 30
0.0
 40
3.012807157396373
100
AcDbArc
 50
13.08127747531375
 51
36.74909959193648
  0
ENDSEC
  0
SECTION
  2
OBJECTS
  0
DICTIONARY
  5
15E
330
0
100
AcDbDictionary
281
     1
  3
ACAD_GROUP
350
15F
  3
ACAD_LAYOUT
350
193
  3
ACAD_MLINESTYLE
350
16C
  3
ACAD_PLOTSETTINGS
350
194
  3
ACAD_PLOTSTYLENAME
350
191
  3
ACDBVARIABLEDICTIONARY
350
183
  3
AcmDictionary
350
250
  3
AMG
350
198
  3
AMGSNAPSETTINGS
350
26E
  3
DWGPROPS
350
6EB
  0
DICTIONARY
  5
626
330
169
100
AcDbDictionary
280
     1
281
     1
  3
ACAD_INDEX
360
627
  0
DICTIONARY
  5
15F
102
{ACAD_REACTORS
330
15E
102
}
330
15E
100
AcDbDictionary
281
     1
  0
DICTIONARY
  5
193
102
{ACAD_REACTORS
330
15E
102
}
330
15E
100
AcDbDictionary
281
     1
  3
Model
350
195
  3
ﾚｲｱｳﾄ1
350
196
  0
DICTIONARY
  5
16C
102
{ACAD_REACTORS
330
15E
102
}
330
15E
100
AcDbDictionary
281
     1
  3
STANDARD
350
16D
  0
DICTIONARY
  5
194
102
{ACAD_REACTORS
330
15E
102
}
330
15E
100
AcDbDictionary
281
     1
  0
ACDBDICTIONARYWDFLT
  5
191
102
{ACAD_REACTORS
330
15E
102
}
330
15E
100
AcDbDictionary
281
     1
  3
Normal
350
192
100
AcDbDictionaryWithDefault
340
192
  0
DICTIONARY
  5
183
102
{ACAD_REACTORS
330
15E
102
}
330
15E
100
AcDbDictionary
281
     1
  3
DIMADEC
350
184
  3
DIMASSOC
350
632
  3
INDEXCTL
350
631
  0
DICTIONARY
  5
250
102
{ACAD_REACTORS
330
15E
102
}
330
15E
100
AcDbDictionary
281
     1
  3
AcmBOMDATA
350
6E9
  0
DICTIONARY
  5
198
102
{ACAD_REACTORS
330
15E
102
}
330
15E
100
AcDbDictionary
281
     1
  3
AcMgSettings
350
199
  3
AMGLAYCFG
350
6F3
  0
DICTIONARY
  5
26E
102
{ACAD_REACTORS
330
15E
102
}
330
15E
100
AcDbDictionary
281
     1
  3
DIMENSION
350
273
  3
FEA
350
272
  3
HATCH (1)
350
26F
  3
HATCH (2)
350
270
  3
SIMPLE WELD
350
274
  3
SYMBOLS
350
271
  0
XRECORD
  5
6EB
102
{ACAD_REACTORS
330
15E
102
}
330
15E
100
AcDbXrecord
280
     1
  1
DWGPROPS COOKIE
  2

  3

  4

  6

  7

  8

  9

300
AmdtFileType=84
301
=
302
=
303
=
304
=
305
=
306
=
307
=
308
=
309
=
 40
0.0053996759259259
 41
2450861.87353368
 42
2456448.413363171
  1

 90
        1
  0
DICTIONARY
  5
627
102
{ACAD_REACTORS
330
626
102
}
330
626
100
AcDbDictionary
281
     1
  3
*A1
350
628
  0
LAYOUT
  5
195
102
{ACAD_REACTORS
330
193
102
}
330
193
100
AcDbPlotSettings
  1

  2
\\KONISHIDENXP\SHARP MX-2700FG
  4

  6

 40
0.0
 41
0.0
 42
0.0
 43
0.0
 44
0.0
 45
0.0
 46
0.0
 47
0.0
 48
0.0
 49
0.0
140
0.0
141
0.0
142
1.0
143
1.0
 70
  1712
 72
     0
 73
     0
 74
     0
  7

 75
     0
147
1.0
148
0.0
149
0.0
100
AcDbLayout
  1
Model
 70
     1
 71
     0
 10
0.0
 20
0.0
 11
12.0
 21
9.0
 12
0.0
 22
0.0
 32
0.0
 14
0.0
 24
0.0
 34
0.0
 15
0.0
 25
0.0
 35
0.0
146
0.0
 13
0.0
 23
0.0
 33
0.0
 16
1.0
 26
0.0
 36
0.0
 17
0.0
 27
1.0
 37
0.0
 76
     0
330
169
  0
LAYOUT
  5
196
102
{ACAD_REACTORS
330
193
102
}
330
193
100
AcDbPlotSettings
  1

  2
\\KONISHIDENXP\SHARP MX-2700FG
  4

  6

 40
0.0
 41
0.0
 42
0.0
 43
0.0
 44
0.0
 45
0.0
 46
0.0
 47
0.0
 48
0.0
 49
0.0
140
0.0
141
0.0
142
1.0
143
1.0
 70
   688
 72
     0
 73
     0
 74
     5
  7

 75
    16
147
1.0
148
0.0
149
0.0
100
AcDbLayout
  1
ﾚｲｱｳﾄ1
 70
     0
 71
     1
 10
0.0
 20
0.0
 11
12.0
 21
9.0
 12
0.0
 22
0.0
 32
0.0
 14
1.000000000000000E+20
 24
1.000000000000000E+20
 34
1.000000000000000E+20
 15
-1.000000000000000E+20
 25
-1.000000000000000E+20
 35
-1.000000000000000E+20
146
0.0
 13
0.0
 23
0.0
 33
0.0
 16
1.0
 26
0.0
 36
0.0
 17
0.0
 27
1.0
 37
0.0
 76
     0
330
166
  0
MLINESTYLE
  5
16D
102
{ACAD_REACTORS
330
16C
102
}
330
16C
100
AcDbMlineStyle
  2
STANDARD
 70
     0
  3

 62
   256
 51
90.0
 52
90.0
 71
     2
 49
0.5
 62
   256
  6
BYLAYER
 49
-0.5
 62
   256
  6
BYLAYER
  0
ACDBPLACEHOLDER
  5
192
102
{ACAD_REACTORS
330
191
102
}
330
191
  0
DICTIONARYVAR
  5
184
102
{ACAD_REACTORS
330
183
102
}
330
183
100
DictionaryVariables
280
     0
  1
0
  0
DICTIONARYVAR
  5
632
102
{ACAD_REACTORS
330
183
102
}
330
183
100
DictionaryVariables
280
     0
  1
0
  0
DICTIONARYVAR
  5
631
102
{ACAD_REACTORS
330
183
102
}
330
183
100
DictionaryVariables
280
     0
  1
1
  0
ACMDATADICTIONARY
  5
6E9
102
{ACAD_REACTORS
330
250
102
}
330
250
100
AcDbDictionary
281
     1
  3
*A1
350
6EA
100
AcmDataDictionary
  0
DICTIONARY
  5
199
102
{ACAD_REACTORS
330
198
102
}
330
198
100
AcDbDictionary
281
     1
  3
DWGSETTINGS
350
63B
  0
ACAMGFILTERDAT
  5
273
102
{ACAD_REACTORS
330
26E
102
}
330
26E
100
AcAmgFilterDat
 70
    15
  1
DIMENSION,AMDT_*_DIM
  2
*
  3
*
  4
*
  5
*
290
     1
  0
ACAMGFILTERDAT
  5
272
102
{ACAD_REACTORS
330
26E
102
}
330
26E
100
AcAmgFilterDat
 70
    15
  1
*
  2
AM_FEA-AM_*
  3
*
  4
*
  5
*
290
     1
  0
ACAMGFILTERDAT
  5
26F
102
{ACAD_REACTORS
330
26E
102
}
330
26E
100
AcAmgFilterDat
 70
    15
  1
HATCH
  2
*
  3
*
  4
*
  5
*
290
     1
  0
ACAMGFILTERDAT
  5
270
102
{ACAD_REACTORS
330
26E
102
}
330
26E
100
AcAmgFilterDat
 70
    15
  1
LINE
  2
8,8N,*-8,*-8N,AM_8,AM_8N,*-AM_8,*-AM_8N
  3
*
  4
*
  5
INSERT,STDPART2D
290
     1
  0
ACAMGFILTERDAT
  5
274
102
{ACAD_REACTORS
330
26E
102
}
330
26E
100
AcAmgFilterDat
 70
    15
  1
ARC
  2
AM_5
  3
*
  4
2
  5
INSERT
290
     0
  0
ACAMGFILTERDAT
  5
271
102
{ACAD_REACTORS
330
26E
102
}
330
26E
100
AcAmgFilterDat
 70
    15
  1
ACMFCFRAME,ACMDATUMTARGET,ACMDATUMID,ACMWELDSYM,ACMSURFSYM,ACMFEATID,ACMPARTREF,ACMBALLOON,AMDTEDGESYM,AMGSCREWCALCTABLE
  2
*
  3
*
  4
*
  5
*
290
     1
  0
LAYER_INDEX
  5
628
102
{ACAD_REACTORS
330
627
102
}
330
627
100
AcDbIndex
 40
2456448.456486898
100
AcDbLayerIndex
  8
0
360
629
 90
        0
  8
1
360
62A
 90
        8
  8
3
360
62B
 90
       87
  8
4
360
62C
 90
        0
  8
10
360
62D
 90
        0
  8
11
360
62E
 90
        0
  8
2
360
62F
 90
        9
  8
DEFPOINTS
360
630
 90
        0
  0
ACMDATAENTRYBLOCK
  5
6EA
102
{ACAD_REACTORS
330
6E9
102
}
330
6E9
100
AcmDataEntry
100
AcmDataEntryBlock
  0
IDBUFFER
  5
629
330
0
100
AcDbIdBuffer
  0
IDBUFFER
  5
62A
330
0
100
AcDbIdBuffer
330
3D9
330
3DB
330
3E2
330
3E8
330
412
330
430
330
610
330
611
  0
IDBUFFER
  5
62B
330
0
100
AcDbIdBuffer
330
3D4
330
3D5
330
3D6
330
3DE
330
3DF
330
3E3
330
3E4
330
3E6
330
3F0
330
3F2
330
3F3
330
3F6
330
3F8
330
3F9
330
3FA
330
3FB
330
404
330
405
330
407
330
408
330
413
330
414
330
415
330
416
330
417
330
418
330
41A
330
41B
330
41F
330
420
330
421
330
427
330
42C
330
431
330
432
330
439
330
43A
330
43C
330
43F
330
442
330
445
330
447
330
448
330
449
330
44E
330
450
330
451
330
452
330
453
330
454
330
455
330
456
330
457
330
459
330
45A
330
45B
330
45C
330
45D
330
45E
330
45F
330
462
330
463
330
465
330
606
330
608
330
60A
330
60B
330
60C
330
60D
330
60E
330
60F
330
612
330
613
330
614
330
615
330
616
330
617
330
618
330
619
330
61A
330
61B
330
61F
330
620
330
621
330
622
330
624
330
625
  0
IDBUFFER
  5
62C
330
0
100
AcDbIdBuffer
  0
IDBUFFER
  5
62D
330
0
100
AcDbIdBuffer
  0
IDBUFFER
  5
62E
330
0
100
AcDbIdBuffer
  0
IDBUFFER
  5
62F
330
0
100
AcDbIdBuffer
330
440
330
443
330
444
330
446
330
44A
330
44B
330
44C
330
44D
330
44F
  0
IDBUFFER
  5
630
330
0
100
AcDbIdBuffer
  0
ENDSEC
  0
EOF
