  0
SECTION
  2
HEADER
  9
$ACADVER
  1
AC1015
  9
$ACADMAINTVER
 70
    13
  9
$DWGCODEPAGE
  3
ANSI_932
  9
$INSBASE
 10
0.0
 20
0.0
 30
0.0
  9
$EXTMIN
 10
40.0
 20
70.0
 30
0.0
  9
$EXTMAX
 10
292.5
 20
190.0
 30
0.0
  9
$LIMMIN
 10
0.0
 20
0.0
  9
$LIMMAX
 10
350.0
 20
250.0
  9
$ORTHOMODE
 70
     1
  9
$REGENMODE
 70
     1
  9
$FILLMODE
 70
     1
  9
$QTEXTMODE
 70
     0
  9
$MIRRTEXT
 70
     1
  9
$LTSCALE
 40
20.0
  9
$ATTMODE
 70
     1
  9
$TEXTSIZE
 40
11.0
  9
$TRACEWID
 40
0.05
  9
$TEXTSTYLE
  7
BIGFONT
  9
$CLAYER
  8
0
  9
$CELTYPE
  6
BYLAYER
  9
$CECOLOR
 62
   256
  9
$CELTSCALE
 40
1.0
  9
$DISPSILH
 70
     0
  9
$DIMSCALE
 40
2.0
  9
$DIMASZ
 40
3.0
  9
$DIMEXO
 40
2.0
  9
$DIMDLI
 40
0.38
  9
$DIMRND
 40
0.0
  9
$DIMDLE
 40
0.0
  9
$DIMEXE
 40
2.0
  9
$DIMTP
 40
0.0
  9
$DIMTM
 40
0.0
  9
$DIMTXT
 40
3.2
  9
$DIMCEN
 40
0.09
  9
$DIMTSZ
 40
0.0
  9
$DIMTOL
 70
     0
  9
$DIMLIM
 70
     0
  9
$DIMTIH
 70
     0
  9
$DIMTOH
 70
     0
  9
$DIMSE1
 70
     0
  9
$DIMSE2
 70
     0
  9
$DIMTAD
 70
     1
  9
$DIMZIN
 70
     0
  9
$DIMBLK
  1

  9
$DIMASO
 70
     0
  9
$DIMSHO
 70
     0
  9
$DIMPOST
  1

  9
$DIMAPOST
  1

  9
$DIMALT
 70
     0
  9
$DIMALTD
 70
     2
  9
$DIMALTF
 40
25.4
  9
$DIMLFAC
 40
1.0
  9
$DIMTOFL
 70
     0
  9
$DIMTVP
 40
1.6
  9
$DIMTIX
 70
     1
  9
$DIMSOXD
 70
     0
  9
$DIMSAH
 70
     0
  9
$DIMBLK1
  1

  9
$DIMBLK2
  1

  9
$DIMSTYLE
  2
STANDARD
  9
$DIMCLRD
 70
     0
  9
$DIMCLRE
 70
     0
  9
$DIMCLRT
 70
     0
  9
$DIMTFAC
 40
1.0
  9
$DIMGAP
 40
0.09
  9
$DIMJUST
 70
     0
  9
$DIMSD1
 70
     0
  9
$DIMSD2
 70
     0
  9
$DIMTOLJ
 70
     1
  9
$DIMTZIN
 70
     0
  9
$DIMALTZ
 70
     0
  9
$DIMALTTZ
 70
     0
  9
$DIMUPT
 70
     0
  9
$DIMDEC
 70
     4
  9
$DIMTDEC
 70
     4
  9
$DIMALTU
 70
     2
  9
$DIMALTTD
 70
     2
  9
$DIMTXSTY
  7
BIGFONT
  9
$DIMAUNIT
 70
     0
  9
$DIMADEC
 70
     0
  9
$DIMALTRND
 40
0.0
  9
$DIMAZIN
 70
     0
  9
$DIMDSEP
 70
    46
  9
$DIMATFIT
 70
     3
  9
$DIMFRAC
 70
     0
  9
$DIMLDRBLK
  1

  9
$DIMLUNIT
 70
     2
  9
$DIMLWD
 70
    -2
  9
$DIMLWE
 70
    -2
  9
$DIMTMOVE
 70
     0
  9
$LUNITS
 70
     2
  9
$LUPREC
 70
     4
  9
$SKETCHINC
 40
0.1
  9
$FILLETRAD
 40
0.0
  9
$AUNITS
 70
     0
  9
$AUPREC
 70
     0
  9
$MENU
  1
ACAD
  9
$ELEVATION
 40
0.0
  9
$PELEVATION
 40
0.0
  9
$THICKNESS
 40
0.0
  9
$LIMCHECK
 70
     0
  9
$CHAMFERA
 40
0.0
  9
$CHAMFERB
 40
0.0
  9
$CHAMFERC
 40
0.0
  9
$CHAMFERD
 40
0.0
  9
$SKPOLY
 70
     0
  9
$TDCREATE
 40
2450857.475395601
  9
$TDUCREATE
 40
2450857.100395601
  9
$TDUPDATE
 40
2456448.456006400
  9
$TDUUPDATE
 40
2456448.081006400
  9
$TDINDWG
 40
0.0058436343
  9
$TDUSRTIMER
 40
0.0058434606
  9
$USRTIMER
 70
     1
  9
$ANGBASE
 50
0.0
  9
$ANGDIR
 70
     0
  9
$PDMODE
 70
     0
  9
$PDSIZE
 40
0.0
  9
$PLINEWID
 40
0.0
  9
$SPLFRAME
 70
     0
  9
$SPLINETYPE
 70
     6
  9
$SPLINESEGS
 70
     8
  9
$HANDSEED
  5
395
  9
$SURFTAB1
 70
     6
  9
$SURFTAB2
 70
     6
  9
$SURFTYPE
 70
     6
  9
$SURFU
 70
     6
  9
$SURFV
 70
     6
  9
$UCSBASE
  2

  9
$UCSNAME
  2

  9
$UCSORG
 10
0.0
 20
0.0
 30
0.0
  9
$UCSXDIR
 10
1.0
 20
0.0
 30
0.0
  9
$UCSYDIR
 10
0.0
 20
1.0
 30
0.0
  9
$UCSORTHOREF
  2

  9
$UCSORTHOVIEW
 70
     0
  9
$UCSORGTOP
 10
0.0
 20
0.0
 30
0.0
  9
$UCSORGBOTTOM
 10
0.0
 20
0.0
 30
0.0
  9
$UCSORGLEFT
 10
0.0
 20
0.0
 30
0.0
  9
$UCSORGRIGHT
 10
0.0
 20
0.0
 30
0.0
  9
$UCSORGFRONT
 10
0.0
 20
0.0
 30
0.0
  9
$UCSORGBACK
 10
0.0
 20
0.0
 30
0.0
  9
$PUCSBASE
  2

  9
$PUCSNAME
  2

  9
$PUCSORG
 10
0.0
 20
0.0
 30
0.0
  9
$PUCSXDIR
 10
1.0
 20
0.0
 30
0.0
  9
$PUCSYDIR
 10
0.0
 20
1.0
 30
0.0
  9
$PUCSORTHOREF
  2

  9
$PUCSORTHOVIEW
 70
     0
  9
$PUCSORGTOP
 10
0.0
 20
0.0
 30
0.0
  9
$PUCSORGBOTTOM
 10
0.0
 20
0.0
 30
0.0
  9
$PUCSORGLEFT
 10
0.0
 20
0.0
 30
0.0
  9
$PUCSORGRIGHT
 10
0.0
 20
0.0
 30
0.0
  9
$PUCSORGFRONT
 10
0.0
 20
0.0
 30
0.0
  9
$PUCSORGBACK
 10
0.0
 20
0.0
 30
0.0
  9
$USERI1
 70
     0
  9
$USERI2
 70
     0
  9
$USERI3
 70
     0
  9
$USERI4
 70
     0
  9
$USERI5
 70
     0
  9
$USERR1
 40
0.0
  9
$USERR2
 40
0.0
  9
$USERR3
 40
0.0
  9
$USERR4
 40
0.0
  9
$USERR5
 40
0.0
  9
$WORLDVIEW
 70
     1
  9
$SHADEDGE
 70
     3
  9
$SHADEDIF
 70
    70
  9
$TILEMODE
 70
     1
  9
$MAXACTVP
 70
    16
  9
$PINSBASE
 10
0.0
 20
0.0
 30
0.0
  9
$PLIMCHECK
 70
     0
  9
$PEXTMIN
 10
1.000000000000000E+20
 20
1.000000000000000E+20
 30
1.000000000000000E+20
  9
$PEXTMAX
 10
-1.000000000000000E+20
 20
-1.000000000000000E+20
 30
-1.000000000000000E+20
  9
$PLIMMIN
 10
0.0
 20
0.0
  9
$PLIMMAX
 10
12.0
 20
9.0
  9
$UNITMODE
 70
     0
  9
$VISRETAIN
 70
     0
  9
$PLINEGEN
 70
     1
  9
$PSLTSCALE
 70
     0
  9
$TREEDEPTH
 70
  3020
  9
$CMLSTYLE
  2
STANDARD
  9
$CMLJUST
 70
     0
  9
$CMLSCALE
 40
1.0
  9
$PROXYGRAPHICS
 70
     1
  9
$MEASUREMENT
 70
     0
  9
$CELWEIGHT
370
    -1
  9
$ENDCAPS
280
     0
  9
$JOINSTYLE
280
     0
  9
$LWDISPLAY
290
     0
  9
$INSUNITS
 70
     0
  9
$HYPERLINKBASE
  1

  9
$STYLESHEET
  1

  9
$XEDIT
290
     1
  9
$CEPSNTYPE
380
     0
  9
$PSTYLEMODE
290
     1
  9
$FINGERPRINTGUID
  2
{3EA890CE-5384-4876-99F7-EF1BC079AD9E}
  9
$VERSIONGUID
  2
{55F98230-11AD-4F62-8946-6760BBCD2564}
  9
$EXTNAMES
290
     1
  9
$PSVPSCALE
 40
0.0
  9
$OLESTARTUP
290
     0
  0
ENDSEC
  0
SECTION
  2
CLASSES
  0
CLASS
  1
DICTIONARYVAR
  2
AcDbDictionaryVar
  3
AutoCAD 2000
 90
        0
280
     0
281
     0
  0
CLASS
  1
ACDBDICTIONARYWDFLT
  2
AcDbDictionaryWithDefault
  3
AutoCAD 2000
 90
        0
280
     0
281
     0
  0
CLASS
  1
ACDBPLACEHOLDER
  2
AcDbPlaceHolder
  3
AutoCAD 2000
 90
        0
280
     0
281
     0
  0
CLASS
  1
LAYOUT
  2
AcDbLayout
  3
AutoCAD 2000
 90
        0
280
     0
281
     0
  0
CLASS
  1
AMGSETTINGSOBJ
  2
AmgSettingsObj
  3
"AcadM|Product Description: AutoCAD Mechanical 2000|Company: Autodesk"
 90
        0
280
     0
281
     0
  0
CLASS
  1
ACME_DOCUMENT
  2
AcMeDbDoc
  3
AcMeServices
 90
        0
280
     0
281
     0
  0
CLASS
  1
ACMESCOPE
  2
AcMeScope
  3
AcMeServices
 90
        0
280
     0
281
     0
  0
CLASS
  1
ACMECOMMANDHISTORY
  2
AcMeCommandHistory
  3
AcMeServices
 90
        0
280
     0
281
     0
  0
CLASS
  1
ACIMSYSVARMAN
  2
AcImSysVarManager
  3
AcMeServices
 90
        0
280
     0
281
     0
  0
CLASS
  1
ACIMREALSYSVAR
  2
AcImRealSysVar
  3
AcMeServices
 90
        0
280
     0
281
     0
  0
CLASS
  1
ACIMINTSYSVAR
  2
AcImIntSysVar
  3
AcMeServices
 90
        0
280
     0
281
     0
  0
CLASS
  1
ACMEDRAWINGMAN
  2
AcMeDrawingMan
  3
AcMeServices
 90
        0
280
     0
281
     0
  0
CLASS
  1
ACMEVIEW
  2
AcMeView
  3
AcMeServices
 90
        0
280
     0
281
     0
  0
CLASS
  1
ACDBENTITYCACHE
  2
AcMeEntityCache
  3
AcMeServices
 90
        0
280
     0
281
     0
  0
CLASS
  1
GSMANAGER
  2
AcMeGSManager
  3
AcMeServices
 90
        0
280
     0
281
     0
  0
CLASS
  1
AMDTINTERNALREACTOR
  2
AmdtInternalReactor
  3
AcMeServices
 90
        0
280
     0
281
     0
  0
CLASS
  1
ACMESTATEMGR
  2
AcMeStateMgr
  3
AcMeServices
 90
        0
280
     0
281
     0
  0
CLASS
  1
ACGREFMASTER
  2
AcGrefMaster
  3
AcAttribServices
 90
        0
280
     0
281
     0
  0
CLASS
  1
AM_DRAWING_MGR
  2
AcDmDwgMgr
  3
AcMechDwgViewMgmt
 90
        0
280
     0
281
     0
  0
CLASS
  1
AM_DWG_DOCUMENT
  2
AcDmDwgDocument
  3
AcMechDwgViewMgmt
 90
        0
280
     0
281
     0
  0
CLASS
  1
AM_DWG_SHEET
  2
AcDmSheet
  3
AcMechDwgViewMgmt
 90
        0
280
     0
281
     0
  0
CLASS
  1
AM_VIEWDIMPARMAP
  2
AcDmViewDimParMap
  3
AcMechDwgViewMgmt
 90
        0
280
     0
281
     0
  0
CLASS
  1
AM_DWGMGR_NAME
  2
AcDmDwgMgrName
  3
AcMechDwgViewMgmt
 90
        0
280
     0
281
     0
  0
CLASS
  1
ACME_DATABASE
  2
AcMeDbDatabase
  3
AcMeServices
 90
        0
280
     0
281
     0
  0
CLASS
  1
ACRFINSADJUSTERMGR
  2
AcRfInsAdjusterMgr
  3
AcMeServices
 90
        0
280
     0
281
     0
  0
CLASS
  1
ACGREFACADMASTER
  2
AcGrefacadMaster
  3
AcGrefServices
 90
        0
280
     0
281
     0
  0
CLASS
  1
AMDTMENUSTATEMGR
  2
AmdtMenuStateMgr
  3
McadcomServices
 90
        0
280
     0
281
     0
  0
CLASS
  1
AMDTMCOMMENUSTATE
  2
AmdtMcomMenuState
  3
McadcomServices
 90
        0
280
     0
281
     0
  0
CLASS
  1
AMIMASTER
  2
AmiMaster
  3
AmiServices
 90
        0
280
     0
281
     0
  0
CLASS
  1
ASAPP
  2
AcAsAppObject
  3
AutoSurfServices
 90
        0
280
     0
281
     0
  0
CLASS
  1
IM_STATIC_MAN
  2
AcImStaticVarManager
  3
AcMeServices
 90
        0
280
     0
281
     0
  0
CLASS
  1
ACIMSTRSYSVAR
  2
AcImStrSysVar
  3
AcMeServices
 90
        0
280
     0
281
     0
  0
CLASS
  1
ACIMDBLSTATICVAR
  2
AcImDblStaticVar
  3
AcMeServices
 90
        0
280
     0
281
     0
  0
CLASS
  1
ACIMSTRSTATICVAR
  2
AcImStrStaticVar
  3
AcMeServices
 90
        0
280
     0
281
     0
  0
CLASS
  1
ACIMINTSTATICVAR
  2
AcImIntStaticVar
  3
AcMeServices
 90
        0
280
     0
281
     0
  0
CLASS
  1
ACASGREFMASTER
  2
AcAsGrefMaster
  3
AutoSurfResolverServices
 90
        0
280
     0
281
     0
  0
CLASS
  1
ACADGREFMODULE
  2
AcAdGrefModule
  3
AdGrefServices
 90
        0
280
     0
281
     0
  0
CLASS
  1
AMDTMAPISURFMOUDULE
  2
AmdtMApiSurfModule
  3
MApiSurfServices
 90
    32768
280
     0
281
     0
  0
CLASS
  1
MAPIAMMOUDLE
  2
MApiAmModule
  3
MApiAmServices
 90
        0
280
     0
281
     0
  0
CLASS
  1
AMDTADMENUSTATE
  2
AmdtAdMenuState
  3
DesignerServices
 90
        0
280
     0
281
     0
  0
CLASS
  1
ADAPPL
  2
AcAdAppl
  3
DesignerServices
 90
        0
280
     0
281
     0
  0
CLASS
  1
DEPMGR
  2
AcAdDepMgr
  3
DesignerServices
 90
        0
280
     0
281
     0
  0
CLASS
  1
PARAMMGR
  2
AcAdParamMgr
  3
DesignerServices
 90
        0
280
     0
281
     0
  0
CLASS
  1
PARAMSCOPE
  2
AcAdParamScope
  3
DesignerServices
 90
        0
280
     0
281
     0
  0
CLASS
  1
NAMEDAPPL
  2
AcAdNamedAppl
  3
DesignerServices
 90
        0
280
     0
281
     0
  0
CLASS
  1
AMDTDMMENUSTATE
  2
AmdtDmMenuState
  3
AcMechDwgViewMgmt
 90
        0
280
     0
281
     0
  0
CLASS
  1
MAPIADMODULE
  2
MApiAdModule
  3
MApiAdServices
 90
        0
280
     0
281
     0
  0
CLASS
  1
AMDTAMMENUSTATE
  2
AmdtAmMenuState
  3
DesignerAssemblies
 90
        0
280
     0
281
     0
  0
CLASS
  1
ACAMPROJECT
  2
AcAmProject
  3
DesignerAssemblies
 90
        0
280
     0
281
     0
  0
CLASS
  1
ACAMGRCOMPDEF
  2
AcAmGrCompDef
  3
DesignerAssemblies
 90
        0
280
     0
281
     0
  0
CLASS
  1
ACCMCONTEXT
  2
AcCmContext
  3
DesignerAssemblies
 90
        0
280
     0
281
     0
  0
CLASS
  1
ACAMCOMPDEF
  2
AcAmCompDef
  3
DesignerAssemblies
 90
        0
280
     0
281
     0
  0
CLASS
  1
ACAMCOMPDEFMGR
  2
AcAmCompDefMgr
  3
DesignerAssemblies
 90
        0
280
     0
281
     0
  0
CLASS
  1
AMCONTEXTMGR
  2
AcAmContextMgr
  3
DesignerAssemblies
 90
        0
280
     0
281
     0
  0
CLASS
  1
ACAMCONTEXTMODELER
  2
AcAmContextModeler
  3
DesignerAssemblies
 90
        0
280
     0
281
     0
  0
CLASS
  1
ACMDATADICTIONARY
  2
AcmDataDictionary
  3
"AcmSymBB|Product Description: AutoCAD Mechanical 2000|Company: Autodesk"
 90
        0
280
     0
281
     0
  0
CLASS
  1
ACMDATAENTRYBLOCK
  2
AcmDataEntryBlock
  3
"AcmSymBB|Product Description: AutoCAD Mechanical 2000|Company: Autodesk"
 90
        0
280
     0
281
     0
  0
CLASS
  1
CATALOGSTATE
  2
AcAmCatalogState
  3
DesignerAssemblies
 90
        0
280
     0
281
     0
  0
CLASS
  1
ACAMGRCOMPDEFSET
  2
AcAmGrCompDefSet
  3
DesignerAssemblies
 90
        0
280
     0
281
     0
  0
CLASS
  1
AMDTBROWSERDBTAB
  2
AmdtBrowserDbTab
  3
McadcomServices
 90
        0
280
     0
281
     0
  0
CLASS
  1
CBROWSERAPPOBJECT
  2
CBrowserAppObject
  3
McadcomServices
 90
        0
280
     0
281
     0
  0
CLASS
  1
DM_PLACEHOLDER
  2
AcDmSelsetPlaceholder
  3
AcMechDwgViewMgmt
 90
        0
280
     0
281
     0
  0
CLASS
  1
AMGOBJPROPCFG
  2
AmgObjPropCfg
  3
"AmgLay|Product Description: AutoCAD Mechanical 2000|Company: Autodesk"
 90
        1
280
     0
281
     0
  0
CLASS
  1
ACAMGFILTERDAT
  2
AcAmgFilterDat
  3
"AcadM|Product Description: AutoCAD Mechanical 2000|Company: Autodesk"
 90
        0
280
     0
281
     0
  0
CLASS
  1
LAYER_INDEX
  2
AcDbLayerIndex
  3
AutoCAD 2000
 90
        0
280
     0
281
     0
  0
CLASS
  1
IDBUFFER
  2
AcDbIdBuffer
  3
AutoCAD 2000
 90
        0
280
     0
281
     0
  0
CLASS
  1
AMDTFORMULAUPDATEDISPATCHER
  2
AmdtFormulaUpdateDispatcher
  3
AcMeServices
 90
        0
280
     0
281
     0
  0
ENDSEC
  0
SECTION
  2
TABLES
  0
TABLE
  2
VPORT
  5
183
330
0
100
AcDbSymbolTable
 70
     3
  0
VPORT
  5
394
330
183
100
AcDbSymbolTableRecord
100
AcDbViewportTableRecord
  2
*Active
 70
     0
 10
0.0
 20
0.0
 11
1.0
 21
1.0
 12
0.0
 22
0.0
 13
0.0
 23
0.0
 14
10.0
 24
10.0
 15
10.0
 25
10.0
 16
0.0
 26
0.0
 36
1.0
 17
230.1660872296733
 27
154.502698
 37
0.0
 40
309.005396
 41
1.489721886336154
 42
50.0
 43
0.0
 44
0.0
 50
0.0
 51
0.0
 71
     0
 72
 20000
 73
     1
 74
     1
 75
     0
 76
     0
 77
     0
 78
     2
281
     0
 65
     0
110
0.0
120
0.0
130
0.0
111
1.0
121
0.0
131
0.0
112
0.0
122
1.0
132
0.0
 79
     0
146
0.0
  0
ENDTAB
  0
TABLE
  2
LTYPE
  5
180
330
0
100
AcDbSymbolTable
 70
    17
  0
LTYPE
  5
18C
330
180
100
AcDbSymbolTableRecord
100
AcDbLinetypeTableRecord
  2
BYBLOCK
 70
     0
  3

 72
    65
 73
     0
 40
0.0
  0
LTYPE
  5
18D
330
180
100
AcDbSymbolTableRecord
100
AcDbLinetypeTableRecord
  2
BYLAYER
 70
     0
  3

 72
    65
 73
     0
 40
0.0
  0
LTYPE
  5
18E
330
180
100
AcDbSymbolTableRecord
100
AcDbLinetypeTableRecord
  2
CONTINUOUS
 70
     0
  3
実線
 72
    65
 73
     0
 40
0.0
  0
LTYPE
  5
19D
330
180
100
AcDbSymbolTableRecord
100
AcDbLinetypeTableRecord
  2
CENTER
 70
     0
  3
____ _ ____ _ ____ _ ____ _ ____ _ ____ _ ____
 72
    65
 73
     4
 40
2.0
 49
1.25
 74
     0
 49
-0.25
 74
     0
 49
0.25
 74
     0
 49
-0.25
 74
     0
  0
LTYPE
  5
19E
330
180
100
AcDbSymbolTableRecord
100
AcDbLinetypeTableRecord
  2
HIDDEN
 70
     0
  3
_ _ _ _ _ _ _ _ _ _ _ _ _ _ _ _ _ _ _ _ _ _ _
 72
    65
 73
     2
 40
0.375
 49
0.25
 74
     0
 49
-0.125
 74
     0
  0
LTYPE
  5
19F
330
180
100
AcDbSymbolTableRecord
100
AcDbLinetypeTableRecord
  2
TENSEN1
 70
     0
  3

 72
    65
 73
     2
 40
0.4
 49
0.3
 74
     0
 49
-0.1
 74
     0
  0
LTYPE
  5
1E5
330
180
100
AcDbSymbolTableRecord
100
AcDbLinetypeTableRecord
  2
PHANTOM2
 70
     0
  3
Phantom (.5x) ___ _ _ ___ _ _ ___ _ _ ___ _ _
 72
    65
 73
     6
 40
1.25
 49
0.625
 74
     0
 49
-0.125
 74
     0
 49
0.125
 74
     0
 49
-0.125
 74
     0
 49
0.125
 74
     0
 49
-0.125
 74
     0
  0
LTYPE
  5
247
330
180
100
AcDbSymbolTableRecord
100
AcDbLinetypeTableRecord
  2
ASULTYPE
 70
     0
  3
実線
 72
    65
 73
     2
 40
3.0
 49
2.5
 74
     0
 49
0.5
 74
     0
  0
LTYPE
  5
248
330
180
100
AcDbSymbolTableRecord
100
AcDbLinetypeTableRecord
  2
ASVLTYPE
 70
     0
  3
__ __ __ __ __ __ __ __ __ __ __ __ __ __ __ __ __ __ __ __ __
 72
    65
 73
     2
 40
0.75
 49
0.5
 74
     0
 49
-0.25
 74
     0
  0
LTYPE
  5
289
330
180
100
AcDbSymbolTableRecord
100
AcDbLinetypeTableRecord
  2
AM_ISO02W050
 70
     0
  3
__ __ __ __ __ __ __ __ __ __ __ __ __ __ __
 72
    65
 73
     2
 40
7.5
 49
6.0
 74
     0
 49
-1.5
 74
     0
  0
LTYPE
  5
28A
330
180
100
AcDbSymbolTableRecord
100
AcDbLinetypeTableRecord
  2
AM_ISO08W050
 70
     0
  3
____ . ____ . ____ . ____ . ____ . ____ . ____
 72
    65
 73
     4
 40
18.0
 49
12.0
 74
     0
 49
-1.5
 74
     0
 49
3.0
 74
     0
 49
-1.5
 74
     0
  0
LTYPE
  5
28B
330
180
100
AcDbSymbolTableRecord
100
AcDbLinetypeTableRecord
  2
AM_ISO09W050
 70
     0
  3
_____ . . _____ . . _____ . . ____ .. ____
 72
    65
 73
     6
 40
22.5
 49
12.0
 74
     0
 49
-1.5
 74
     0
 49
3.0
 74
     0
 49
-1.5
 74
     0
 49
3.0
 74
     0
 49
-1.5
 74
     0
  0
LTYPE
  5
28C
330
180
100
AcDbSymbolTableRecord
100
AcDbLinetypeTableRecord
  2
Amconstr
 70
     0
  3
_______________________
 72
    65
 73
     2
 40
9999.0
 49
9999.0
 74
     0
 49
0.0
 74
     0
  0
LTYPE
  5
28D
330
180
100
AcDbSymbolTableRecord
100
AcDbLinetypeTableRecord
  2
AM_ISO08W050x2
 70
     0
  3
__ . __ . __ . __ . __ . __
 72
    65
 73
     4
 40
9.0
 49
6.0
 74
     0
 49
-0.75
 74
     0
 49
1.5
 74
     0
 49
-0.75
 74
     0
  0
LTYPE
  5
28E
330
180
100
AcDbSymbolTableRecord
100
AcDbLinetypeTableRecord
  2
AM_ISO02W050x2
 70
     0
  3
 _ _ _ _ _ _ _ _ _ _ _ _
 72
    65
 73
     2
 40
3.75
 49
3.0
 74
     0
 49
-0.75
 74
     0
  0
LTYPE
  5
291
330
180
100
AcDbSymbolTableRecord
100
AcDbLinetypeTableRecord
  2
Amzigzag
 70
     0
  3
/\/-/\/-/\/-/\/-/\/-/\/
 72
    65
 73
     2
 40
11.00009999999999
 49
0.0001
 74
     4
 75
   135
340
290
 46
0.04
 50
0.0
 44
0.0
 45
0.0
 49
-11.0
 74
     0
  0
LTYPE
  5
292
330
180
100
AcDbSymbolTableRecord
100
AcDbLinetypeTableRecord
  2
CENTER2
 70
     0
  3
Center (.5x) ___ _ ___ _ ___ _ ___ _ ___ _ ___
 72
    65
 73
     4
 40
1.125
 49
0.75
 74
     0
 49
-0.125
 74
     0
 49
0.125
 74
     0
 49
-0.125
 74
     0
  0
LTYPE
  5
293
330
180
100
AcDbSymbolTableRecord
100
AcDbLinetypeTableRecord
  2
HIDDEN2
 70
     0
  3
Hidden (.5x) _ _ _ _ _ _ _ _ _ _ _ _ _ _ _ _ _
 72
    65
 73
     2
 40
0.1875
 49
0.125
 74
     0
 49
-0.0625
 74
     0
  0
LTYPE
  5
294
330
180
100
AcDbSymbolTableRecord
100
AcDbLinetypeTableRecord
  2
Amzigzag2
 70
     0
  3
/\/-/\/-/\/-/\/-/\/-/\/
 72
    65
 73
     2
 40
0.4401
 49
0.0001
 74
     4
 75
   135
340
290
 46
0.0016
 50
0.0
 44
0.0
 45
0.0
 49
-0.4400000000000002
 74
     0
  0
ENDTAB
  0
TABLE
  2
LAYER
  5
17D
330
0
100
AcDbSymbolTable
 70
     7
  0
LAYER
  5
189
330
17D
100
AcDbSymbolTableRecord
100
AcDbLayerTableRecord
  2
0
 70
     0
 62
     7
  6
CONTINUOUS
370
    -3
390
1BB
  0
LAYER
  5
1A3
330
17D
100
AcDbSymbolTableRecord
100
AcDbLayerTableRecord
  2
1
 70
     0
 62
     1
  6
CENTER
370
    -3
390
1BB
  0
LAYER
  5
1A4
330
17D
100
AcDbSymbolTableRecord
100
AcDbLayerTableRecord
  2
3
 70
     0
 62
     3
  6
CONTINUOUS
370
    -3
390
1BB
  0
LAYER
  5
1A5
330
17D
100
AcDbSymbolTableRecord
100
AcDbLayerTableRecord
  2
4
 70
     0
 62
     4
  6
CONTINUOUS
370
    -3
390
1BB
  0
LAYER
  5
1A6
330
17D
100
AcDbSymbolTableRecord
100
AcDbLayerTableRecord
  2
10
 70
     0
 62
     7
  6
CONTINUOUS
370
    -3
390
1BB
  0
LAYER
  5
1A7
330
17D
100
AcDbSymbolTableRecord
100
AcDbLayerTableRecord
  2
11
 70
     0
 62
     3
  6
CONTINUOUS
370
    -3
390
1BB
  0
LAYER
  5
1A8
330
17D
100
AcDbSymbolTableRecord
100
AcDbLayerTableRecord
  2
2
 70
     0
 62
     2
  6
HIDDEN
370
    -3
390
1BB
  0
ENDTAB
  0
TABLE
  2
STYLE
  5
17E
330
0
100
AcDbSymbolTable
 70
     5
  0
STYLE
  5
18A
330
17E
100
AcDbSymbolTableRecord
100
AcDbTextStyleTableRecord
  2
STANDARD
 70
     0
 40
0.0
 41
1.0
 50
0.0
 71
     0
 42
0.2
  3
TXT
  4
BIGFONT
  0
STYLE
  5
19A
330
17E
100
AcDbSymbolTableRecord
100
AcDbTextStyleTableRecord
  2
K80
 70
     0
 40
0.0
 41
0.8
 50
0.0
 71
     0
 42
0.2
  3
TXT
  4
BIGFONT
  0
STYLE
  5
19B
330
17E
100
AcDbSymbolTableRecord
100
AcDbTextStyleTableRecord
  2
07500
 70
     0
 40
0.0
 41
0.75
 50
0.0
 71
     0
 42
6.0
  3
TXT
  4
BIGFONT
  0
STYLE
  5
19C
330
17E
100
AcDbSymbolTableRecord
100
AcDbTextStyleTableRecord
  2
BIGFONT
 70
     0
 40
11.0
 41
0.7
 50
0.0
 71
     0
 42
11.0
  3
txt.shx
  4
extfont.shx
  0
STYLE
  5
290
330
17E
100
AcDbSymbolTableRecord
100
AcDbTextStyleTableRecord
  2

 70
     1
 40
0.0
 41
1.0
 50
0.0
 71
     0
 42
11.0
  3
ltypeshp.shx
  4

  0
ENDTAB
  0
TABLE
  2
VIEW
  5
181
330
0
100
AcDbSymbolTable
 70
     1
  0
VIEW
  5
1A0
330
181
100
AcDbSymbolTableRecord
100
AcDbViewTableRecord
  2
ALL
 70
     0
 40
540.0
 10
441.9831929999999
 20
270.0
 41
0.0
 11
0.0
 21
0.0
 31
1.0
 12
0.0
 22
0.0
 32
0.0
 42
50.0
 43
0.0
 44
0.0
 50
0.0
 71
     0
281
     0
 72
     0
  0
ENDTAB
  0
TABLE
  2
UCS
  5
182
330
0
100
AcDbSymbolTable
 70
     0
  0
ENDTAB
  0
TABLE
  2
APPID
  5
184
330
0
100
AcDbSymbolTable
 70
    12
  0
APPID
  5
18B
330
184
100
AcDbSymbolTableRecord
100
AcDbRegAppTableRecord
  2
ACAD
 70
     0
  0
APPID
  5
1C4
330
184
100
AcDbSymbolTableRecord
100
AcDbRegAppTableRecord
  2
GENIUS_GENDIM_13
 70
     0
  0
APPID
  5
1C5
330
184
100
AcDbSymbolTableRecord
100
AcDbRegAppTableRecord
  2
GENIUS_GENDTOL_13
 70
     0
  0
APPID
  5
1C6
330
184
100
AcDbSymbolTableRecord
100
AcDbRegAppTableRecord
  2
GENIUS_GE3DTOL_13
 70
     0
  0
APPID
  5
1C8
330
184
100
AcDbSymbolTableRecord
100
AcDbRegAppTableRecord
  2
MCAD_NO_VIS
 70
     0
  0
APPID
  5
1C9
330
184
100
AcDbSymbolTableRecord
100
AcDbRegAppTableRecord
  2
ACAD_TEMP_GRAPHIC
 70
     0
  0
APPID
  5
1FA
330
184
100
AcDbSymbolTableRecord
100
AcDbRegAppTableRecord
  2
AD_DRAW
 70
     0
  0
APPID
  5
1FD
330
184
100
AcDbSymbolTableRecord
100
AcDbRegAppTableRecord
  2
ACATTRIBSERVICES
 70
     0
  0
APPID
  5
249
330
184
100
AcDbSymbolTableRecord
100
AcDbRegAppTableRecord
  2
ASURF_PCURVE_APPNAME
 70
     0
  0
APPID
  5
278
330
184
100
AcDbSymbolTableRecord
100
AcDbRegAppTableRecord
  2
DESIGNERASSEMBLIES
 70
     0
  0
APPID
  5
280
330
184
100
AcDbSymbolTableRecord
100
AcDbRegAppTableRecord
  2
ACADM_DIM_EDIT
 70
     0
  0
APPID
  5
281
330
184
100
AcDbSymbolTableRecord
100
AcDbRegAppTableRecord
  2
AMDT_DM_ADJ
 70
     0
  0
ENDTAB
  0
TABLE
  2
DIMSTYLE
  5
185
330
0
100
AcDbSymbolTable
 70
     1
100
AcDbDimStyleTable
 71
     1
340
1A2
  0
DIMSTYLE
105
1A2
330
185
100
AcDbSymbolTableRecord
100
AcDbDimStyleTableRecord
  2
STANDARD
 70
     0
340
19C
  0
ENDTAB
  0
TABLE
  2
BLOCK_RECORD
  5
17C
330
0
100
AcDbSymbolTable
 70
     5
  0
BLOCK_RECORD
  5
192
102
{ACAD_XDICTIONARY
360
2C5
102
}
330
17C
100
AcDbSymbolTableRecord
100
AcDbBlockTableRecord
  2
*MODEL_SPACE
340
1BE
  0
BLOCK_RECORD
  5
18F
330
17C
100
AcDbSymbolTableRecord
100
AcDbBlockTableRecord
  2
*PAPER_SPACE
340
1BF
  0
BLOCK_RECORD
  5
197
330
17C
100
AcDbSymbolTableRecord
100
AcDbBlockTableRecord
  2
WAKU
340
0
  0
BLOCK_RECORD
  5
198
330
17C
100
AcDbSymbolTableRecord
100
AcDbBlockTableRecord
  2
Z
340
0
  0
BLOCK_RECORD
  5
199
330
17C
100
AcDbSymbolTableRecord
100
AcDbBlockTableRecord
  2
QQ
340
0
  0
BLOCK_RECORD
  5
26F
330
17C
100
AcDbSymbolTableRecord
100
AcDbBlockTableRecord
  2
*U3
340
0
  0
BLOCK_RECORD
  5
37C
330
17C
100
AcDbSymbolTableRecord
100
AcDbBlockTableRecord
  2
*U4
340
0
  0
ENDTAB
  0
ENDSEC
  0
SECTION
  2
BLOCKS
  0
BLOCK
  5
1AB
330
192
100
AcDbEntity
  8
0
100
AcDbBlockBegin
  2
*MODEL_SPACE
 70
     0
 10
0.0
 20
0.0
 30
0.0
  3
*MODEL_SPACE
  1

  0
ENDBLK
  5
1AC
330
192
100
AcDbEntity
  8
0
100
AcDbBlockEnd
  0
BLOCK
  5
1A9
330
18F
100
AcDbEntity
 67
     1
  8
0
100
AcDbBlockBegin
  2
*PAPER_SPACE
 70
     0
 10
0.0
 20
0.0
 30
0.0
  3
*PAPER_SPACE
  1

  0
ENDBLK
  5
1AA
330
18F
100
AcDbEntity
 67
     1
  8
0
100
AcDbBlockEnd
  0
BLOCK
  5
32
330
197
100
AcDbEntity
  8
0
100
AcDbBlockBegin
  2
WAKU
 70
     0
 10
549.0
 20
0.0
 30
0.0
  3
WAKU
  1

  0
LINE
  5
33
330
197
100
AcDbEntity
  8
11
100
AcDbLine
 10
452.0
 20
12.0
 30
0.0
 11
549.0
 21
12.0
 31
0.0
  0
LINE
  5
34
330
197
100
AcDbEntity
  8
11
100
AcDbLine
 10
477.0
 20
0.0
 30
0.0
 11
477.0
 21
12.0
 31
0.0
  0
LINE
  5
35
330
197
100
AcDbEntity
  8
11
100
AcDbLine
 10
452.0
 20
12.0
 30
0.0
 11
452.0
 21
0.0
 31
0.0
  0
TEXT
  5
36
330
197
100
AcDbEntity
  8
11
100
AcDbText
 10
454.0
 20
8.5
 30
0.0
 40
2.5
  1
尺度
100
AcDbText
  0
TEXT
  5
37
330
197
100
AcDbEntity
  8
11
100
AcDbText
 10
479.0
 20
8.5
 30
0.0
 40
2.5
  1
図番
100
AcDbText
  0
ENDBLK
  5
38
330
197
100
AcDbEntity
  8
0
100
AcDbBlockEnd
  0
BLOCK
  5
39
330
198
100
AcDbEntity
  8
0
100
AcDbBlockBegin
  2
Z
 70
     0
 10
344.168479
 20
97.5
 30
0.0
  3
Z
  1

  0
TEXT
  5
3A
330
198
100
AcDbEntity
  8
0
100
AcDbText
 10
349.5866529999998
 20
100.1262699999999
 30
0.0
 40
4.5
  1
０
 50
360.0
 41
0.8
  7
K80
 72
     1
 11
351.1466529999998
 21
100.1262699999999
 31
0.0
100
AcDbText
  0
LINE
  5
3B
330
198
100
AcDbEntity
  8
0
100
AcDbLine
 10
339.1684789999998
 20
102.4999999999999
 30
0.0
 11
341.1684789999998
 21
102.4999999999999
 31
0.0
  0
TEXT
  5
3C
330
198
100
AcDbEntity
  8
0
100
AcDbText
 10
345.6135779999998
 20
100.160631
 30
0.0
 40
4.5
  1
０
 50
360.0
 41
0.8
  7
K80
 72
     1
 11
347.1735779999998
 21
100.160631
 31
0.0
100
AcDbText
  0
TEXT
  5
3D
330
198
100
AcDbEntity
  8
0
100
AcDbText
 10
335.2447153333333
 20
99.82682699999999
 30
0.0
 40
5.0
  1
Ｖ
 50
360.0
 41
0.8
  7
K80
 72
     1
 11
337.111382
 21
99.82682699999999
 31
0.0
100
AcDbText
  0
TEXT
  5
3E
330
198
100
AcDbEntity
  8
0
100
AcDbText
 10
341.502629
 20
100.1807019999999
 30
0.0
 40
4.5
  1
１
 50
360.0
 41
0.8
  7
K80
 72
     1
 11
343.062629
 21
100.1807019999999
 31
0.0
100
AcDbText
  0
ENDBLK
  5
3F
330
198
100
AcDbEntity
  8
0
100
AcDbBlockEnd
  0
BLOCK
  5
40
330
199
100
AcDbEntity
  8
0
100
AcDbBlockBegin
  2
QQ
 70
     0
 10
270.0
 20
0.0
 30
0.0
  3
QQ
  1

  0
LINE
  5
41
330
199
100
AcDbEntity
  8
11
100
AcDbLine
 10
173.0
 20
36.0
 30
0.0
 11
270.0
 21
36.0
 31
0.0
  0
TEXT
  5
42
330
199
100
AcDbEntity
  8
11
100
AcDbText
 10
175.0
 20
32.5
 30
0.0
 40
2.5
  1
部品名称
100
AcDbText
  0
LINE
  5
43
330
199
100
AcDbEntity
  8
11
100
AcDbLine
 10
173.0
 20
36.0
 30
0.0
 11
173.0
 21
0.0
 31
0.0
  0
LINE
  5
44
330
199
100
AcDbEntity
  8
11
100
AcDbLine
 10
173.0
 20
24.0
 30
0.0
 11
270.0
 21
24.0
 31
0.0
  0
TEXT
  5
45
330
199
100
AcDbEntity
  8
11
100
AcDbText
 10
175.0
 20
20.5
 30
0.0
 40
2.5
  1
品番
100
AcDbText
  0
LINE
  5
46
330
199
100
AcDbEntity
  8
11
100
AcDbLine
 10
173.0
 20
12.0
 30
0.0
 11
270.0
 21
12.0
 31
0.0
  0
TEXT
  5
47
330
199
100
AcDbEntity
  8
11
100
AcDbText
 10
175.0
 20
8.5
 30
0.0
 40
2.5
  1
尺度
100
AcDbText
  0
TEXT
  5
48
330
199
100
AcDbEntity
  8
11
100
AcDbText
 10
200.0
 20
8.5
 30
0.0
 40
2.5
  1
図番
100
AcDbText
  0
LINE
  5
49
330
199
100
AcDbEntity
  8
11
100
AcDbLine
 10
198.0
 20
0.0
 30
0.0
 11
198.0
 21
12.0
 31
0.0
  0
ENDBLK
  5
4A
330
199
100
AcDbEntity
  8
0
100
AcDbBlockEnd
  0
BLOCK
  5
270
330
26F
100
AcDbEntity
  8
0
100
AcDbBlockBegin
  2
*U3
 70
     1
 10
0.0
 20
0.0
 30
0.0
  3
*U3
  1

  0
ENDBLK
  5
271
330
26F
100
AcDbEntity
  8
0
100
AcDbBlockEnd
  0
BLOCK
  5
37D
330
37C
100
AcDbEntity
  8
0
100
AcDbBlockBegin
  2
*U4
 70
     1
 10
0.0
 20
0.0
 30
0.0
  3
*U4
  1

  0
ENDBLK
  5
37E
330
37C
100
AcDbEntity
  8
0
100
AcDbBlockEnd
  0
ENDSEC
  0
SECTION
  2
ENTITIES
  0
LINE
  5
4B
330
192
100
AcDbEntity
  8
1
100
AcDbLine
 10
160.0
 20
130.0
 30
0.0
 11
40.0
 21
130.0
 31
0.0
  0
LINE
  5
4C
330
192
100
AcDbEntity
  8
1
100
AcDbLine
 10
100.0
 20
70.0
 30
0.0
 11
100.0
 21
190.0
 31
0.0
  0
CIRCLE
  5
4E
330
192
100
AcDbEntity
  8
0
100
AcDbCircle
 10
100.0
 20
130.0
 30
0.0
 40
50.0
  0
ARC
  5
4F
330
192
100
AcDbEntity
  8
0
100
AcDbCircle
 10
100.0
 20
170.0
 30
0.0
 40
7.0
100
AcDbArc
 50
193.02038
 51
346.97962
  0
ARC
  5
64
330
192
100
AcDbEntity
  8
0
100
AcDbCircle
 10
99.90161700000001
 20
129.940899
 30
0.0
 40
42.0
100
AcDbArc
 50
103.1166489999999
 51
75.95947800000002
  0
CIRCLE
  5
65
330
192
100
AcDbEntity
  8
0
100
AcDbCircle
 10
99.90161700000001
 20
129.940899
 30
0.0
 40
11.0
  0
CIRCLE
  5
66
330
192
100
AcDbEntity
  8
0
100
AcDbCircle
 10
99.90161700000001
 20
129.940899
 30
0.0
 40
12.5
  0
ARC
  5
67
330
192
100
AcDbEntity
  8
0
100
AcDbCircle
 10
89.44979899999998
 20
160.655657
 30
0.0
 40
3.1758
100
AcDbArc
 50
353.1109169999998
 51
92.52063400000002
  0
ARC
  5
68
330
192
100
AcDbEntity
  8
0
100
AcDbCircle
 10
111.046784
 20
159.698848
 30
0.0
 40
3.868346999999998
100
AcDbArc
 50
88.13629099999998
 51
171.438587
  0
ARC
  5
69
330
192
100
AcDbEntity
  8
0
100
AcDbCircle
 10
99.90161700000001
 20
129.940899
 30
0.0
 40
35.5
100
AcDbArc
 50
348.7775819999998
 51
70.595192
  0
ARC
  5
6A
330
192
100
AcDbEntity
  8
0
100
AcDbCircle
 10
99.90161700000001
 20
129.940899
 30
0.0
 40
35.5
100
AcDbArc
 50
229.638195
 51
310.063821
  0
ARC
  5
6B
330
192
100
AcDbEntity
  8
0
100
AcDbCircle
 10
99.90161700000001
 20
129.940899
 30
0.0
 40
35.5
100
AcDbArc
 50
108.431954
 51
190.771964
  0
ARC
  5
6C
330
192
100
AcDbEntity
  8
0
100
AcDbCircle
 10
131.621683
 20
123.9157789999999
 30
0.0
 40
3.207739
100
AcDbArc
 50
234.1387539999999
 51
338.955302
  0
LINE
  5
6D
330
192
100
AcDbEntity
  8
0
100
AcDbLine
 10
111.720761
 20
163.418948
 30
0.0
 11
111.170122
 21
163.569026
 31
0.0
  0
LINE
  5
6E
330
192
100
AcDbEntity
  8
0
100
AcDbLine
 10
88.672701
 20
163.6108769999998
 30
0.0
 11
89.31569899999997
 21
163.82775
 31
0.0
  0
LINE
  5
6F
330
192
100
AcDbEntity
  8
0
100
AcDbLine
 10
134.608178
 20
122.735878
 30
0.0
 11
134.7102259999998
 21
123.0418269999999
 31
0.0
  0
LINE
  5
70
330
192
100
AcDbEntity
  8
0
100
AcDbLine
 10
129.75065
 20
121.31831
 30
0.0
 11
129.4853229999999
 21
121.4814819999999
 31
0.0
  0
ARC
  5
71
330
192
100
AcDbEntity
  8
0
100
AcDbCircle
 10
119.773349
 20
105.5301719999998
 30
0.0
 40
4.037780999999998
100
AcDbArc
 50
316.6107149999999
 51
48.387104
  0
ARC
  5
72
330
192
100
AcDbEntity
  8
0
100
AcDbCircle
 10
79.603308
 20
105.466155
 30
0.0
 40
3.720368
100
AcDbArc
 50
127.5672679999999
 51
224.113322
  0
ARC
  5
73
330
192
100
AcDbEntity
  8
0
100
AcDbCircle
 10
68.421987
 20
124.620023
 30
0.0
 40
3.643464999999998
100
AcDbArc
 50
201.204143
 51
294.803745
  0
LINE
  5
74
330
192
100
AcDbEntity
  8
0
100
AcDbLine
 10
69.89292500000001
 20
121.2896679999999
 30
0.0
 11
69.984985
 21
121.324169
 31
0.0
  0
ARC
  5
75
330
192
100
AcDbEntity
  8
0
100
AcDbCircle
 10
109.30694
 20
168.307762
 30
0.0
 40
2.495950999999998
100
AcDbArc
 50
70.232422
 51
177.962307
  0
ARC
  5
76
330
192
100
AcDbEntity
  8
0
100
AcDbCircle
 10
90.513439
 20
168.217806
 30
0.0
 40
2.708650999999998
100
AcDbArc
 50
3.782851999999998
 51
88.640974
  0
ARC
  5
77
330
192
100
AcDbEntity
  8
0
100
AcDbCircle
 10
99.90161700000001
 20
129.940899
 30
0.0
 40
15.5
100
AcDbArc
 50
12.389971
 51
48.444655
  0
ARC
  5
78
330
192
100
AcDbEntity
  8
0
100
AcDbCircle
 10
99.90161700000001
 20
129.940899
 30
0.0
 40
15.5
100
AcDbArc
 50
249.790975
 51
289.5722329999998
  0
ARC
  5
79
330
192
100
AcDbEntity
  8
0
100
AcDbCircle
 10
99.90161700000001
 20
129.940899
 30
0.0
 40
15.5
100
AcDbArc
 50
130.157055
 51
170.908242
  0
LINE
  5
7A
330
192
100
AcDbEntity
  8
0
100
AcDbLine
 10
108.826228
 20
143.621387
 30
0.0
 11
107.221542
 21
160.274727
 31
0.0
  0
ARC
  5
7B
330
192
100
AcDbEntity
  8
0
100
AcDbCircle
 10
113.10932
 20
144.9391909999999
 30
0.0
 40
4.488
100
AcDbArc
 50
196.8283309999999
 51
229.396896
  0
LINE
  5
7C
330
192
100
AcDbEntity
  8
0
100
AcDbLine
 10
116.123078
 20
131.0888479999998
 30
0.0
 11
129.4802639999999
 21
121.468231
 31
0.0
  0
ARC
  5
7D
330
192
100
AcDbEntity
  8
0
100
AcDbCircle
 10
119.4377129999999
 20
134.100076
 30
0.0
 40
4.474682999999998
100
AcDbArc
 50
190.6947629999999
 51
222.3310529999999
  0
LINE
  5
7E
330
192
100
AcDbEntity
  8
0
100
AcDbLine
 10
107.171345
 20
115.523186
 30
0.0
 11
122.498923
 21
108.549259
 31
0.0
  0
ARC
  5
7F
330
192
100
AcDbEntity
  8
0
100
AcDbCircle
 10
106.8321819999999
 20
107.753387
 30
0.0
 40
7.775361
100
AcDbArc
 50
87.52304999999998
 51
102.987595
  0
LINE
  5
80
330
192
100
AcDbEntity
  8
0
100
AcDbLine
 10
92.91545199999999
 20
115.569186
 30
0.0
 11
77.325289
 21
108.417643
 31
0.0
  0
ARC
  5
81
330
192
100
AcDbEntity
  8
0
100
AcDbCircle
 10
93.23355199999999
 20
110.6764419999999
 30
0.0
 40
4.902695999999998
100
AcDbArc
 50
74.30415699999997
 51
93.840283
  0
LINE
  5
82
330
192
100
AcDbEntity
  8
0
100
AcDbLine
 10
83.90290699999999
 20
130.8233379999999
 30
0.0
 11
69.949999
 21
121.316105
 31
0.0
  0
ARC
  5
83
330
192
100
AcDbEntity
  8
0
100
AcDbCircle
 10
82.12832699999998
 20
132.547981
 30
0.0
 40
2.4744
100
AcDbArc
 50
315.868173
 51
356.876191
  0
LINE
  5
84
330
192
100
AcDbEntity
  8
0
100
AcDbLine
 10
90.864334
 20
143.522967
 30
0.0
 11
92.60266999999997
 21
160.274727
 31
0.0
  0
ARC
  5
85
330
192
100
AcDbEntity
  8
0
100
AcDbCircle
 10
88.192493
 20
143.8414859999999
 30
0.0
 40
2.679434999999998
100
AcDbArc
 50
309.622423
 51
353.4913279999998
  0
LINE
  5
C9
330
192
100
AcDbEntity
  8
2
100
AcDbLine
 10
255.001261
 20
118.018924
 30
0.0
 11
257.001261
 21
116.018924
 31
0.0
  0
LINE
  5
CA
330
192
100
AcDbEntity
  8
2
100
AcDbLine
 10
255.001261
 20
142.018924
 30
0.0
 11
257.001261
 21
144.018924
 31
0.0
  0
LINE
  5
CD
330
192
100
AcDbEntity
  8
1
100
AcDbLine
 10
232.5
 20
130.0
 30
0.0
 11
292.5
 21
130.0
 31
0.0
  0
LINE
  5
CE
330
192
100
AcDbEntity
  8
2
100
AcDbLine
 10
255.001261
 20
130.0189239999999
 30
0.0
 11
255.001261
 21
118.018924
 31
0.0
  0
LINE
  5
D0
330
192
100
AcDbEntity
  8
1
100
AcDbLine
 10
249.5
 20
70.0
 30
0.0
 11
249.5
 21
190.0
 31
0.0
  0
LINE
  5
D2
330
192
100
AcDbEntity
  8
2
100
AcDbLine
 10
255.001261
 20
130.0189239999999
 30
0.0
 11
255.001261
 21
142.018924
 31
0.0
  0
LINE
  5
D3
330
192
100
AcDbEntity
  8
0
100
AcDbLine
 10
273.001261
 20
146.018924
 30
0.0
 11
273.001261
 21
114.0189239999999
 31
0.0
  0
LINE
  5
D4
330
192
100
AcDbEntity
  8
0
100
AcDbLine
 10
282.001261
 20
130.0189239999999
 30
0.0
 11
282.001261
 21
116.018924
 31
0.0
  0
LINE
  5
D6
330
192
100
AcDbEntity
  8
0
100
AcDbLine
 10
281.001261
 20
115.018924
 30
0.0
 11
273.001261
 21
115.018924
 31
0.0
  0
ARC
  5
D7
330
192
100
AcDbEntity
  8
0
100
AcDbCircle
 10
280.988797
 20
116.0313879999999
 30
0.0
 40
1.012540999999999
100
AcDbArc
 50
270.705346
 51
359.2946539999998
  0
ARC
  5
D9
330
192
100
AcDbEntity
  8
0
100
AcDbCircle
 10
265.051922577382
 20
115.9179683614749
 30
0.0
 40
31.13293288538529
100
AcDbArc
 50
75.20654208777997
 51
82.18589127003284
  0
LINE
  5
DA
330
192
100
AcDbEntity
  8
0
100
AcDbLine
 10
282.001261
 20
130.0189239999999
 30
0.0
 11
282.001261
 21
144.018924
 31
0.0
  0
LINE
  5
DB
330
192
100
AcDbEntity
  8
0
100
AcDbLine
 10
281.001261
 20
145.018924
 30
0.0
 11
273.001261
 21
145.018924
 31
0.0
  0
ARC
  5
DC
330
192
100
AcDbEntity
  8
0
100
AcDbCircle
 10
280.9949839999999
 20
144.0126459999999
 30
0.0
 40
1.006296999999998
100
AcDbArc
 50
0.357413
 51
89.642587
  0
LINE
  5
DD
330
192
100
AcDbEntity
  8
0
100
AcDbLine
 10
269.1539779999999
 20
146.8216219999999
 30
0.0
 11
257.947712
 21
158.02069
 31
0.0
  0
ARC
  5
DE
330
192
100
AcDbEntity
  8
0
100
AcDbCircle
 10
262.9488
 20
149.3686999999999
 30
0.0
 40
6.874077999999999
100
AcDbArc
 50
269.7109939999999
 51
337.104768
  0
ARC
  5
DF
330
192
100
AcDbEntity
  8
0
100
AcDbCircle
 10
263.3261779999999
 20
146.752536
 30
0.0
 40
4.267335
100
AcDbArc
 50
205.5403499999999
 51
266.174507
  0
LINE
  5
E0
330
192
100
AcDbEntity
  8
0
100
AcDbLine
 10
259.348495
 20
145.03995
 30
0.0
 11
257.947712
 21
147.203408
 31
0.0
  0
ARC
  5
E1
330
192
100
AcDbEntity
  8
0
100
AcDbCircle
 10
269.4086669999999
 20
115.896922
 30
0.0
 40
0.0
100
AcDbArc
 50
0.0
 51
156.993405
  0
LINE
  5
E2
330
192
100
AcDbEntity
  8
0
100
AcDbLine
 10
257.947712
 20
108.388457
 30
0.0
 11
268.0078809999999
 21
113.860729
 31
0.0
  0
ARC
  5
E3
330
192
100
AcDbEntity
  8
0
100
AcDbCircle
 10
266.899933
 20
115.6765199999999
 30
0.0
 40
2.131469
100
AcDbArc
 50
298.275949
 51
351.421112
  0
ARC
  5
E4
330
192
100
AcDbEntity
  8
0
100
AcDbCircle
 10
219.1255439999999
 20
121.780898
 30
0.0
 40
50.29375
100
AcDbArc
 50
352.663502
 51
8.304121
  0
ARC
  5
E5
330
192
100
AcDbEntity
  8
0
100
AcDbCircle
 10
265.302743
 20
127.7461229999999
 30
0.0
 40
3.797669999999998
100
AcDbArc
 50
19.07059899999998
 51
101.307024
  0
LINE
  5
E6
330
192
100
AcDbEntity
  8
0
100
AcDbLine
 10
264.558148
 20
131.470082
 30
0.0
 11
258.028499
 21
127.3122709999999
 31
0.0
  0
ARC
  5
E7
330
192
100
AcDbEntity
  8
0
100
AcDbCircle
 10
266.0364150400139
 20
136.9078772737059
 30
0.0
 40
23.92516052812128
100
AcDbArc
 50
271.4418034319056
 51
286.9244037387717
  0
ARC
  5
E8
330
192
100
AcDbEntity
  8
0
100
AcDbCircle
 10
266.1203089999998
 20
129.852257
 30
0.0
 40
17.20310199999999
100
AcDbArc
 50
114.439084
 51
118.1611149999999
  0
LINE
  5
E9
330
192
100
AcDbEntity
  8
0
100
AcDbLine
 10
259.475961
 20
144.9119169999999
 30
0.0
 11
259.3501519999999
 21
145.0407889999999
 31
0.0
  0
LINE
  5
EA
330
192
100
AcDbEntity
  8
0
100
AcDbLine
 10
259.001032
 20
145.5154129999999
 30
0.0
 11
259.0261959999998
 21
145.527984
 31
0.0
  0
LINE
  5
EB
330
192
100
AcDbEntity
  8
0
100
AcDbLine
 10
269.2705169999999
 20
146.691564
 30
0.0
 11
269.2881029999999
 21
146.761865
 31
0.0
  0
LINE
  5
EC
330
192
100
AcDbEntity
  8
0
100
AcDbLine
 10
269.2881029999999
 20
146.761865
 30
0.0
 11
269.1474069999999
 21
146.823381
 31
0.0
  0
LINE
  5
F6
330
192
100
AcDbEntity
  8
1
100
AcDbLine
 10
173.751261
 20
171.107967
 30
0.0
 11
261.7512609999999
 21
171.107967
 31
0.0
  0
ARC
  5
2BF
330
192
100
AcDbEntity
  8
0
100
AcDbCircle
 10
249.5
 20
172.5
 30
0.0
 40
7.5
100
AcDbArc
 50
0.0
 51
180.0
  0
LINE
  5
2C0
330
192
100
AcDbEntity
  8
0
100
AcDbLine
 10
257.0
 20
172.5
 30
0.0
 11
257.0
 21
130.0
 31
0.0
  0
LINE
  5
2C1
330
192
100
AcDbEntity
  8
0
100
AcDbLine
 10
242.0
 20
172.5
 30
0.0
 11
242.0
 21
130.0
 31
0.0
  0
ARC
  5
2C2
330
192
100
AcDbEntity
  8
0
100
AcDbCircle
 10
249.5
 20
87.5
 30
0.0
 40
7.5
100
AcDbArc
 50
180.0
 51
0.0
  0
LINE
  5
2C3
330
192
100
AcDbEntity
  8
0
100
AcDbLine
 10
257.0
 20
87.5
 30
0.0
 11
257.0
 21
130.0
 31
0.0
  0
LINE
  5
2C4
330
192
100
AcDbEntity
  8
0
100
AcDbLine
 10
242.0
 20
87.5
 30
0.0
 11
242.0
 21
130.0
 31
0.0
  0
ENDSEC
  0
SECTION
  2
OBJECTS
  0
DICTIONARY
  5
187
330
0
100
AcDbDictionary
281
     1
  3
ACAD_GROUP
350
188
  3
ACAD_LAYOUT
350
1BC
  3
ACAD_MLINESTYLE
350
195
  3
ACAD_PLOTSETTINGS
350
1BD
  3
ACAD_PLOTSTYLENAME
350
1BA
  3
ACDBVARIABLEDICTIONARY
350
1AD
  3
AcmDictionary
350
279
  3
AMG
350
1C1
  3
AMGSNAPSETTINGS
350
297
  3
DWGPROPS
350
388
  0
DICTIONARY
  5
2C5
330
192
100
AcDbDictionary
280
     1
281
     1
  3
ACAD_INDEX
360
2C6
  0
DICTIONARY
  5
188
102
{ACAD_REACTORS
330
187
102
}
330
187
100
AcDbDictionary
281
     1
  0
DICTIONARY
  5
1BC
102
{ACAD_REACTORS
330
187
102
}
330
187
100
AcDbDictionary
281
     1
  3
Model
350
1BE
  3
ﾚｲｱｳﾄ1
350
1BF
  0
DICTIONARY
  5
195
102
{ACAD_REACTORS
330
187
102
}
330
187
100
AcDbDictionary
281
     1
  3
STANDARD
350
196
  0
DICTIONARY
  5
1BD
102
{ACAD_REACTORS
330
187
102
}
330
187
100
AcDbDictionary
281
     1
  0
ACDBDICTIONARYWDFLT
  5
1BA
102
{ACAD_REACTORS
330
187
102
}
330
187
100
AcDbDictionary
281
     1
  3
Normal
350
1BB
100
AcDbDictionaryWithDefault
340
1BB
  0
DICTIONARY
  5
1AD
102
{ACAD_REACTORS
330
187
102
}
330
187
100
AcDbDictionary
281
     1
  3
DIMADEC
350
1AE
  3
DIMASSOC
350
2D0
  3
INDEXCTL
350
2CF
  0
DICTIONARY
  5
279
102
{ACAD_REACTORS
330
187
102
}
330
187
100
AcDbDictionary
281
     1
  3
AcmBOMDATA
350
386
  0
DICTIONARY
  5
1C1
102
{ACAD_REACTORS
330
187
102
}
330
187
100
AcDbDictionary
281
     1
  3
AcMgSettings
350
1C2
  3
AMGLAYCFG
350
390
  0
DICTIONARY
  5
297
102
{ACAD_REACTORS
330
187
102
}
330
187
100
AcDbDictionary
281
     1
  3
DIMENSION
350
29C
  3
FEA
350
29B
  3
HATCH (1)
350
298
  3
HATCH (2)
350
299
  3
SIMPLE WELD
350
29D
  3
SYMBOLS
350
29A
  0
XRECORD
  5
388
102
{ACAD_REACTORS
330
187
102
}
330
187
100
AcDbXrecord
280
     1
  1
DWGPROPS COOKIE
  2

  3

  4

  6

  7

  8

  9

300
AmdtFileType=84
301
=
302
=
303
=
304
=
305
=
306
=
307
=
308
=
309
=
 40
0.0056329513888889
 41
2450857.475395601
 42
2456448.408457211
  1

 90
        1
  0
DICTIONARY
  5
2C6
102
{ACAD_REACTORS
330
2C5
102
}
330
2C5
100
AcDbDictionary
281
     1
  3
*A1
350
2C7
  0
LAYOUT
  5
1BE
102
{ACAD_REACTORS
330
1BC
102
}
330
1BC
100
AcDbPlotSettings
  1

  2
\\KONISHIDENXP\SHARP MX-2700FG
  4

  6

 40
0.0
 41
0.0
 42
0.0
 43
0.0
 44
0.0
 45
0.0
 46
0.0
 47
0.0
 48
0.0
 49
0.0
140
0.0
141
0.0
142
1.0
143
1.0
 70
  1712
 72
     0
 73
     0
 74
     0
  7

 75
     0
147
1.0
148
0.0
149
0.0
100
AcDbLayout
  1
Model
 70
     1
 71
     0
 10
0.0
 20
0.0
 11
12.0
 21
9.0
 12
0.0
 22
0.0
 32
0.0
 14
0.0
 24
0.0
 34
0.0
 15
0.0
 25
0.0
 35
0.0
146
0.0
 13
0.0
 23
0.0
 33
0.0
 16
1.0
 26
0.0
 36
0.0
 17
0.0
 27
1.0
 37
0.0
 76
     0
330
192
  0
LAYOUT
  5
1BF
102
{ACAD_REACTORS
330
1BC
102
}
330
1BC
100
AcDbPlotSettings
  1

  2
\\KONISHIDENXP\SHARP MX-2700FG
  4

  6

 40
0.0
 41
0.0
 42
0.0
 43
0.0
 44
0.0
 45
0.0
 46
0.0
 47
0.0
 48
0.0
 49
0.0
140
0.0
141
0.0
142
1.0
143
1.0
 70
   688
 72
     0
 73
     0
 74
     5
  7

 75
    16
147
1.0
148
0.0
149
0.0
100
AcDbLayout
  1
ﾚｲｱｳﾄ1
 70
     0
 71
     1
 10
0.0
 20
0.0
 11
12.0
 21
9.0
 12
0.0
 22
0.0
 32
0.0
 14
1.000000000000000E+20
 24
1.000000000000000E+20
 34
1.000000000000000E+20
 15
-1.000000000000000E+20
 25
-1.000000000000000E+20
 35
-1.000000000000000E+20
146
0.0
 13
0.0
 23
0.0
 33
0.0
 16
1.0
 26
0.0
 36
0.0
 17
0.0
 27
1.0
 37
0.0
 76
     0
330
18F
  0
MLINESTYLE
  5
196
102
{ACAD_REACTORS
330
195
102
}
330
195
100
AcDbMlineStyle
  2
STANDARD
 70
     0
  3

 62
   256
 51
90.0
 52
90.0
 71
     2
 49
0.5
 62
   256
  6
BYLAYER
 49
-0.5
 62
   256
  6
BYLAYER
  0
ACDBPLACEHOLDER
  5
1BB
102
{ACAD_REACTORS
330
1BA
102
}
330
1BA
  0
DICTIONARYVAR
  5
1AE
102
{ACAD_REACTORS
330
1AD
102
}
330
1AD
100
DictionaryVariables
280
     0
  1
0
  0
DICTIONARYVAR
  5
2D0
102
{ACAD_REACTORS
330
1AD
102
}
330
1AD
100
DictionaryVariables
280
     0
  1
0
  0
DICTIONARYVAR
  5
2CF
102
{ACAD_REACTORS
330
1AD
102
}
330
1AD
100
DictionaryVariables
280
     0
  1
1
  0
ACMDATADICTIONARY
  5
386
102
{ACAD_REACTORS
330
279
102
}
330
279
100
AcDbDictionary
281
     1
  3
*A1
350
387
100
AcmDataDictionary
  0
DICTIONARY
  5
1C2
102
{ACAD_REACTORS
330
1C1
102
}
330
1C1
100
AcDbDictionary
281
     1
  3
DWGSETTINGS
350
2D8
  0
ACAMGFILTERDAT
  5
29C
102
{ACAD_REACTORS
330
297
102
}
330
297
100
AcAmgFilterDat
 70
    15
  1
DIMENSION,AMDT_*_DIM
  2
*
  3
*
  4
*
  5
*
290
     1
  0
ACAMGFILTERDAT
  5
29B
102
{ACAD_REACTORS
330
297
102
}
330
297
100
AcAmgFilterDat
 70
    15
  1
*
  2
AM_FEA-AM_*
  3
*
  4
*
  5
*
290
     1
  0
ACAMGFILTERDAT
  5
298
102
{ACAD_REACTORS
330
297
102
}
330
297
100
AcAmgFilterDat
 70
    15
  1
HATCH
  2
*
  3
*
  4
*
  5
*
290
     1
  0
ACAMGFILTERDAT
  5
299
102
{ACAD_REACTORS
330
297
102
}
330
297
100
AcAmgFilterDat
 70
    15
  1
LINE
  2
8,8N,*-8,*-8N,AM_8,AM_8N,*-AM_8,*-AM_8N
  3
*
  4
*
  5
INSERT,STDPART2D
290
     1
  0
ACAMGFILTERDAT
  5
29D
102
{ACAD_REACTORS
330
297
102
}
330
297
100
AcAmgFilterDat
 70
    15
  1
ARC
  2
AM_5
  3
*
  4
2
  5
INSERT
290
     0
  0
ACAMGFILTERDAT
  5
29A
102
{ACAD_REACTORS
330
297
102
}
330
297
100
AcAmgFilterDat
 70
    15
  1
ACMFCFRAME,ACMDATUMTARGET,ACMDATUMID,ACMWELDSYM,ACMSURFSYM,ACMFEATID,ACMPARTREF,ACMBALLOON,AMDTEDGESYM,AMGSCREWCALCTABLE
  2
*
  3
*
  4
*
  5
*
290
     1
  0
LAYER_INDEX
  5
2C7
102
{ACAD_REACTORS
330
2C6
102
}
330
2C6
100
AcDbIndex
 40
2456448.4560064
100
AcDbLayerIndex
  8
0
360
2C8
 90
       66
  8
1
360
2C9
 90
        5
  8
3
360
2CA
 90
        0
  8
4
360
2CB
 90
        0
  8
10
360
2CC
 90
        0
  8
11
360
2CD
 90
        0
  8
2
360
2CE
 90
        4
  0
ACMDATAENTRYBLOCK
  5
387
102
{ACAD_REACTORS
330
386
102
}
330
386
100
AcmDataEntry
100
AcmDataEntryBlock
  0
IDBUFFER
  5
2C8
330
0
100
AcDbIdBuffer
330
4E
330
4F
330
64
330
65
330
66
330
67
330
68
330
69
330
6A
330
6B
330
6C
330
6D
330
6E
330
6F
330
70
330
71
330
72
330
73
330
74
330
75
330
76
330
77
330
78
330
79
330
7A
330
7B
330
7C
330
7D
330
7E
330
7F
330
80
330
81
330
82
330
83
330
84
330
85
330
D3
330
D4
330
D6
330
D7
330
D9
330
DA
330
DB
330
DC
330
DD
330
DE
330
DF
330
E0
330
E1
330
E2
330
E3
330
E4
330
E5
330
E6
330
E7
330
E8
330
E9
330
EA
330
EB
330
EC
330
2BF
330
2C0
330
2C1
330
2C2
330
2C3
330
2C4
  0
IDBUFFER
  5
2C9
330
0
100
AcDbIdBuffer
330
4B
330
4C
330
CD
330
D0
330
F6
  0
IDBUFFER
  5
2CA
330
0
100
AcDbIdBuffer
  0
IDBUFFER
  5
2CB
330
0
100
AcDbIdBuffer
  0
IDBUFFER
  5
2CC
330
0
100
AcDbIdBuffer
  0
IDBUFFER
  5
2CD
330
0
100
AcDbIdBuffer
  0
IDBUFFER
  5
2CE
330
0
100
AcDbIdBuffer
330
C9
330
CA
330
CE
330
D2
  0
ENDSEC
  0
EOF
