  0
SECTION
  2
HEADER
  9
$ACADVER
  1
AC1014
  9
$ACADMAINTVER
 70
     0
  9
$DWGCODEPAGE
  3
ANSI_932
  9
$INSBASE
 10
0.0
 20
0.0
 30
0.0
  9
$EXTMIN
 10
5.0
 20
25.0
 30
0.0
  9
$EXTMAX
 10
195.0
 20
115.0
 30
0.0
  9
$LIMMIN
 10
0.0
 20
0.0
  9
$LIMMAX
 10
200.0
 20
140.0
  9
$ORTHOMODE
 70
     1
  9
$REGENMODE
 70
     1
  9
$FILLMODE
 70
     1
  9
$QTEXTMODE
 70
     0
  9
$MIRRTEXT
 70
     1
  9
$DRAGMODE
 70
     1
  9
$LTSCALE
 40
10.0
  9
$OSMODE
 70
    32
  9
$ATTMODE
 70
     1
  9
$TEXTSIZE
 40
6.0
  9
$TRACEWID
 40
0.05
  9
$TEXTSTYLE
  7
BIGFONT
  9
$CLAYER
  8
0
  9
$CELTYPE
  6
BYLAYER
  9
$CECOLOR
 62
   256
  9
$CELTSCALE
 40
1.0
  9
$DELOBJ
 70
     1
  9
$DISPSILH
 70
     0
  9
$DIMSCALE
 40
1.0
  9
$DIMASZ
 40
3.0
  9
$DIMEXO
 40
2.0
  9
$DIMDLI
 40
0.38
  9
$DIMRND
 40
0.0
  9
$DIMDLE
 40
0.0
  9
$DIMEXE
 40
2.0
  9
$DIMTP
 40
0.0
  9
$DIMTM
 40
0.0
  9
$DIMTXT
 40
3.2
  9
$DIMCEN
 40
0.0
  9
$DIMTSZ
 40
0.0
  9
$DIMTOL
 70
     0
  9
$DIMLIM
 70
     0
  9
$DIMTIH
 70
     0
  9
$DIMTOH
 70
     0
  9
$DIMSE1
 70
     0
  9
$DIMSE2
 70
     0
  9
$DIMTAD
 70
     1
  9
$DIMZIN
 70
     0
  9
$DIMBLK
  1

  9
$DIMASO
 70
     0
  9
$DIMSHO
 70
     0
  9
$DIMPOST
  1

  9
$DIMAPOST
  1

  9
$DIMALT
 70
     0
  9
$DIMALTD
 70
     2
  9
$DIMALTF
 40
25.4
  9
$DIMLFAC
 40
1.0
  9
$DIMTOFL
 70
     0
  9
$DIMTVP
 40
1.6
  9
$DIMTIX
 70
     1
  9
$DIMSOXD
 70
     0
  9
$DIMSAH
 70
     0
  9
$DIMBLK1
  1

  9
$DIMBLK2
  1

  9
$DIMSTYLE
  2
STANDARD
  9
$DIMCLRD
 70
     0
  9
$DIMCLRE
 70
     0
  9
$DIMCLRT
 70
     0
  9
$DIMTFAC
 40
1.0
  9
$DIMGAP
 40
0.09
  9
$DIMJUST
 70
     0
  9
$DIMSD1
 70
     0
  9
$DIMSD2
 70
     0
  9
$DIMTOLJ
 70
     1
  9
$DIMTZIN
 70
     0
  9
$DIMALTZ
 70
     0
  9
$DIMALTTZ
 70
     0
  9
$DIMFIT
 70
     5
  9
$DIMUPT
 70
     0
  9
$DIMUNIT
 70
     2
  9
$DIMDEC
 70
     1
  9
$DIMTDEC
 70
     1
  9
$DIMALTU
 70
     2
  9
$DIMALTTD
 70
     2
  9
$DIMTXSTY
  7
BIGFONT
  9
$DIMAUNIT
 70
     0
  9
$LUNITS
 70
     2
  9
$LUPREC
 70
     1
  9
$SKETCHINC
 40
0.1
  9
$FILLETRAD
 40
0.0
  9
$AUNITS
 70
     0
  9
$AUPREC
 70
     0
  9
$MENU
  1
ACAD
  9
$ELEVATION
 40
0.0
  9
$PELEVATION
 40
0.0
  9
$THICKNESS
 40
0.0
  9
$LIMCHECK
 70
     0
  9
$BLIPMODE
 70
     0
  9
$CHAMFERA
 40
0.0
  9
$CHAMFERB
 40
0.0
  9
$CHAMFERC
 40
0.0
  9
$CHAMFERD
 40
0.0
  9
$SKPOLY
 70
     0
  9
$TDCREATE
 40
2450873.813803472
  9
$TDUPDATE
 40
2453089.774240081
  9
$TDINDWG
 40
0.0300992824
  9
$TDUSRTIMER
 40
0.0300992824
  9
$USRTIMER
 70
     1
  9
$ANGBASE
 50
0.0
  9
$ANGDIR
 70
     0
  9
$PDMODE
 70
     0
  9
$PDSIZE
 40
0.0
  9
$PLINEWID
 40
0.0
  9
$COORDS
 70
     2
  9
$SPLFRAME
 70
     0
  9
$SPLINETYPE
 70
     6
  9
$SPLINESEGS
 70
     8
  9
$ATTDIA
 70
     0
  9
$ATTREQ
 70
     1
  9
$HANDLING
 70
     1
  9
$HANDSEED
  5
186
  9
$SURFTAB1
 70
     6
  9
$SURFTAB2
 70
     6
  9
$SURFTYPE
 70
     6
  9
$SURFU
 70
     6
  9
$SURFV
 70
     6
  9
$UCSNAME
  2

  9
$UCSORG
 10
0.0
 20
0.0
 30
0.0
  9
$UCSXDIR
 10
1.0
 20
0.0
 30
0.0
  9
$UCSYDIR
 10
0.0
 20
1.0
 30
0.0
  9
$PUCSNAME
  2

  9
$PUCSORG
 10
0.0
 20
0.0
 30
0.0
  9
$PUCSXDIR
 10
1.0
 20
0.0
 30
0.0
  9
$PUCSYDIR
 10
0.0
 20
1.0
 30
0.0
  9
$USERI1
 70
     0
  9
$USERI2
 70
     0
  9
$USERI3
 70
     0
  9
$USERI4
 70
     0
  9
$USERI5
 70
     0
  9
$USERR1
 40
0.0
  9
$USERR2
 40
0.0
  9
$USERR3
 40
0.0
  9
$USERR4
 40
0.0
  9
$USERR5
 40
0.0
  9
$WORLDVIEW
 70
     1
  9
$SHADEDGE
 70
     3
  9
$SHADEDIF
 70
    70
  9
$TILEMODE
 70
     1
  9
$MAXACTVP
 70
    16
  9
$PINSBASE
 10
0.0
 20
0.0
 30
0.0
  9
$PLIMCHECK
 70
     0
  9
$PEXTMIN
 10
1.000000E+20
 20
1.000000E+20
 30
1.000000E+20
  9
$PEXTMAX
 10
-1.000000E+20
 20
-1.000000E+20
 30
-1.000000E+20
  9
$PLIMMIN
 10
0.0
 20
0.0
  9
$PLIMMAX
 10
12.0
 20
9.0
  9
$UNITMODE
 70
     0
  9
$VISRETAIN
 70
     0
  9
$PLINEGEN
 70
     1
  9
$PSLTSCALE
 70
     0
  9
$TREEDEPTH
 70
  3020
  9
$PICKSTYLE
 70
     1
  9
$CMLSTYLE
  2
STANDARD
  9
$CMLJUST
 70
     0
  9
$CMLSCALE
 40
1.0
  9
$PROXYGRAPHICS
 70
     1
  9
$MEASUREMENT
 70
     0
  0
ENDSEC
  0
SECTION
  2
CLASSES
  0
CLASS
  1
DICTIONARYVAR
  2
AcDbDictionaryVar
  3
"AutoCAD"
 90
        0
280
     0
281
     0
  0
ENDSEC
  0
SECTION
  2
TABLES
  0
TABLE
  2
VPORT
  5
14E
100
AcDbSymbolTable
 70
     1
  0
VPORT
  5
181
100
AcDbSymbolTableRecord
100
AcDbViewportTableRecord
  2
*ACTIVE
 70
     0
 10
0.0
 20
0.0
 11
1.0
 21
1.0
 12
124.153543
 22
77.987711
 13
0.0
 23
0.0
 14
5.0
 24
5.0
 15
10.0
 25
10.0
 16
0.0
 26
0.0
 36
1.0
 17
0.0
 27
0.0
 37
0.0
 40
155.975422
 41
1.591963
 42
50.0
 43
0.0
 44
0.0
 50
0.0
 51
0.0
 71
     0
 72
   500
 73
     1
 74
     1
 75
     0
 76
     0
 77
     0
 78
     2
  0
ENDTAB
  0
TABLE
  2
LTYPE
  5
14B
100
AcDbSymbolTable
 70
     3
  0
LTYPE
  5
157
100
AcDbSymbolTableRecord
100
AcDbLinetypeTableRecord
  2
BYBLOCK
 70
     0
  3

 72
    65
 73
     0
 40
0.0
  0
LTYPE
  5
158
100
AcDbSymbolTableRecord
100
AcDbLinetypeTableRecord
  2
BYLAYER
 70
     0
  3

 72
    65
 73
     0
 40
0.0
  0
LTYPE
  5
159
100
AcDbSymbolTableRecord
100
AcDbLinetypeTableRecord
  2
CONTINUOUS
 70
     0
  3
実線
 72
    65
 73
     0
 40
0.0
  0
LTYPE
  5
166
100
AcDbSymbolTableRecord
100
AcDbLinetypeTableRecord
  2
CENTER
 70
     0
  3
____ _ ____ _ ____ _ ____ _ ____ _ ____ _ ____
 72
    65
 73
     4
 40
2.0
 49
1.25
 74
     0
 49
-0.25
 74
     0
 49
0.25
 74
     0
 49
-0.25
 74
     0
  0
LTYPE
  5
167
100
AcDbSymbolTableRecord
100
AcDbLinetypeTableRecord
  2
HIDDEN
 70
     0
  3
_ _ _ _ _ _ _ _ _ _ _ _ _ _ _ _ _ _ _ _ _ _ _
 72
    65
 73
     2
 40
0.375
 49
0.25
 74
     0
 49
-0.125
 74
     0
  0
ENDTAB
  0
TABLE
  2
LAYER
  5
148
100
AcDbSymbolTable
 70
     6
  0
LAYER
  5
154
100
AcDbSymbolTableRecord
100
AcDbLayerTableRecord
  2
0
 70
     0
 62
     7
  6
CONTINUOUS
  0
LAYER
  5
16C
100
AcDbSymbolTableRecord
100
AcDbLayerTableRecord
  2
1
 70
     0
 62
     1
  6
CENTER
  0
LAYER
  5
16D
100
AcDbSymbolTableRecord
100
AcDbLayerTableRecord
  2
3
 70
     0
 62
     3
  6
CONTINUOUS
  0
LAYER
  5
16E
100
AcDbSymbolTableRecord
100
AcDbLayerTableRecord
  2
10
 70
     0
 62
     7
  6
CONTINUOUS
  0
LAYER
  5
16F
100
AcDbSymbolTableRecord
100
AcDbLayerTableRecord
  2
11
 70
     0
 62
     3
  6
CONTINUOUS
  0
LAYER
  5
170
100
AcDbSymbolTableRecord
100
AcDbLayerTableRecord
  2
2
 70
     0
 62
     2
  6
HIDDEN
  0
ENDTAB
  0
TABLE
  2
STYLE
  5
149
100
AcDbSymbolTable
 70
     3
  0
STYLE
  5
155
100
AcDbSymbolTableRecord
100
AcDbTextStyleTableRecord
  2
STANDARD
 70
     0
 40
0.0
 41
1.0
 50
0.0
 71
     0
 42
0.2
  3
TXT
  4
BIGFONT
  0
STYLE
  5
164
100
AcDbSymbolTableRecord
100
AcDbTextStyleTableRecord
  2
07500
 70
     0
 40
0.0
 41
0.75
 50
0.0
 71
     0
 42
0.2
  3
TXT
  4
BIGFONT
  0
STYLE
  5
165
100
AcDbSymbolTableRecord
100
AcDbTextStyleTableRecord
  2
BIGFONT
 70
     0
 40
6.0
 41
1.0
 50
0.0
 71
     0
 42
6.0
  3
txt.shx
  4
bigfont
  0
ENDTAB
  0
TABLE
  2
VIEW
  5
14C
100
AcDbSymbolTable
 70
     1
  0
VIEW
  5
168
100
AcDbSymbolTableRecord
100
AcDbViewTableRecord
  2
ALL
 70
     0
 40
270.0
 10
220.991597
 20
135.0
 41
0.0
 11
0.0
 21
0.0
 31
1.0
 12
0.0
 22
0.0
 32
0.0
 42
0.0
 43
0.0
 44
0.0
 50
0.0
 71
     0
  0
ENDTAB
  0
TABLE
  2
UCS
  5
14D
100
AcDbSymbolTable
 70
     0
  0
ENDTAB
  0
TABLE
  2
APPID
  5
14F
100
AcDbSymbolTable
 70
     1
  0
APPID
  5
156
100
AcDbSymbolTableRecord
100
AcDbRegAppTableRecord
  2
ACAD
 70
     0
  0
ENDTAB
  0
TABLE
  2
DIMSTYLE
  5
150
100
AcDbSymbolTable
 70
     1
  0
DIMSTYLE
105
16B
100
AcDbSymbolTableRecord
100
AcDbDimStyleTableRecord
  2
STANDARD
 70
     0
  3

  4

  5

  6

  7

 40
1.0
 41
0.18
 42
0.0625
 43
0.38
 44
0.18
 45
0.0
 46
0.0
 47
0.0
 48
0.0
140
0.18
141
0.09
142
0.0
143
25.4
144
1.0
145
0.0
146
1.0
147
0.09
 71
     0
 72
     0
 73
     1
 74
     1
 75
     0
 76
     0
 77
     0
 78
     0
170
     0
171
     2
172
     0
173
     0
174
     0
175
     0
176
     0
177
     0
178
     0
270
     2
271
     1
272
     1
273
     2
274
     2
340
165
275
     0
280
     0
281
     0
282
     0
283
     1
284
     0
285
     0
286
     0
287
     5
288
     0
  0
ENDTAB
  0
TABLE
  2
BLOCK_RECORD
  5
147
100
AcDbSymbolTable
 70
     2
  0
BLOCK_RECORD
  5
15D
100
AcDbSymbolTableRecord
100
AcDbBlockTableRecord
  2
*MODEL_SPACE
  0
BLOCK_RECORD
  5
15A
100
AcDbSymbolTableRecord
100
AcDbBlockTableRecord
  2
*PAPER_SPACE
  0
BLOCK_RECORD
  5
162
100
AcDbSymbolTableRecord
100
AcDbBlockTableRecord
  2
*X0
  0
BLOCK_RECORD
  5
163
100
AcDbSymbolTableRecord
100
AcDbBlockTableRecord
  2
QQ
  0
ENDTAB
  0
ENDSEC
  0
SECTION
  2
BLOCKS
  0
BLOCK
  5
173
100
AcDbEntity
  8
0
100
AcDbBlockBegin
  2
*MODEL_SPACE
 70
     0
 10
0.0
 20
0.0
 30
0.0
  3
*MODEL_SPACE
  1

  0
ENDBLK
  5
174
100
AcDbEntity
  8
0
100
AcDbBlockEnd
  0
BLOCK
  5
171
100
AcDbEntity
 67
     1
  8
0
100
AcDbBlockBegin
  2
*PAPER_SPACE
 70
     0
 10
0.0
 20
0.0
 30
0.0
  3
*PAPER_SPACE
  1

  0
ENDBLK
  5
172
100
AcDbEntity
 67
     1
  8
0
100
AcDbBlockEnd
  0
BLOCK
  5
2E
100
AcDbEntity
  8
0
100
AcDbBlockBegin
  2
*X0
 70
     1
 10
0.0
 20
0.0
 30
0.0
  3
*X0
  1

  0
LINE
  5
2F
100
AcDbEntity
  8
0
 62
     0
100
AcDbLine
 10
101.0
 20
110.0
 30
0.0
 11
114.0
 21
110.0
 31
0.0
  0
LINE
  5
30
100
AcDbEntity
  8
0
 62
     0
100
AcDbLine
 10
101.0
 20
111.0
 30
0.0
 11
114.0
 21
111.0
 31
0.0
  0
LINE
  5
31
100
AcDbEntity
  8
0
 62
     0
100
AcDbLine
 10
101.0
 20
112.0
 30
0.0
 11
114.0
 21
112.0
 31
0.0
  0
LINE
  5
32
100
AcDbEntity
  8
0
 62
     0
100
AcDbLine
 10
101.0
 20
113.0
 30
0.0
 11
114.0
 21
113.0
 31
0.0
  0
LINE
  5
33
100
AcDbEntity
  8
0
 62
     0
100
AcDbLine
 10
101.0
 20
114.0
 30
0.0
 11
114.0
 21
114.0
 31
0.0
  0
LINE
  5
34
100
AcDbEntity
  8
0
 62
     0
100
AcDbLine
 10
101.0
 20
115.0
 30
0.0
 11
114.0
 21
115.0
 31
0.0
  0
LINE
  5
35
100
AcDbEntity
  8
0
 62
     0
100
AcDbLine
 10
101.0
 20
116.0
 30
0.0
 11
114.0
 21
116.0
 31
0.0
  0
LINE
  5
36
100
AcDbEntity
  8
0
 62
     0
100
AcDbLine
 10
101.0
 20
117.0
 30
0.0
 11
114.0
 21
117.0
 31
0.0
  0
LINE
  5
37
100
AcDbEntity
  8
0
 62
     0
100
AcDbLine
 10
101.0
 20
118.0
 30
0.0
 11
114.0
 21
118.0
 31
0.0
  0
LINE
  5
38
100
AcDbEntity
  8
0
 62
     0
100
AcDbLine
 10
101.0
 20
119.0
 30
0.0
 11
114.0
 21
119.0
 31
0.0
  0
LINE
  5
39
100
AcDbEntity
  8
0
 62
     0
100
AcDbLine
 10
101.0
 20
120.0
 30
0.0
 11
114.0
 21
120.0
 31
0.0
  0
LINE
  5
3A
100
AcDbEntity
  8
0
 62
     0
100
AcDbLine
 10
101.0
 20
121.0
 30
0.0
 11
114.0
 21
121.0
 31
0.0
  0
LINE
  5
3B
100
AcDbEntity
  8
0
 62
     0
100
AcDbLine
 10
101.0
 20
122.0
 30
0.0
 11
114.0
 21
122.0
 31
0.0
  0
LINE
  5
3C
100
AcDbEntity
  8
0
 62
     0
100
AcDbLine
 10
101.0
 20
123.0
 30
0.0
 11
114.0
 21
123.0
 31
0.0
  0
LINE
  5
3D
100
AcDbEntity
  8
0
 62
     0
100
AcDbLine
 10
101.0
 20
124.0
 30
0.0
 11
114.0
 21
124.0
 31
0.0
  0
LINE
  5
3E
100
AcDbEntity
  8
0
 62
     0
100
AcDbLine
 10
101.0
 20
125.0
 30
0.0
 11
114.0
 21
125.0
 31
0.0
  0
LINE
  5
3F
100
AcDbEntity
  8
0
 62
     0
100
AcDbLine
 10
101.0
 20
126.0
 30
0.0
 11
114.0
 21
126.0
 31
0.0
  0
LINE
  5
40
100
AcDbEntity
  8
0
 62
     0
100
AcDbLine
 10
101.0
 20
127.0
 30
0.0
 11
114.0
 21
127.0
 31
0.0
  0
LINE
  5
41
100
AcDbEntity
  8
0
 62
     0
100
AcDbLine
 10
101.0
 20
128.0
 30
0.0
 11
114.0
 21
128.0
 31
0.0
  0
LINE
  5
42
100
AcDbEntity
  8
0
 62
     0
100
AcDbLine
 10
101.0
 20
129.0
 30
0.0
 11
114.0
 21
129.0
 31
0.0
  0
LINE
  5
43
100
AcDbEntity
  8
0
 62
     0
100
AcDbLine
 10
101.0
 20
130.0
 30
0.0
 11
114.0
 21
130.0
 31
0.0
  0
LINE
  5
44
100
AcDbEntity
  8
0
 62
     0
100
AcDbLine
 10
101.0
 20
131.0
 30
0.0
 11
114.0
 21
131.0
 31
0.0
  0
LINE
  5
45
100
AcDbEntity
  8
0
 62
     0
100
AcDbLine
 10
101.0
 20
132.0
 30
0.0
 11
114.0
 21
132.0
 31
0.0
  0
LINE
  5
46
100
AcDbEntity
  8
0
 62
     0
100
AcDbLine
 10
101.0
 20
133.0
 30
0.0
 11
114.0
 21
133.0
 31
0.0
  0
LINE
  5
47
100
AcDbEntity
  8
0
 62
     0
100
AcDbLine
 10
101.0
 20
134.0
 30
0.0
 11
114.0
 21
134.0
 31
0.0
  0
LINE
  5
48
100
AcDbEntity
  8
0
 62
     0
100
AcDbLine
 10
101.0
 20
135.0
 30
0.0
 11
114.0
 21
135.0
 31
0.0
  0
LINE
  5
49
100
AcDbEntity
  8
0
 62
     0
100
AcDbLine
 10
101.0
 20
136.0
 30
0.0
 11
114.0
 21
136.0
 31
0.0
  0
LINE
  5
4A
100
AcDbEntity
  8
0
 62
     0
100
AcDbLine
 10
101.0
 20
137.0
 30
0.0
 11
114.0
 21
137.0
 31
0.0
  0
LINE
  5
4B
100
AcDbEntity
  8
0
 62
     0
100
AcDbLine
 10
101.0
 20
138.0
 30
0.0
 11
114.0
 21
138.0
 31
0.0
  0
LINE
  5
4C
100
AcDbEntity
  8
0
 62
     0
100
AcDbLine
 10
101.0
 20
139.0
 30
0.0
 11
114.0
 21
139.0
 31
0.0
  0
LINE
  5
4D
100
AcDbEntity
  8
0
 62
     0
100
AcDbLine
 10
101.0
 20
140.0
 30
0.0
 11
114.0
 21
140.0
 31
0.0
  0
LINE
  5
4E
100
AcDbEntity
  8
0
 62
     0
100
AcDbLine
 10
101.0
 20
141.0
 30
0.0
 11
114.0
 21
141.0
 31
0.0
  0
LINE
  5
4F
100
AcDbEntity
  8
0
 62
     0
100
AcDbLine
 10
101.0
 20
142.0
 30
0.0
 11
114.0
 21
142.0
 31
0.0
  0
LINE
  5
50
100
AcDbEntity
  8
0
 62
     0
100
AcDbLine
 10
101.0
 20
143.0
 30
0.0
 11
114.0
 21
143.0
 31
0.0
  0
LINE
  5
51
100
AcDbEntity
  8
0
 62
     0
100
AcDbLine
 10
101.0
 20
144.0
 30
0.0
 11
114.0
 21
144.0
 31
0.0
  0
LINE
  5
52
100
AcDbEntity
  8
0
 62
     0
100
AcDbLine
 10
101.0
 20
145.0
 30
0.0
 11
114.0
 21
145.0
 31
0.0
  0
LINE
  5
53
100
AcDbEntity
  8
0
 62
     0
100
AcDbLine
 10
101.0
 20
146.0
 30
0.0
 11
114.0
 21
146.0
 31
0.0
  0
LINE
  5
54
100
AcDbEntity
  8
0
 62
     0
100
AcDbLine
 10
101.0
 20
147.0
 30
0.0
 11
114.0
 21
147.0
 31
0.0
  0
LINE
  5
55
100
AcDbEntity
  8
0
 62
     0
100
AcDbLine
 10
101.0
 20
148.0
 30
0.0
 11
114.0
 21
148.0
 31
0.0
  0
LINE
  5
56
100
AcDbEntity
  8
0
 62
     0
100
AcDbLine
 10
101.0
 20
149.0
 30
0.0
 11
114.0
 21
149.0
 31
0.0
  0
LINE
  5
57
100
AcDbEntity
  8
0
 62
     0
100
AcDbLine
 10
101.0
 20
109.0
 30
0.0
 11
114.0
 21
109.0
 31
0.0
  0
LINE
  5
58
100
AcDbEntity
  8
0
 62
     0
100
AcDbLine
 10
101.0
 20
108.0
 30
0.0
 11
114.0
 21
108.0
 31
0.0
  0
LINE
  5
59
100
AcDbEntity
  8
0
 62
     0
100
AcDbLine
 10
101.0
 20
107.0
 30
0.0
 11
114.0
 21
107.0
 31
0.0
  0
LINE
  5
5A
100
AcDbEntity
  8
0
 62
     0
100
AcDbLine
 10
101.0
 20
106.0
 30
0.0
 11
114.0
 21
106.0
 31
0.0
  0
LINE
  5
5B
100
AcDbEntity
  8
0
 62
     0
100
AcDbLine
 10
101.0
 20
105.0
 30
0.0
 11
114.0
 21
105.0
 31
0.0
  0
LINE
  5
5C
100
AcDbEntity
  8
0
 62
     0
100
AcDbLine
 10
101.0
 20
104.0
 30
0.0
 11
114.0
 21
104.0
 31
0.0
  0
LINE
  5
5D
100
AcDbEntity
  8
0
 62
     0
100
AcDbLine
 10
101.0
 20
103.0
 30
0.0
 11
114.0
 21
103.0
 31
0.0
  0
LINE
  5
5E
100
AcDbEntity
  8
0
 62
     0
100
AcDbLine
 10
101.0
 20
102.0
 30
0.0
 11
114.0
 21
102.0
 31
0.0
  0
LINE
  5
5F
100
AcDbEntity
  8
0
 62
     0
100
AcDbLine
 10
101.0
 20
101.0
 30
0.0
 11
114.0
 21
101.0
 31
0.0
  0
LINE
  5
60
100
AcDbEntity
  8
0
 62
     0
100
AcDbLine
 10
101.0
 20
100.0
 30
0.0
 11
114.0
 21
100.0
 31
0.0
  0
LINE
  5
61
100
AcDbEntity
  8
0
 62
     0
100
AcDbLine
 10
101.0
 20
99.0
 30
0.0
 11
114.0
 21
99.0
 31
0.0
  0
LINE
  5
62
100
AcDbEntity
  8
0
 62
     0
100
AcDbLine
 10
101.0
 20
98.0
 30
0.0
 11
114.0
 21
98.0
 31
0.0
  0
LINE
  5
63
100
AcDbEntity
  8
0
 62
     0
100
AcDbLine
 10
101.0
 20
97.0
 30
0.0
 11
114.0
 21
97.0
 31
0.0
  0
LINE
  5
64
100
AcDbEntity
  8
0
 62
     0
100
AcDbLine
 10
101.0
 20
96.0
 30
0.0
 11
114.0
 21
96.0
 31
0.0
  0
LINE
  5
65
100
AcDbEntity
  8
0
 62
     0
100
AcDbLine
 10
101.0
 20
95.0
 30
0.0
 11
114.0
 21
95.0
 31
0.0
  0
LINE
  5
66
100
AcDbEntity
  8
0
 62
     0
100
AcDbLine
 10
101.0
 20
94.0
 30
0.0
 11
114.0
 21
94.0
 31
0.0
  0
LINE
  5
67
100
AcDbEntity
  8
0
 62
     0
100
AcDbLine
 10
101.0
 20
93.0
 30
0.0
 11
114.0
 21
93.0
 31
0.0
  0
LINE
  5
68
100
AcDbEntity
  8
0
 62
     0
100
AcDbLine
 10
101.0
 20
92.0
 30
0.0
 11
114.0
 21
92.0
 31
0.0
  0
LINE
  5
69
100
AcDbEntity
  8
0
 62
     0
100
AcDbLine
 10
101.0
 20
91.0
 30
0.0
 11
114.0
 21
91.0
 31
0.0
  0
LINE
  5
6A
100
AcDbEntity
  8
0
 62
     0
100
AcDbLine
 10
101.0
 20
90.0
 30
0.0
 11
114.0
 21
90.0
 31
0.0
  0
LINE
  5
6B
100
AcDbEntity
  8
0
 62
     0
100
AcDbLine
 10
101.0
 20
89.0
 30
0.0
 11
114.0
 21
89.0
 31
0.0
  0
LINE
  5
6C
100
AcDbEntity
  8
0
 62
     0
100
AcDbLine
 10
101.0
 20
88.0
 30
0.0
 11
114.0
 21
88.0
 31
0.0
  0
LINE
  5
6D
100
AcDbEntity
  8
0
 62
     0
100
AcDbLine
 10
101.0
 20
87.0
 30
0.0
 11
114.0
 21
87.0
 31
0.0
  0
LINE
  5
6E
100
AcDbEntity
  8
0
 62
     0
100
AcDbLine
 10
101.0
 20
86.0
 30
0.0
 11
114.0
 21
86.0
 31
0.0
  0
LINE
  5
6F
100
AcDbEntity
  8
0
 62
     0
100
AcDbLine
 10
101.0
 20
85.0
 30
0.0
 11
114.0
 21
85.0
 31
0.0
  0
LINE
  5
70
100
AcDbEntity
  8
0
 62
     0
100
AcDbLine
 10
101.0
 20
84.0
 30
0.0
 11
114.0
 21
84.0
 31
0.0
  0
LINE
  5
71
100
AcDbEntity
  8
0
 62
     0
100
AcDbLine
 10
101.0
 20
83.0
 30
0.0
 11
114.0
 21
83.0
 31
0.0
  0
LINE
  5
72
100
AcDbEntity
  8
0
 62
     0
100
AcDbLine
 10
101.0
 20
82.0
 30
0.0
 11
114.0
 21
82.0
 31
0.0
  0
LINE
  5
73
100
AcDbEntity
  8
0
 62
     0
100
AcDbLine
 10
101.0
 20
81.0
 30
0.0
 11
114.0
 21
81.0
 31
0.0
  0
LINE
  5
74
100
AcDbEntity
  8
0
 62
     0
100
AcDbLine
 10
101.0
 20
80.0
 30
0.0
 11
114.0
 21
80.0
 31
0.0
  0
LINE
  5
75
100
AcDbEntity
  8
0
 62
     0
100
AcDbLine
 10
101.0
 20
79.0
 30
0.0
 11
114.0
 21
79.0
 31
0.0
  0
LINE
  5
76
100
AcDbEntity
  8
0
 62
     0
100
AcDbLine
 10
101.0
 20
78.0
 30
0.0
 11
114.0
 21
78.0
 31
0.0
  0
LINE
  5
77
100
AcDbEntity
  8
0
 62
     0
100
AcDbLine
 10
101.0
 20
77.0
 30
0.0
 11
114.0
 21
77.0
 31
0.0
  0
LINE
  5
78
100
AcDbEntity
  8
0
 62
     0
100
AcDbLine
 10
101.0
 20
76.0
 30
0.0
 11
114.0
 21
76.0
 31
0.0
  0
LINE
  5
79
100
AcDbEntity
  8
0
 62
     0
100
AcDbLine
 10
101.0
 20
75.0
 30
0.0
 11
114.0
 21
75.0
 31
0.0
  0
LINE
  5
7A
100
AcDbEntity
  8
0
 62
     0
100
AcDbLine
 10
101.0
 20
74.0
 30
0.0
 11
114.0
 21
74.0
 31
0.0
  0
LINE
  5
7B
100
AcDbEntity
  8
0
 62
     0
100
AcDbLine
 10
101.0
 20
73.0
 30
0.0
 11
114.0
 21
73.0
 31
0.0
  0
LINE
  5
7C
100
AcDbEntity
  8
0
 62
     0
100
AcDbLine
 10
101.0
 20
72.0
 30
0.0
 11
114.0
 21
72.0
 31
0.0
  0
LINE
  5
7D
100
AcDbEntity
  8
0
 62
     0
100
AcDbLine
 10
101.0
 20
71.0
 30
0.0
 11
114.0
 21
71.0
 31
0.0
  0
LINE
  5
7E
100
AcDbEntity
  8
0
 62
     0
100
AcDbLine
 10
101.0
 20
70.0
 30
0.0
 11
114.0
 21
70.0
 31
0.0
  0
ENDBLK
  5
7F
100
AcDbEntity
  8
0
100
AcDbBlockEnd
  0
BLOCK
  5
80
100
AcDbEntity
  8
0
100
AcDbBlockBegin
  2
QQ
 70
     0
 10
270.0
 20
0.0
 30
0.0
  3
QQ
  1

  0
LINE
  5
81
100
AcDbEntity
  8
11
100
AcDbLine
 10
173.0
 20
36.0
 30
0.0
 11
270.0
 21
36.0
 31
0.0
  0
TEXT
  5
82
100
AcDbEntity
  8
11
100
AcDbText
 10
175.0
 20
32.5
 30
0.0
 40
2.5
  1
部品名称
100
AcDbText
  0
LINE
  5
83
100
AcDbEntity
  8
11
100
AcDbLine
 10
173.0
 20
36.0
 30
0.0
 11
173.0
 21
0.0
 31
0.0
  0
LINE
  5
84
100
AcDbEntity
  8
11
100
AcDbLine
 10
173.0
 20
24.0
 30
0.0
 11
270.0
 21
24.0
 31
0.0
  0
TEXT
  5
85
100
AcDbEntity
  8
11
100
AcDbText
 10
175.0
 20
20.5
 30
0.0
 40
2.5
  1
品番
100
AcDbText
  0
LINE
  5
86
100
AcDbEntity
  8
11
100
AcDbLine
 10
173.0
 20
12.0
 30
0.0
 11
270.0
 21
12.0
 31
0.0
  0
TEXT
  5
87
100
AcDbEntity
  8
11
100
AcDbText
 10
175.0
 20
8.5
 30
0.0
 40
2.5
  1
尺度
100
AcDbText
  0
TEXT
  5
88
100
AcDbEntity
  8
11
100
AcDbText
 10
200.0
 20
8.5
 30
0.0
 40
2.5
  1
図番
100
AcDbText
  0
LINE
  5
89
100
AcDbEntity
  8
11
100
AcDbLine
 10
198.0
 20
0.0
 30
0.0
 11
198.0
 21
12.0
 31
0.0
  0
ENDBLK
  5
8A
100
AcDbEntity
  8
0
100
AcDbBlockEnd
  0
ENDSEC
  0
SECTION
  2
ENTITIES
  0
ARC
  5
8B
100
AcDbEntity
  8
0
100
AcDbCircle
 10
188.0
 20
54.5
 30
0.0
 40
2.0
100
AcDbArc
 50
270.0
 51
0.0
  0
ARC
  5
8C
100
AcDbEntity
  8
0
100
AcDbCircle
 10
188.0
 20
85.5
 30
0.0
 40
2.0
100
AcDbArc
 50
0.0
 51
90.0
  0
ARC
  5
8D
100
AcDbEntity
  8
0
100
AcDbCircle
 10
168.0
 20
49.5
 30
0.0
 40
3.0
100
AcDbArc
 50
90.0
 51
180.0
  0
ARC
  5
8E
100
AcDbEntity
  8
0
100
AcDbCircle
 10
168.0
 20
90.5
 30
0.0
 40
3.0
100
AcDbArc
 50
180.0
 51
270.0
  0
ARC
  5
8F
100
AcDbEntity
  8
0
100
AcDbCircle
 10
164.0
 20
109.0
 30
0.0
 40
1.0
100
AcDbArc
 50
0.0
 51
90.0
  0
ARC
  5
90
100
AcDbEntity
  8
0
100
AcDbCircle
 10
151.0
 20
109.0
 30
0.0
 40
1.0
100
AcDbArc
 50
90.0
 51
180.0
  0
ARC
  5
91
100
AcDbEntity
  8
0
100
AcDbCircle
 10
164.0
 20
31.0
 30
0.0
 40
1.0
100
AcDbArc
 50
270.0
 51
0.0
  0
ARC
  5
92
100
AcDbEntity
  8
0
100
AcDbCircle
 10
151.0
 20
31.0
 30
0.0
 40
1.0
100
AcDbArc
 50
180.0
 51
270.0
  0
LINE
  5
93
100
AcDbEntity
  8
0
100
AcDbLine
 10
164.0
 20
110.0
 30
0.0
 11
164.0
 21
30.0
 31
0.0
  0
LINE
  5
94
100
AcDbEntity
  8
0
100
AcDbLine
 10
151.0
 20
110.0
 30
0.0
 11
151.0
 21
30.0
 31
0.0
  0
LINE
  5
95
100
AcDbEntity
  8
0
100
AcDbLine
 10
168.0
 20
87.5
 30
0.0
 11
188.0
 21
87.5
 31
0.0
  0
LINE
  5
96
100
AcDbEntity
  8
0
100
AcDbLine
 10
168.0
 20
52.5
 30
0.0
 11
188.0
 21
52.5
 31
0.0
  0
LINE
  5
97
100
AcDbEntity
  8
0
100
AcDbLine
 10
151.0
 20
110.0
 30
0.0
 11
164.0
 21
110.0
 31
0.0
  0
LINE
  5
98
100
AcDbEntity
  8
0
100
AcDbLine
 10
151.0
 20
30.0
 30
0.0
 11
164.0
 21
30.0
 31
0.0
  0
LINE
  5
99
100
AcDbEntity
  8
0
100
AcDbLine
 10
190.0
 20
85.5
 30
0.0
 11
190.0
 21
54.5
 31
0.0
  0
LINE
  5
9A
100
AcDbEntity
  8
0
100
AcDbLine
 10
165.0
 20
109.0
 30
0.0
 11
165.0
 21
31.0
 31
0.0
  0
LINE
  5
9B
100
AcDbEntity
  8
1
100
AcDbLine
 10
145.0
 20
70.0
 30
0.0
 11
195.0
 21
70.0
 31
0.0
  0
LINE
  5
9C
100
AcDbEntity
  8
0
100
AcDbLine
 10
150.0
 20
109.0
 30
0.0
 11
150.0
 21
31.0
 31
0.0
  0
INSERT
  5
9D
100
AcDbEntity
  8
3
100
AcDbBlockReference
  2
*X0
 10
50.0
 20
-40.0
 30
0.0
  0
CIRCLE
  5
B0
100
AcDbEntity
  8
0
100
AcDbCircle
 10
50.0
 20
70.0
 30
0.0
 40
40.0
  0
LINE
  5
B2
100
AcDbEntity
  8
1
100
AcDbLine
 10
95.0
 20
70.0
 30
0.0
 11
5.0
 21
70.0
 31
0.0
  0
LINE
  5
B3
100
AcDbEntity
  8
1
100
AcDbLine
 10
50.0
 20
115.0
 30
0.0
 11
50.0
 21
25.0
 31
0.0
  0
LINE
  5
BE
100
AcDbEntity
  8
1
100
AcDbLine
 10
41.0
 20
40.0
 30
0.0
 11
58.5
 21
40.0
 31
0.0
  0
LINE
  5
E7
100
AcDbEntity
  8
1
100
AcDbLine
 10
171.75
 20
40.0
 30
0.0
 11
143.420825
 21
40.0
 31
0.0
  0
LINE
  5
FC
100
AcDbEntity
  8
2
100
AcDbLine
 10
190.0
 20
79.0
 30
0.0
 11
189.0
 21
78.0
 31
0.0
  0
LINE
  5
FD
100
AcDbEntity
  8
2
100
AcDbLine
 10
189.0
 20
78.0
 30
0.0
 11
189.0
 21
62.0
 31
0.0
  0
LINE
  5
FE
100
AcDbEntity
  8
2
100
AcDbLine
 10
189.0
 20
62.0
 30
0.0
 11
190.0
 21
61.0
 31
0.0
  0
LINE
  5
FF
100
AcDbEntity
  8
2
100
AcDbLine
 10
189.0
 20
78.0
 30
0.0
 11
162.0
 21
78.0
 31
0.0
  0
LINE
  5
100
100
AcDbEntity
  8
2
100
AcDbLine
 10
162.0
 20
78.0
 30
0.0
 11
162.0
 21
62.0
 31
0.0
  0
LINE
  5
101
100
AcDbEntity
  8
2
100
AcDbLine
 10
162.0
 20
62.0
 30
0.0
 11
188.5
 21
62.0
 31
0.0
  0
LINE
  5
102
100
AcDbEntity
  8
2
100
AcDbLine
 10
162.0
 20
77.5
 30
0.0
 11
159.0
 21
77.5
 31
0.0
  0
LINE
  5
103
100
AcDbEntity
  8
2
100
AcDbLine
 10
159.0
 20
77.5
 30
0.0
 11
159.0
 21
62.5
 31
0.0
  0
LINE
  5
104
100
AcDbEntity
  8
2
100
AcDbLine
 10
159.0
 20
62.5
 30
0.0
 11
162.0
 21
62.5
 31
0.0
  0
LINE
  5
105
100
AcDbEntity
  8
2
100
AcDbLine
 10
159.0
 20
77.5
 30
0.0
 11
156.0
 21
70.0
 31
0.0
  0
LINE
  5
106
100
AcDbEntity
  8
2
100
AcDbLine
 10
156.0
 20
70.0
 30
0.0
 11
159.0
 21
62.5
 31
0.0
  0
CIRCLE
  5
17C
100
AcDbEntity
  8
0
100
AcDbCircle
 10
50.0
 20
40.0
 30
0.0
 40
2.5
  0
CIRCLE
  5
17E
100
AcDbEntity
  8
0
100
AcDbCircle
 10
50.0
 20
40.0
 30
0.0
 40
2.0
  0
ENDSEC
  0
SECTION
  2
OBJECTS
  0
DICTIONARY
  5
152
100
AcDbDictionary
  3
ACAD_GROUP
350
153
  3
ACAD_MLINESTYLE
350
160
  3
ACDBVARIABLEDICTIONARY
350
175
  0
DICTIONARY
  5
153
102
{ACAD_REACTORS
330
152
102
}
100
AcDbDictionary
  0
DICTIONARY
  5
160
102
{ACAD_REACTORS
330
152
102
}
100
AcDbDictionary
  3
STANDARD
350
161
  0
DICTIONARY
  5
175
102
{ACAD_REACTORS
330
152
102
}
100
AcDbDictionary
  3
DIMADEC
350
176
  0
MLINESTYLE
  5
161
102
{ACAD_REACTORS
330
160
102
}
100
AcDbMlineStyle
  2
STANDARD
 70
     0
  3

 62
   256
 51
90.0
 52
90.0
 71
     2
 49
0.5
 62
   256
  6
BYLAYER
 49
-0.5
 62
   256
  6
BYLAYER
  0
DICTIONARYVAR
  5
176
102
{ACAD_REACTORS
330
175
102
}
100
DictionaryVariables
280
     0
  1
0
  0
ENDSEC
  0
EOF
