  0
SECTION
  2
HEADER
  9
$ACADVER
  1
AC1014
  9
$ACADMAINTVER
 70
     0
  9
$DWGCODEPAGE
  3
ANSI_932
  9
$INSBASE
 10
0.0
 20
0.0
 30
0.0
  9
$EXTMIN
 10
0.0
 20
0.0
 30
0.0
  9
$EXTMAX
 10
375.0
 20
270.0
 30
0.0
  9
$LIMMIN
 10
0.0
 20
0.0
  9
$LIMMAX
 10
375.0
 20
270.0
  9
$ORTHOMODE
 70
     1
  9
$REGENMODE
 70
     1
  9
$FILLMODE
 70
     1
  9
$QTEXTMODE
 70
     0
  9
$MIRRTEXT
 70
     1
  9
$DRAGMODE
 70
     1
  9
$LTSCALE
 40
10.0
  9
$OSMODE
 70
    33
  9
$ATTMODE
 70
     1
  9
$TEXTSIZE
 40
5.0
  9
$TRACEWID
 40
0.05
  9
$TEXTSTYLE
  7
BIGFONT
  9
$CLAYER
  8
0
  9
$CELTYPE
  6
BYLAYER
  9
$CECOLOR
 62
   256
  9
$CELTSCALE
 40
1.0
  9
$DELOBJ
 70
     1
  9
$DISPSILH
 70
     0
  9
$DIMSCALE
 40
1.0
  9
$DIMASZ
 40
3.0
  9
$DIMEXO
 40
2.0
  9
$DIMDLI
 40
0.38
  9
$DIMRND
 40
0.0
  9
$DIMDLE
 40
0.0
  9
$DIMEXE
 40
2.0
  9
$DIMTP
 40
0.0
  9
$DIMTM
 40
0.0
  9
$DIMTXT
 40
3.2
  9
$DIMCEN
 40
0.0
  9
$DIMTSZ
 40
0.0
  9
$DIMTOL
 70
     0
  9
$DIMLIM
 70
     0
  9
$DIMTIH
 70
     0
  9
$DIMTOH
 70
     0
  9
$DIMSE1
 70
     0
  9
$DIMSE2
 70
     0
  9
$DIMTAD
 70
     1
  9
$DIMZIN
 70
     0
  9
$DIMBLK
  1

  9
$DIMASO
 70
     0
  9
$DIMSHO
 70
     0
  9
$DIMPOST
  1

  9
$DIMAPOST
  1

  9
$DIMALT
 70
     0
  9
$DIMALTD
 70
     2
  9
$DIMALTF
 40
25.4
  9
$DIMLFAC
 40
1.0
  9
$DIMTOFL
 70
     1
  9
$DIMTVP
 40
1.6
  9
$DIMTIX
 70
     1
  9
$DIMSOXD
 70
     0
  9
$DIMSAH
 70
     0
  9
$DIMBLK1
  1

  9
$DIMBLK2
  1

  9
$DIMSTYLE
  2
STANDARD
  9
$DIMCLRD
 70
     0
  9
$DIMCLRE
 70
     0
  9
$DIMCLRT
 70
     0
  9
$DIMTFAC
 40
1.0
  9
$DIMGAP
 40
0.09
  9
$DIMJUST
 70
     0
  9
$DIMSD1
 70
     0
  9
$DIMSD2
 70
     0
  9
$DIMTOLJ
 70
     1
  9
$DIMTZIN
 70
     0
  9
$DIMALTZ
 70
     0
  9
$DIMALTTZ
 70
     0
  9
$DIMFIT
 70
     5
  9
$DIMUPT
 70
     0
  9
$DIMUNIT
 70
     2
  9
$DIMDEC
 70
     4
  9
$DIMTDEC
 70
     4
  9
$DIMALTU
 70
     2
  9
$DIMALTTD
 70
     2
  9
$DIMTXSTY
  7
BIGFONT
  9
$DIMAUNIT
 70
     0
  9
$LUNITS
 70
     2
  9
$LUPREC
 70
     4
  9
$SKETCHINC
 40
0.1
  9
$FILLETRAD
 40
0.0
  9
$AUNITS
 70
     0
  9
$AUPREC
 70
     4
  9
$MENU
  1
ACAD
  9
$ELEVATION
 40
0.0
  9
$PELEVATION
 40
0.0
  9
$THICKNESS
 40
0.0
  9
$LIMCHECK
 70
     0
  9
$BLIPMODE
 70
     0
  9
$CHAMFERA
 40
0.0
  9
$CHAMFERB
 40
0.0
  9
$CHAMFERC
 40
0.0
  9
$CHAMFERD
 40
0.0
  9
$SKPOLY
 70
     0
  9
$TDCREATE
 40
2450683.472280092
  9
$TDUPDATE
 40
2453551.767832754
  9
$TDINDWG
 40
0.0019310648
  9
$TDUSRTIMER
 40
0.0019310648
  9
$USRTIMER
 70
     1
  9
$ANGBASE
 50
0.0
  9
$ANGDIR
 70
     0
  9
$PDMODE
 70
     0
  9
$PDSIZE
 40
0.0
  9
$PLINEWID
 40
0.0
  9
$COORDS
 70
     2
  9
$SPLFRAME
 70
     0
  9
$SPLINETYPE
 70
     6
  9
$SPLINESEGS
 70
     8
  9
$ATTDIA
 70
     0
  9
$ATTREQ
 70
     1
  9
$HANDLING
 70
     1
  9
$HANDSEED
  5
F8
  9
$SURFTAB1
 70
     6
  9
$SURFTAB2
 70
     6
  9
$SURFTYPE
 70
     6
  9
$SURFU
 70
     6
  9
$SURFV
 70
     6
  9
$UCSNAME
  2

  9
$UCSORG
 10
0.0
 20
0.0
 30
0.0
  9
$UCSXDIR
 10
1.0
 20
0.0
 30
0.0
  9
$UCSYDIR
 10
0.0
 20
1.0
 30
0.0
  9
$PUCSNAME
  2

  9
$PUCSORG
 10
0.0
 20
0.0
 30
0.0
  9
$PUCSXDIR
 10
1.0
 20
0.0
 30
0.0
  9
$PUCSYDIR
 10
0.0
 20
1.0
 30
0.0
  9
$USERI1
 70
     0
  9
$USERI2
 70
     0
  9
$USERI3
 70
     0
  9
$USERI4
 70
     0
  9
$USERI5
 70
     0
  9
$USERR1
 40
0.0
  9
$USERR2
 40
0.0
  9
$USERR3
 40
0.0
  9
$USERR4
 40
0.0
  9
$USERR5
 40
0.0
  9
$WORLDVIEW
 70
     1
  9
$SHADEDGE
 70
     3
  9
$SHADEDIF
 70
    70
  9
$TILEMODE
 70
     1
  9
$MAXACTVP
 70
    16
  9
$PINSBASE
 10
0.0
 20
0.0
 30
0.0
  9
$PLIMCHECK
 70
     0
  9
$PEXTMIN
 10
1.000000E+20
 20
1.000000E+20
 30
1.000000E+20
  9
$PEXTMAX
 10
-1.000000E+20
 20
-1.000000E+20
 30
-1.000000E+20
  9
$PLIMMIN
 10
0.0
 20
0.0
  9
$PLIMMAX
 10
12.0
 20
9.0
  9
$UNITMODE
 70
     0
  9
$VISRETAIN
 70
     0
  9
$PLINEGEN
 70
   144
  9
$PSLTSCALE
 70
     0
  9
$TREEDEPTH
 70
  3020
  9
$PICKSTYLE
 70
     1
  9
$CMLSTYLE
  2
STANDARD
  9
$CMLJUST
 70
     0
  9
$CMLSCALE
 40
1.0
  9
$PROXYGRAPHICS
 70
     1
  9
$MEASUREMENT
 70
     0
  0
ENDSEC
  0
SECTION
  2
CLASSES
  0
ENDSEC
  0
SECTION
  2
TABLES
  0
TABLE
  2
VPORT
  5
BF
100
AcDbSymbolTable
 70
     3
  0
VPORT
  5
F7
100
AcDbSymbolTableRecord
100
AcDbViewportTableRecord
  2
*ACTIVE
 70
     0
 10
0.0
 20
0.0
 11
1.0
 21
1.0
 12
229.111675
 22
159.665908
 13
0.0
 23
0.0
 14
10.0
 24
10.0
 15
10.0
 25
10.0
 16
0.0
 26
0.0
 36
1.0
 17
0.0
 27
0.0
 37
0.0
 40
638.663633
 41
1.434944
 42
50.0
 43
0.0
 44
0.0
 50
0.0
 51
0.0
 71
     0
 72
   500
 73
     1
 74
     1
 75
     0
 76
     0
 77
     0
 78
     2
  0
ENDTAB
  0
TABLE
  2
LTYPE
  5
BC
100
AcDbSymbolTable
 70
     3
  0
LTYPE
  5
C8
100
AcDbSymbolTableRecord
100
AcDbLinetypeTableRecord
  2
BYBLOCK
 70
     0
  3

 72
    65
 73
     0
 40
0.0
  0
LTYPE
  5
C9
100
AcDbSymbolTableRecord
100
AcDbLinetypeTableRecord
  2
BYLAYER
 70
     0
  3

 72
    65
 73
     0
 40
0.0
  0
LTYPE
  5
CA
100
AcDbSymbolTableRecord
100
AcDbLinetypeTableRecord
  2
CONTINUOUS
 70
     0
  3
実線
 72
    65
 73
     0
 40
0.0
  0
LTYPE
  5
D6
100
AcDbSymbolTableRecord
100
AcDbLinetypeTableRecord
  2
CENTER
 70
     0
  3
____ _ ____ _ ____ _ ____ _ ____ _ ____ _ ____
 72
    65
 73
     4
 40
2.0
 49
1.25
 74
     0
 49
-0.25
 74
     0
 49
0.25
 74
     0
 49
-0.25
 74
     0
  0
LTYPE
  5
D7
100
AcDbSymbolTableRecord
100
AcDbLinetypeTableRecord
  2
HIDDEN
 70
     0
  3
_ _ _ _ _ _ _ _ _ _ _ _ _ _ _ _ _ _ _ _ _ _ _
 72
    65
 73
     2
 40
0.375
 49
0.25
 74
     0
 49
-0.125
 74
     0
  0
ENDTAB
  0
TABLE
  2
LAYER
  5
B9
100
AcDbSymbolTable
 70
     6
  0
LAYER
  5
C5
100
AcDbSymbolTableRecord
100
AcDbLayerTableRecord
  2
0
 70
     0
 62
     7
  6
CONTINUOUS
  0
LAYER
  5
DC
100
AcDbSymbolTableRecord
100
AcDbLayerTableRecord
  2
1
 70
     0
 62
     1
  6
CENTER
  0
LAYER
  5
DD
100
AcDbSymbolTableRecord
100
AcDbLayerTableRecord
  2
2
 70
     0
 62
     2
  6
HIDDEN
  0
LAYER
  5
DE
100
AcDbSymbolTableRecord
100
AcDbLayerTableRecord
  2
3
 70
     0
 62
     3
  6
CONTINUOUS
  0
LAYER
  5
DF
100
AcDbSymbolTableRecord
100
AcDbLayerTableRecord
  2
10
 70
     0
 62
     7
  6
CONTINUOUS
  0
LAYER
  5
E0
100
AcDbSymbolTableRecord
100
AcDbLayerTableRecord
  2
11
 70
     0
 62
     3
  6
CONTINUOUS
  0
ENDTAB
  0
TABLE
  2
STYLE
  5
BA
100
AcDbSymbolTable
 70
     3
  0
STYLE
  5
C6
100
AcDbSymbolTableRecord
100
AcDbTextStyleTableRecord
  2
STANDARD
 70
     0
 40
0.0
 41
1.0
 50
0.0
 71
     0
 42
0.2
  3
TXT
  4
BIGFONT
  0
STYLE
  5
D4
100
AcDbSymbolTableRecord
100
AcDbTextStyleTableRecord
  2
07500
 70
     0
 40
0.0
 41
0.75
 50
0.0
 71
     0
 42
0.2
  3
TXT
  4
BIGFONT
  0
STYLE
  5
D5
100
AcDbSymbolTableRecord
100
AcDbTextStyleTableRecord
  2
BIGFONT
 70
     0
 40
5.0
 41
1.0
 50
0.0
 71
     0
 42
5.0
  3

  4
bigfont
  0
ENDTAB
  0
TABLE
  2
VIEW
  5
BD
100
AcDbSymbolTable
 70
     1
  0
VIEW
  5
D8
100
AcDbSymbolTableRecord
100
AcDbViewTableRecord
  2
ALL
 70
     0
 40
270.0
 10
220.991597
 20
135.0
 41
0.0
 11
0.0
 21
0.0
 31
1.0
 12
0.0
 22
0.0
 32
0.0
 42
0.0
 43
0.0
 44
0.0
 50
0.0
 71
     0
  0
ENDTAB
  0
TABLE
  2
UCS
  5
BE
100
AcDbSymbolTable
 70
     0
  0
ENDTAB
  0
TABLE
  2
APPID
  5
C0
100
AcDbSymbolTable
 70
     1
  0
APPID
  5
C7
100
AcDbSymbolTableRecord
100
AcDbRegAppTableRecord
  2
ACAD
 70
     0
  0
ENDTAB
  0
TABLE
  2
DIMSTYLE
  5
C1
100
AcDbSymbolTable
 70
     1
  0
DIMSTYLE
105
DB
100
AcDbSymbolTableRecord
100
AcDbDimStyleTableRecord
  2
STANDARD
 70
     0
  3

  4

  5

  6

  7

 40
1.0
 41
0.18
 42
0.0625
 43
0.38
 44
0.18
 45
0.0
 46
0.0
 47
0.0
 48
0.0
140
0.18
141
0.09
142
0.0
143
25.4
144
1.0
145
0.0
146
1.0
147
0.09
 71
     0
 72
     0
 73
     1
 74
     1
 75
     0
 76
     0
 77
     0
 78
     0
170
     0
171
     2
172
     0
173
     0
174
     0
175
     0
176
     0
177
     0
178
     0
270
     2
271
     4
272
     4
273
     2
274
     2
340
D5
275
     0
280
     0
281
     0
282
     0
283
     1
284
     0
285
     0
286
     0
287
     5
288
     0
  0
ENDTAB
  0
TABLE
  2
BLOCK_RECORD
  5
B8
100
AcDbSymbolTable
 70
     1
  0
BLOCK_RECORD
  5
CE
100
AcDbSymbolTableRecord
100
AcDbBlockTableRecord
  2
*MODEL_SPACE
  0
BLOCK_RECORD
  5
CB
100
AcDbSymbolTableRecord
100
AcDbBlockTableRecord
  2
*PAPER_SPACE
  0
BLOCK_RECORD
  5
D3
100
AcDbSymbolTableRecord
100
AcDbBlockTableRecord
  2
QQ
  0
ENDTAB
  0
ENDSEC
  0
SECTION
  2
BLOCKS
  0
BLOCK
  5
E3
100
AcDbEntity
  8
0
100
AcDbBlockBegin
  2
*MODEL_SPACE
 70
     0
 10
0.0
 20
0.0
 30
0.0
  3
*MODEL_SPACE
  1

  0
ENDBLK
  5
E4
100
AcDbEntity
  8
0
100
AcDbBlockEnd
  0
BLOCK
  5
E1
100
AcDbEntity
 67
     1
  8
0
100
AcDbBlockBegin
  2
*PAPER_SPACE
 70
     0
 10
0.0
 20
0.0
 30
0.0
  3
*PAPER_SPACE
  1

  0
ENDBLK
  5
E2
100
AcDbEntity
 67
     1
  8
0
100
AcDbBlockEnd
  0
BLOCK
  5
2D
100
AcDbEntity
  8
0
100
AcDbBlockBegin
  2
QQ
 70
     0
 10
270.0
 20
0.0
 30
0.0
  3
QQ
  1

  0
LINE
  5
2E
100
AcDbEntity
  8
11
100
AcDbLine
 10
173.0
 20
36.0
 30
0.0
 11
270.0
 21
36.0
 31
0.0
  0
TEXT
  5
2F
100
AcDbEntity
  8
11
100
AcDbText
 10
175.0
 20
32.5
 30
0.0
 40
2.5
  1
部品名称
100
AcDbText
  0
LINE
  5
30
100
AcDbEntity
  8
11
100
AcDbLine
 10
173.0
 20
36.0
 30
0.0
 11
173.0
 21
0.0
 31
0.0
  0
LINE
  5
31
100
AcDbEntity
  8
11
100
AcDbLine
 10
173.0
 20
24.0
 30
0.0
 11
270.0
 21
24.0
 31
0.0
  0
TEXT
  5
32
100
AcDbEntity
  8
11
100
AcDbText
 10
175.0
 20
20.5
 30
0.0
 40
2.5
  1
品番
100
AcDbText
  0
LINE
  5
33
100
AcDbEntity
  8
11
100
AcDbLine
 10
173.0
 20
12.0
 30
0.0
 11
270.0
 21
12.0
 31
0.0
  0
TEXT
  5
34
100
AcDbEntity
  8
11
100
AcDbText
 10
175.0
 20
8.5
 30
0.0
 40
2.5
  1
尺度
100
AcDbText
  0
TEXT
  5
35
100
AcDbEntity
  8
11
100
AcDbText
 10
200.0
 20
8.5
 30
0.0
 40
2.5
  1
図番
100
AcDbText
  0
LINE
  5
36
100
AcDbEntity
  8
11
100
AcDbLine
 10
198.0
 20
0.0
 30
0.0
 11
198.0
 21
12.0
 31
0.0
  0
ENDBLK
  5
37
100
AcDbEntity
  8
0
100
AcDbBlockEnd
  0
ENDSEC
  0
SECTION
  2
ENTITIES
  0
ARC
  5
4A
100
AcDbEntity
  8
0
100
AcDbCircle
 10
60.0
 20
111.0
 30
0.0
 40
16.0
100
AcDbArc
 50
316.567463
 51
43.432537
  0
ARC
  5
4B
100
AcDbEntity
  8
0
100
AcDbCircle
 10
60.0
 20
111.0
 30
0.0
 40
16.0
100
AcDbArc
 50
136.567463
 51
223.432537
  0
LINE
  5
4C
100
AcDbEntity
  8
0
100
AcDbLine
 10
71.61895
 20
100.0
 30
0.0
 11
48.38105
 21
100.0
 31
0.0
  0
LINE
  5
4E
100
AcDbEntity
  8
1
100
AcDbLine
 10
39.0
 20
111.0
 30
0.0
 11
81.0
 21
111.0
 31
0.0
  0
LINE
  5
4F
100
AcDbEntity
  8
0
100
AcDbLine
 10
66.529931
 20
117.9
 30
0.0
 11
53.470069
 21
117.9
 31
0.0
  0
LINE
  5
58
100
AcDbEntity
  8
1
100
AcDbLine
 10
60.0
 20
186.9
 30
0.0
 11
60.0
 21
95.0
 31
0.0
  0
ARC
  5
59
100
AcDbEntity
  8
0
100
AcDbCircle
 10
60.0
 20
111.0
 30
0.0
 40
9.5
100
AcDbArc
 50
133.421584
 51
46.578416
  0
CIRCLE
  5
5A
100
AcDbEntity
  8
0
100
AcDbCircle
 10
240.0
 20
46.124689
 30
0.0
 40
3.3235
  0
CIRCLE
  5
5B
100
AcDbEntity
  8
3
100
AcDbCircle
 10
240.0
 20
46.124689
 30
0.0
 40
4.0
  0
CIRCLE
  5
5C
100
AcDbEntity
  8
0
100
AcDbCircle
 10
140.0
 20
46.124689
 30
0.0
 40
3.3235
  0
CIRCLE
  5
5D
100
AcDbEntity
  8
3
100
AcDbCircle
 10
140.0
 20
46.124689
 30
0.0
 40
4.0
  0
LINE
  5
5F
100
AcDbEntity
  8
0
100
AcDbLine
 10
232.254033
 20
51.624689
 30
0.0
 11
232.254033
 21
40.624689
 31
0.0
  0
ARC
  5
60
100
AcDbEntity
  8
0
100
AcDbCircle
 10
240.0
 20
46.124689
 30
0.0
 40
9.5
100
AcDbArc
 50
215.37654
 51
144.62346
  0
ARC
  5
61
100
AcDbEntity
  8
0
100
AcDbCircle
 10
190.0
 20
46.124689
 30
0.0
 40
16.0
100
AcDbArc
 50
23.969482
 51
156.030518
  0
ARC
  5
62
100
AcDbEntity
  8
0
100
AcDbCircle
 10
190.0
 20
46.124689
 30
0.0
 40
16.0
100
AcDbArc
 50
203.969482
 51
336.030518
  0
ARC
  5
63
100
AcDbEntity
  8
0
100
AcDbCircle
 10
140.0
 20
46.124689
 30
0.0
 40
9.5
100
AcDbArc
 50
35.37654
 51
324.62346
  0
LINE
  5
64
100
AcDbEntity
  8
0
100
AcDbLine
 10
204.620192
 20
52.624689
 30
0.0
 11
204.620192
 21
39.624689
 31
0.0
  0
LINE
  5
65
100
AcDbEntity
  8
0
100
AcDbLine
 10
175.379808
 20
52.624689
 30
0.0
 11
175.379808
 21
39.624689
 31
0.0
  0
LINE
  5
66
100
AcDbEntity
  8
0
100
AcDbLine
 10
147.745967
 20
51.624689
 30
0.0
 11
147.745967
 21
40.624689
 31
0.0
  0
LINE
  5
67
100
AcDbEntity
  8
0
100
AcDbLine
 10
175.379808
 20
39.624689
 30
0.0
 11
147.745967
 21
40.624689
 31
0.0
  0
LINE
  5
68
100
AcDbEntity
  8
0
100
AcDbLine
 10
204.620192
 20
39.624689
 30
0.0
 11
232.254033
 21
40.624689
 31
0.0
  0
LINE
  5
69
100
AcDbEntity
  8
0
100
AcDbLine
 10
204.620192
 20
52.624689
 30
0.0
 11
232.254033
 21
51.624689
 31
0.0
  0
LINE
  5
6A
100
AcDbEntity
  8
0
100
AcDbLine
 10
175.379808
 20
52.624689
 30
0.0
 11
147.745967
 21
51.624689
 31
0.0
  0
LINE
  5
6B
100
AcDbEntity
  8
1
100
AcDbLine
 10
240.0
 20
60.624689
 30
0.0
 11
240.0
 21
31.624689
 31
0.0
  0
LINE
  5
6C
100
AcDbEntity
  8
1
100
AcDbLine
 10
190.0
 20
67.124689
 30
0.0
 11
190.0
 21
25.124689
 31
0.0
  0
LINE
  5
6D
100
AcDbEntity
  8
1
100
AcDbLine
 10
125.5
 20
46.124689
 30
0.0
 11
254.5
 21
46.124689
 31
0.0
  0
LINE
  5
6E
100
AcDbEntity
  8
1
100
AcDbLine
 10
140.0
 20
60.624689
 30
0.0
 11
140.0
 21
31.624689
 31
0.0
  0
CIRCLE
  5
6F
100
AcDbEntity
  8
0
100
AcDbCircle
 10
190.0
 20
46.124689
 30
0.0
 40
5.0
  0
CIRCLE
  5
70
100
AcDbEntity
  8
0
100
AcDbCircle
 10
190.0
 20
46.124689
 30
0.0
 40
11.61895
  0
ARC
  5
72
100
AcDbEntity
  8
0
100
AcDbCircle
 10
140.0
 20
111.0
 30
0.0
 40
9.5
100
AcDbArc
 50
133.421584
 51
324.62346
  0
ARC
  5
73
100
AcDbEntity
  8
0
100
AcDbCircle
 10
140.0
 20
111.0
 30
0.0
 40
9.5
100
AcDbArc
 50
35.37654
 51
46.578416
  0
LINE
  5
74
100
AcDbEntity
  8
0
100
AcDbLine
 10
147.745967
 20
116.5
 30
0.0
 11
147.745967
 21
105.5
 31
0.0
  0
LINE
  5
75
100
AcDbEntity
  8
1
100
AcDbLine
 10
140.0
 20
186.9
 30
0.0
 11
140.0
 21
96.5
 31
0.0
  0
LINE
  5
7E
100
AcDbEntity
  8
0
100
AcDbLine
 10
146.529931
 20
117.9
 30
0.0
 11
133.470069
 21
117.9
 31
0.0
  0
LINE
  5
7F
100
AcDbEntity
  8
0
100
AcDbLine
 10
233.470069
 20
117.9
 30
0.0
 11
246.529931
 21
117.9
 31
0.0
  0
ARC
  5
81
100
AcDbEntity
  8
0
100
AcDbCircle
 10
190.0
 20
111.0
 30
0.0
 40
16.0
100
AcDbArc
 50
23.969482
 51
43.432537
  0
LINE
  5
82
100
AcDbEntity
  8
0
100
AcDbLine
 10
178.38105
 20
122.0
 30
0.0
 11
201.61895
 21
122.0
 31
0.0
  0
ARC
  5
83
100
AcDbEntity
  8
0
100
AcDbCircle
 10
190.0
 20
111.0
 30
0.0
 40
16.0
100
AcDbArc
 50
136.567463
 51
156.030518
  0
LINE
  5
84
100
AcDbEntity
  8
2
100
AcDbLine
 10
195.0
 20
122.0
 30
0.0
 11
195.0
 21
100.0
 31
0.0
  0
LINE
  5
85
100
AcDbEntity
  8
2
100
AcDbLine
 10
185.0
 20
100.0
 30
0.0
 11
185.0
 21
122.0
 31
0.0
  0
ARC
  5
86
100
AcDbEntity
  8
0
100
AcDbCircle
 10
190.0
 20
111.0
 30
0.0
 40
16.0
100
AcDbArc
 50
316.567463
 51
336.030518
  0
LINE
  5
88
100
AcDbEntity
  8
0
100
AcDbLine
 10
178.38105
 20
100.0
 30
0.0
 11
201.61895
 21
100.0
 31
0.0
  0
ARC
  5
96
100
AcDbEntity
  8
0
100
AcDbCircle
 10
190.0
 20
111.0
 30
0.0
 40
16.0
100
AcDbArc
 50
203.969482
 51
223.432537
  0
LINE
  5
97
100
AcDbEntity
  8
0
100
AcDbLine
 10
204.620192
 20
117.5
 30
0.0
 11
204.620192
 21
104.5
 31
0.0
  0
LINE
  5
98
100
AcDbEntity
  8
0
100
AcDbLine
 10
175.379808
 20
117.5
 30
0.0
 11
175.379808
 21
104.5
 31
0.0
  0
LINE
  5
99
100
AcDbEntity
  8
0
100
AcDbLine
 10
175.379808
 20
104.5
 30
0.0
 11
147.745967
 21
105.5
 31
0.0
  0
LINE
  5
9A
100
AcDbEntity
  8
0
100
AcDbLine
 10
204.620192
 20
104.5
 30
0.0
 11
232.254033
 21
105.5
 31
0.0
  0
LINE
  5
9B
100
AcDbEntity
  8
0
100
AcDbLine
 10
204.620192
 20
117.5
 30
0.0
 11
232.254033
 21
116.5
 31
0.0
  0
LINE
  5
9C
100
AcDbEntity
  8
0
100
AcDbLine
 10
175.379808
 20
117.5
 30
0.0
 11
147.745967
 21
116.5
 31
0.0
  0
LINE
  5
9D
100
AcDbEntity
  8
1
100
AcDbLine
 10
190.0
 20
127.0
 30
0.0
 11
190.0
 21
95.0
 31
0.0
  0
LINE
  5
9E
100
AcDbEntity
  8
1
100
AcDbLine
 10
125.5
 20
111.0
 30
0.0
 11
254.5
 21
111.0
 31
0.0
  0
LINE
  5
A7
100
AcDbEntity
  8
1
100
AcDbLine
 10
240.0
 20
186.9
 30
0.0
 11
240.0
 21
96.5
 31
0.0
  0
LINE
  5
A8
100
AcDbEntity
  8
0
100
AcDbLine
 10
232.254033
 20
116.5
 30
0.0
 11
232.254033
 21
105.5
 31
0.0
  0
ARC
  5
A9
100
AcDbEntity
  8
0
100
AcDbCircle
 10
240.0
 20
111.0
 30
0.0
 40
9.5
100
AcDbArc
 50
133.421584
 51
144.62346
  0
ARC
  5
AA
100
AcDbEntity
  8
0
100
AcDbCircle
 10
240.0
 20
111.0
 30
0.0
 40
9.5
100
AcDbArc
 50
215.37654
 51
46.578416
  0
LINE
  5
E9
100
AcDbEntity
  8
2
100
AcDbLine
 10
144.0
 20
102.383156
 30
0.0
 11
144.0
 21
117.9
 31
0.0
  0
LINE
  5
EB
100
AcDbEntity
  8
2
100
AcDbLine
 10
143.3
 20
117.9
 30
0.0
 11
143.3
 21
102.091577
 31
0.0
  0
LINE
  5
EC
100
AcDbEntity
  8
2
100
AcDbLine
 10
136.7
 20
117.9
 30
0.0
 11
136.7
 21
102.091577
 31
0.0
  0
LINE
  5
ED
100
AcDbEntity
  8
2
100
AcDbLine
 10
136.0
 20
102.383156
 30
0.0
 11
136.0
 21
117.9
 31
0.0
  0
LINE
  5
EE
100
AcDbEntity
  8
2
100
AcDbLine
 10
236.7
 20
117.9
 30
0.0
 11
236.7
 21
102.091577
 31
0.0
  0
LINE
  5
EF
100
AcDbEntity
  8
2
100
AcDbLine
 10
236.0
 20
102.383156
 30
0.0
 11
236.0
 21
117.9
 31
0.0
  0
LINE
  5
F0
100
AcDbEntity
  8
2
100
AcDbLine
 10
244.0
 20
102.383156
 30
0.0
 11
244.0
 21
117.9
 31
0.0
  0
LINE
  5
F1
100
AcDbEntity
  8
2
100
AcDbLine
 10
243.3
 20
117.9
 30
0.0
 11
243.3
 21
102.091577
 31
0.0
  0
LINE
  5
F2
100
AcDbEntity
  8
2
100
AcDbLine
 10
63.3
 20
117.9
 30
0.0
 11
63.3
 21
102.091577
 31
0.0
  0
LINE
  5
F3
100
AcDbEntity
  8
2
100
AcDbLine
 10
64.0
 20
102.383156
 30
0.0
 11
64.0
 21
117.9
 31
0.0
  0
LINE
  5
F4
100
AcDbEntity
  8
2
100
AcDbLine
 10
56.0
 20
102.383156
 30
0.0
 11
56.0
 21
117.9
 31
0.0
  0
LINE
  5
F5
100
AcDbEntity
  8
2
100
AcDbLine
 10
56.7
 20
117.9
 30
0.0
 11
56.7
 21
102.091577
 31
0.0
  0
LINE
  5
F6
100
AcDbEntity
  8
0
100
AcDbLine
 10
48.38105
 20
122.0
 30
0.0
 11
71.61895
 21
122.0
 31
0.0
  0
ENDSEC
  0
SECTION
  2
OBJECTS
  0
DICTIONARY
  5
C3
100
AcDbDictionary
  3
ACAD_GROUP
350
C4
  3
ACAD_MLINESTYLE
350
D1
  0
DICTIONARY
  5
C4
102
{ACAD_REACTORS
330
C3
102
}
100
AcDbDictionary
  0
DICTIONARY
  5
D1
102
{ACAD_REACTORS
330
C3
102
}
100
AcDbDictionary
  3
STANDARD
350
D2
  0
MLINESTYLE
  5
D2
102
{ACAD_REACTORS
330
D1
102
}
100
AcDbMlineStyle
  2
STANDARD
 70
     0
  3

 62
   256
 51
90.0
 52
90.0
 71
     2
 49
0.5
 62
   256
  6
BYLAYER
 49
-0.5
 62
   256
  6
BYLAYER
  0
ENDSEC
  0
EOF
