  0
SECTION
  2
HEADER
  9
$ACADVER
  1
AC1014
  9
$ACADMAINTVER
 70
     0
  9
$DWGCODEPAGE
  3
ANSI_932
  9
$INSBASE
 10
0.0
 20
0.0
 30
0.0
  9
$EXTMIN
 10
0.0
 20
0.0
 30
0.0
  9
$EXTMAX
 10
375.0
 20
270.0
 30
0.0
  9
$LIMMIN
 10
0.0
 20
0.0
  9
$LIMMAX
 10
375.0
 20
270.0
  9
$ORTHOMODE
 70
     1
  9
$REGENMODE
 70
     1
  9
$FILLMODE
 70
     1
  9
$QTEXTMODE
 70
     0
  9
$MIRRTEXT
 70
     1
  9
$DRAGMODE
 70
     1
  9
$LTSCALE
 40
10.0
  9
$OSMODE
 70
    33
  9
$ATTMODE
 70
     1
  9
$TEXTSIZE
 40
6.0
  9
$TRACEWID
 40
0.05
  9
$TEXTSTYLE
  7
BIGFONT
  9
$CLAYER
  8
2
  9
$CELTYPE
  6
BYLAYER
  9
$CECOLOR
 62
   256
  9
$CELTSCALE
 40
1.0
  9
$DELOBJ
 70
     1
  9
$DISPSILH
 70
     0
  9
$DIMSCALE
 40
1.0
  9
$DIMASZ
 40
3.0
  9
$DIMEXO
 40
2.0
  9
$DIMDLI
 40
0.38
  9
$DIMRND
 40
0.0
  9
$DIMDLE
 40
0.0
  9
$DIMEXE
 40
2.0
  9
$DIMTP
 40
0.0
  9
$DIMTM
 40
0.0
  9
$DIMTXT
 40
3.2
  9
$DIMCEN
 40
0.0
  9
$DIMTSZ
 40
0.0
  9
$DIMTOL
 70
     0
  9
$DIMLIM
 70
     0
  9
$DIMTIH
 70
     0
  9
$DIMTOH
 70
     0
  9
$DIMSE1
 70
     0
  9
$DIMSE2
 70
     0
  9
$DIMTAD
 70
     1
  9
$DIMZIN
 70
     0
  9
$DIMBLK
  1

  9
$DIMASO
 70
     0
  9
$DIMSHO
 70
     0
  9
$DIMPOST
  1

  9
$DIMAPOST
  1

  9
$DIMALT
 70
     0
  9
$DIMALTD
 70
     2
  9
$DIMALTF
 40
25.4
  9
$DIMLFAC
 40
1.0
  9
$DIMTOFL
 70
     1
  9
$DIMTVP
 40
1.6
  9
$DIMTIX
 70
     1
  9
$DIMSOXD
 70
     0
  9
$DIMSAH
 70
     0
  9
$DIMBLK1
  1

  9
$DIMBLK2
  1

  9
$DIMSTYLE
  2
STANDARD
  9
$DIMCLRD
 70
     0
  9
$DIMCLRE
 70
     0
  9
$DIMCLRT
 70
     0
  9
$DIMTFAC
 40
1.0
  9
$DIMGAP
 40
0.09
  9
$DIMJUST
 70
     0
  9
$DIMSD1
 70
     0
  9
$DIMSD2
 70
     0
  9
$DIMTOLJ
 70
     1
  9
$DIMTZIN
 70
     0
  9
$DIMALTZ
 70
     0
  9
$DIMALTTZ
 70
     0
  9
$DIMFIT
 70
     5
  9
$DIMUPT
 70
     0
  9
$DIMUNIT
 70
     2
  9
$DIMDEC
 70
     4
  9
$DIMTDEC
 70
     4
  9
$DIMALTU
 70
     2
  9
$DIMALTTD
 70
     2
  9
$DIMTXSTY
  7
BIGFONT
  9
$DIMAUNIT
 70
     0
  9
$LUNITS
 70
     2
  9
$LUPREC
 70
     4
  9
$SKETCHINC
 40
0.1
  9
$FILLETRAD
 40
0.0
  9
$AUNITS
 70
     0
  9
$AUPREC
 70
     4
  9
$MENU
  1
ACAD
  9
$ELEVATION
 40
0.0
  9
$PELEVATION
 40
0.0
  9
$THICKNESS
 40
0.0
  9
$LIMCHECK
 70
     0
  9
$BLIPMODE
 70
     0
  9
$CHAMFERA
 40
0.0
  9
$CHAMFERB
 40
0.0
  9
$CHAMFERC
 40
0.0
  9
$CHAMFERD
 40
0.0
  9
$SKPOLY
 70
     0
  9
$TDCREATE
 40
2450683.471990741
  9
$TDUPDATE
 40
2453551.764010231
  9
$TDINDWG
 40
0.0239234722
  9
$TDUSRTIMER
 40
0.0239234722
  9
$USRTIMER
 70
     1
  9
$ANGBASE
 50
0.0
  9
$ANGDIR
 70
     0
  9
$PDMODE
 70
     0
  9
$PDSIZE
 40
0.0
  9
$PLINEWID
 40
0.0
  9
$COORDS
 70
     2
  9
$SPLFRAME
 70
     0
  9
$SPLINETYPE
 70
     6
  9
$SPLINESEGS
 70
     8
  9
$ATTDIA
 70
     0
  9
$ATTREQ
 70
     1
  9
$HANDLING
 70
     1
  9
$HANDSEED
  5
1D5
  9
$SURFTAB1
 70
     6
  9
$SURFTAB2
 70
     6
  9
$SURFTYPE
 70
     6
  9
$SURFU
 70
     6
  9
$SURFV
 70
     6
  9
$UCSNAME
  2

  9
$UCSORG
 10
0.0
 20
0.0
 30
0.0
  9
$UCSXDIR
 10
1.0
 20
0.0
 30
0.0
  9
$UCSYDIR
 10
0.0
 20
1.0
 30
0.0
  9
$PUCSNAME
  2

  9
$PUCSORG
 10
0.0
 20
0.0
 30
0.0
  9
$PUCSXDIR
 10
1.0
 20
0.0
 30
0.0
  9
$PUCSYDIR
 10
0.0
 20
1.0
 30
0.0
  9
$USERI1
 70
     0
  9
$USERI2
 70
     0
  9
$USERI3
 70
     0
  9
$USERI4
 70
     0
  9
$USERI5
 70
     0
  9
$USERR1
 40
0.0
  9
$USERR2
 40
0.0
  9
$USERR3
 40
0.0
  9
$USERR4
 40
0.0
  9
$USERR5
 40
0.0
  9
$WORLDVIEW
 70
     1
  9
$SHADEDGE
 70
     3
  9
$SHADEDIF
 70
    70
  9
$TILEMODE
 70
     1
  9
$MAXACTVP
 70
    16
  9
$PINSBASE
 10
0.0
 20
0.0
 30
0.0
  9
$PLIMCHECK
 70
     0
  9
$PEXTMIN
 10
1.000000E+20
 20
1.000000E+20
 30
1.000000E+20
  9
$PEXTMAX
 10
-1.000000E+20
 20
-1.000000E+20
 30
-1.000000E+20
  9
$PLIMMIN
 10
0.0
 20
0.0
  9
$PLIMMAX
 10
12.0
 20
9.0
  9
$UNITMODE
 70
     0
  9
$VISRETAIN
 70
     0
  9
$PLINEGEN
 70
     1
  9
$PSLTSCALE
 70
     0
  9
$TREEDEPTH
 70
  3020
  9
$PICKSTYLE
 70
     1
  9
$CMLSTYLE
  2
STANDARD
  9
$CMLJUST
 70
     0
  9
$CMLSCALE
 40
1.0
  9
$PROXYGRAPHICS
 70
     1
  9
$MEASUREMENT
 70
     0
  0
ENDSEC
  0
SECTION
  2
CLASSES
  0
ENDSEC
  0
SECTION
  2
TABLES
  0
TABLE
  2
VPORT
  5
C2
100
AcDbSymbolTable
 70
     2
  0
VPORT
  5
1D4
100
AcDbSymbolTableRecord
100
AcDbViewportTableRecord
  2
*ACTIVE
 70
     0
 10
0.0
 20
0.0
 11
1.0
 21
1.0
 12
246.901941
 22
172.063788
 13
0.0
 23
0.0
 14
10.0
 24
10.0
 15
10.0
 25
10.0
 16
0.0
 26
0.0
 36
1.0
 17
0.0
 27
0.0
 37
0.0
 40
688.255153
 41
1.434944
 42
50.0
 43
0.0
 44
0.0
 50
0.0
 51
0.0
 71
     0
 72
   500
 73
     1
 74
     1
 75
     0
 76
     0
 77
     0
 78
     2
  0
ENDTAB
  0
TABLE
  2
LTYPE
  5
BF
100
AcDbSymbolTable
 70
     4
  0
LTYPE
  5
CB
100
AcDbSymbolTableRecord
100
AcDbLinetypeTableRecord
  2
BYBLOCK
 70
     0
  3

 72
    65
 73
     0
 40
0.0
  0
LTYPE
  5
CC
100
AcDbSymbolTableRecord
100
AcDbLinetypeTableRecord
  2
BYLAYER
 70
     0
  3

 72
    65
 73
     0
 40
0.0
  0
LTYPE
  5
CD
100
AcDbSymbolTableRecord
100
AcDbLinetypeTableRecord
  2
CONTINUOUS
 70
     0
  3
実線
 72
    65
 73
     0
 40
0.0
  0
LTYPE
  5
D9
100
AcDbSymbolTableRecord
100
AcDbLinetypeTableRecord
  2
CENTER
 70
     0
  3
____ _ ____ _ ____ _ ____ _ ____ _ ____ _ ____
 72
    65
 73
     4
 40
2.0
 49
1.25
 74
     0
 49
-0.25
 74
     0
 49
0.25
 74
     0
 49
-0.25
 74
     0
  0
LTYPE
  5
DA
100
AcDbSymbolTableRecord
100
AcDbLinetypeTableRecord
  2
HIDDEN
 70
     0
  3
_ _ _ _ _ _ _ _ _ _ _ _ _ _ _ _ _ _ _ _ _ _ _
 72
    65
 73
     2
 40
0.375
 49
0.25
 74
     0
 49
-0.125
 74
     0
  0
LTYPE
  5
DB
100
AcDbSymbolTableRecord
100
AcDbLinetypeTableRecord
  2
PHANTOM
 70
     0
  3
_____ _ _ _____ _ _ _____ _ _ _____ _ _ ____
 72
    65
 73
     6
 40
2.5
 49
1.25
 74
     0
 49
-0.25
 74
     0
 49
0.25
 74
     0
 49
-0.25
 74
     0
 49
0.25
 74
     0
 49
-0.25
 74
     0
  0
ENDTAB
  0
TABLE
  2
LAYER
  5
BC
100
AcDbSymbolTable
 70
     6
  0
LAYER
  5
C8
100
AcDbSymbolTableRecord
100
AcDbLayerTableRecord
  2
0
 70
     0
 62
     7
  6
CONTINUOUS
  0
LAYER
  5
E0
100
AcDbSymbolTableRecord
100
AcDbLayerTableRecord
  2
1
 70
     0
 62
     1
  6
CENTER
  0
LAYER
  5
E1
100
AcDbSymbolTableRecord
100
AcDbLayerTableRecord
  2
2
 70
     0
 62
     2
  6
HIDDEN
  0
LAYER
  5
E2
100
AcDbSymbolTableRecord
100
AcDbLayerTableRecord
  2
3
 70
     0
 62
     3
  6
CONTINUOUS
  0
LAYER
  5
E3
100
AcDbSymbolTableRecord
100
AcDbLayerTableRecord
  2
10
 70
     0
 62
     7
  6
CONTINUOUS
  0
LAYER
  5
E4
100
AcDbSymbolTableRecord
100
AcDbLayerTableRecord
  2
11
 70
     0
 62
     3
  6
CONTINUOUS
  0
ENDTAB
  0
TABLE
  2
STYLE
  5
BD
100
AcDbSymbolTable
 70
     3
  0
STYLE
  5
C9
100
AcDbSymbolTableRecord
100
AcDbTextStyleTableRecord
  2
STANDARD
 70
     0
 40
0.0
 41
1.0
 50
0.0
 71
     0
 42
0.2
  3
TXT
  4
BIGFONT
  0
STYLE
  5
D7
100
AcDbSymbolTableRecord
100
AcDbTextStyleTableRecord
  2
07500
 70
     0
 40
0.0
 41
0.75
 50
0.0
 71
     0
 42
0.2
  3
TXT
  4
BIGFONT
  0
STYLE
  5
D8
100
AcDbSymbolTableRecord
100
AcDbTextStyleTableRecord
  2
BIGFONT
 70
     0
 40
6.0
 41
1.0
 50
0.0
 71
     0
 42
6.0
  3
txt.shx
  4
bigfont
  0
ENDTAB
  0
TABLE
  2
VIEW
  5
C0
100
AcDbSymbolTable
 70
     1
  0
VIEW
  5
DC
100
AcDbSymbolTableRecord
100
AcDbViewTableRecord
  2
ALL
 70
     0
 40
270.0
 10
220.991597
 20
135.0
 41
0.0
 11
0.0
 21
0.0
 31
1.0
 12
0.0
 22
0.0
 32
0.0
 42
0.0
 43
0.0
 44
0.0
 50
0.0
 71
     0
  0
ENDTAB
  0
TABLE
  2
UCS
  5
C1
100
AcDbSymbolTable
 70
     0
  0
ENDTAB
  0
TABLE
  2
APPID
  5
C3
100
AcDbSymbolTable
 70
     1
  0
APPID
  5
CA
100
AcDbSymbolTableRecord
100
AcDbRegAppTableRecord
  2
ACAD
 70
     0
  0
ENDTAB
  0
TABLE
  2
DIMSTYLE
  5
C4
100
AcDbSymbolTable
 70
     1
  0
DIMSTYLE
105
DF
100
AcDbSymbolTableRecord
100
AcDbDimStyleTableRecord
  2
STANDARD
 70
     0
  3

  4

  5

  6

  7

 40
1.0
 41
0.18
 42
0.0625
 43
0.38
 44
0.18
 45
0.0
 46
0.0
 47
0.0
 48
0.0
140
0.18
141
0.09
142
0.0
143
25.4
144
1.0
145
0.0
146
1.0
147
0.09
 71
     0
 72
     0
 73
     1
 74
     1
 75
     0
 76
     0
 77
     0
 78
     0
170
     0
171
     2
172
     0
173
     0
174
     0
175
     0
176
     0
177
     0
178
     0
270
     2
271
     4
272
     4
273
     2
274
     2
340
D8
275
     0
280
     0
281
     0
282
     0
283
     1
284
     0
285
     0
286
     0
287
     5
288
     0
  0
ENDTAB
  0
TABLE
  2
BLOCK_RECORD
  5
BB
100
AcDbSymbolTable
 70
     1
  0
BLOCK_RECORD
  5
D1
100
AcDbSymbolTableRecord
100
AcDbBlockTableRecord
  2
*MODEL_SPACE
  0
BLOCK_RECORD
  5
CE
100
AcDbSymbolTableRecord
100
AcDbBlockTableRecord
  2
*PAPER_SPACE
  0
BLOCK_RECORD
  5
D6
100
AcDbSymbolTableRecord
100
AcDbBlockTableRecord
  2
QQ
  0
ENDTAB
  0
ENDSEC
  0
SECTION
  2
BLOCKS
  0
BLOCK
  5
E7
100
AcDbEntity
  8
0
100
AcDbBlockBegin
  2
*MODEL_SPACE
 70
     0
 10
0.0
 20
0.0
 30
0.0
  3
*MODEL_SPACE
  1

  0
ENDBLK
  5
E8
100
AcDbEntity
  8
0
100
AcDbBlockEnd
  0
BLOCK
  5
E5
100
AcDbEntity
 67
     1
  8
0
100
AcDbBlockBegin
  2
*PAPER_SPACE
 70
     0
 10
0.0
 20
0.0
 30
0.0
  3
*PAPER_SPACE
  1

  0
ENDBLK
  5
E6
100
AcDbEntity
 67
     1
  8
0
100
AcDbBlockEnd
  0
BLOCK
  5
2E
100
AcDbEntity
  8
0
100
AcDbBlockBegin
  2
QQ
 70
     0
 10
270.0
 20
0.0
 30
0.0
  3
QQ
  1

  0
LINE
  5
2F
100
AcDbEntity
  8
11
100
AcDbLine
 10
173.0
 20
36.0
 30
0.0
 11
270.0
 21
36.0
 31
0.0
  0
TEXT
  5
30
100
AcDbEntity
  8
11
100
AcDbText
 10
175.0
 20
32.5
 30
0.0
 40
2.5
  1
部品名称
100
AcDbText
  0
LINE
  5
31
100
AcDbEntity
  8
11
100
AcDbLine
 10
173.0
 20
36.0
 30
0.0
 11
173.0
 21
0.0
 31
0.0
  0
LINE
  5
32
100
AcDbEntity
  8
11
100
AcDbLine
 10
173.0
 20
24.0
 30
0.0
 11
270.0
 21
24.0
 31
0.0
  0
TEXT
  5
33
100
AcDbEntity
  8
11
100
AcDbText
 10
175.0
 20
20.5
 30
0.0
 40
2.5
  1
品番
100
AcDbText
  0
LINE
  5
34
100
AcDbEntity
  8
11
100
AcDbLine
 10
173.0
 20
12.0
 30
0.0
 11
270.0
 21
12.0
 31
0.0
  0
TEXT
  5
35
100
AcDbEntity
  8
11
100
AcDbText
 10
175.0
 20
8.5
 30
0.0
 40
2.5
  1
尺度
100
AcDbText
  0
TEXT
  5
36
100
AcDbEntity
  8
11
100
AcDbText
 10
200.0
 20
8.5
 30
0.0
 40
2.5
  1
図番
100
AcDbText
  0
LINE
  5
37
100
AcDbEntity
  8
11
100
AcDbLine
 10
198.0
 20
0.0
 30
0.0
 11
198.0
 21
12.0
 31
0.0
  0
ENDBLK
  5
38
100
AcDbEntity
  8
0
100
AcDbBlockEnd
  0
ENDSEC
  0
SECTION
  2
ENTITIES
  0
LINE
  5
8D
100
AcDbEntity
  8
1
100
AcDbLine
 10
190.0
 20
141.021463
 30
0.0
 11
190.0
 21
107.021463
 31
0.0
  0
LINE
  5
8E
100
AcDbEntity
  8
1
100
AcDbLine
 10
146.104638
 20
123.409137
 30
0.0
 11
230.96909
 21
123.409137
 31
0.0
  0
LINE
  5
EF
100
AcDbEntity
  8
1
100
AcDbLine
 10
222.0
 20
132.66678
 30
0.0
 11
222.0
 21
114.310055
 31
0.0
  0
ARC
  5
F0
100
AcDbEntity
  8
0
100
AcDbCircle
 10
190.0
 20
123.409137
 30
0.0
 40
11.0
100
AcDbArc
 50
24.14774
 51
54.903199
  0
ARC
  5
F1
100
AcDbEntity
  8
0
100
AcDbCircle
 10
222.0
 20
123.409137
 30
0.0
 40
6.0
100
AcDbArc
 50
215.685335
 51
48.189685
  0
LINE
  5
F6
100
AcDbEntity
  8
0
100
AcDbLine
 10
200.03743
 20
127.909137
 30
0.0
 11
217.126603
 21
126.909137
 31
0.0
  0
LINE
  5
F7
100
AcDbEntity
  8
0
100
AcDbLine
 10
200.03743
 20
118.909137
 30
0.0
 11
217.126603
 21
119.909137
 31
0.0
  0
LINE
  5
F8
100
AcDbEntity
  8
0
100
AcDbLine
 10
200.03743
 20
127.909137
 30
0.0
 11
200.03743
 21
118.909137
 31
0.0
  0
LINE
  5
F9
100
AcDbEntity
  8
0
100
AcDbLine
 10
217.126603
 20
126.909137
 30
0.0
 11
217.126603
 21
119.909137
 31
0.0
  0
LINE
  5
FD
100
AcDbEntity
  8
0
100
AcDbLine
 10
183.675445
 20
114.409137
 30
0.0
 11
196.324555
 21
114.409137
 31
0.0
  0
LINE
  5
104
100
AcDbEntity
  8
0
100
AcDbLine
 10
226.0
 20
127.881273
 30
0.0
 11
218.0
 21
127.881273
 31
0.0
  0
ARC
  5
105
100
AcDbEntity
  8
0
100
AcDbCircle
 10
222.0
 20
123.409137
 30
0.0
 40
6.0
100
AcDbArc
 50
131.810315
 51
144.314665
  0
LINE
  5
106
100
AcDbEntity
  8
0
100
AcDbLine
 10
183.675445
 20
132.409137
 30
0.0
 11
196.324555
 21
132.409137
 31
0.0
  0
ARC
  5
107
100
AcDbEntity
  8
0
100
AcDbCircle
 10
190.0
 20
123.409137
 30
0.0
 40
11.0
100
AcDbArc
 50
125.096801
 51
155.85226
  0
ARC
  5
108
100
AcDbEntity
  8
0
100
AcDbCircle
 10
190.0
 20
123.409137
 30
0.0
 40
11.0
100
AcDbArc
 50
305.096801
 51
335.85226
  0
LINE
  5
113
100
AcDbEntity
  8
1
100
AcDbLine
 10
222.0
 20
132.66678
 30
0.0
 11
222.0
 21
171.079926
 31
0.0
  0
LINE
  5
13D
100
AcDbEntity
  8
1
100
AcDbLine
 10
158.0
 20
132.66678
 30
0.0
 11
158.0
 21
171.079926
 31
0.0
  0
LINE
  5
140
100
AcDbEntity
  8
0
100
AcDbLine
 10
179.96257
 20
127.909137
 30
0.0
 11
162.873397
 21
126.909137
 31
0.0
  0
LINE
  5
141
100
AcDbEntity
  8
0
100
AcDbLine
 10
179.96257
 20
118.909137
 30
0.0
 11
162.873397
 21
119.909137
 31
0.0
  0
ARC
  5
142
100
AcDbEntity
  8
0
100
AcDbCircle
 10
158.0
 20
123.409137
 30
0.0
 40
6.0
100
AcDbArc
 50
131.810315
 51
324.314665
  0
LINE
  5
143
100
AcDbEntity
  8
0
100
AcDbLine
 10
179.96257
 20
127.909137
 30
0.0
 11
179.96257
 21
118.909137
 31
0.0
  0
LINE
  5
144
100
AcDbEntity
  8
1
100
AcDbLine
 10
158.0
 20
132.66678
 30
0.0
 11
158.0
 21
114.310055
 31
0.0
  0
ARC
  5
145
100
AcDbEntity
  8
0
100
AcDbCircle
 10
158.0
 20
123.409137
 30
0.0
 40
6.0
100
AcDbArc
 50
35.685335
 51
48.189685
  0
LINE
  5
146
100
AcDbEntity
  8
0
100
AcDbLine
 10
162.873397
 20
126.909137
 30
0.0
 11
162.873397
 21
119.909137
 31
0.0
  0
LINE
  5
148
100
AcDbEntity
  8
0
100
AcDbLine
 10
154.0
 20
127.881273
 30
0.0
 11
162.0
 21
127.881273
 31
0.0
  0
ARC
  5
14E
100
AcDbEntity
  8
0
100
AcDbCircle
 10
190.0
 20
123.409137
 30
0.0
 40
11.0
100
AcDbArc
 50
204.14774
 51
234.903199
  0
LINE
  5
150
100
AcDbEntity
  8
2
100
AcDbLine
 10
194.0
 20
132.409137
 30
0.0
 11
194.0
 21
114.409137
 31
0.0
  0
LINE
  5
152
100
AcDbEntity
  8
2
100
AcDbLine
 10
186.0
 20
132.409137
 30
0.0
 11
186.0
 21
114.409137
 31
0.0
  0
ARC
  5
161
100
AcDbEntity
  8
0
100
AcDbCircle
 10
190.0
 20
53.047426
 30
0.0
 40
11.0
100
AcDbArc
 50
24.14774
 51
155.85226
  0
LINE
  5
162
100
AcDbEntity
  8
1
100
AcDbLine
 10
231.169111
 20
53.047426
 30
0.0
 11
147.503694
 21
53.047426
 31
0.0
  0
LINE
  5
163
100
AcDbEntity
  8
1
100
AcDbLine
 10
158.0
 20
64.76008
 30
0.0
 11
158.0
 21
42.506037
 31
0.0
  0
ARC
  5
164
100
AcDbEntity
  8
0
100
AcDbCircle
 10
222.0
 20
53.047426
 30
0.0
 40
6.0
100
AcDbArc
 50
215.685335
 51
144.314665
  0
LINE
  5
165
100
AcDbEntity
  8
0
100
AcDbLine
 10
200.03743
 20
48.547426
 30
0.0
 11
217.126603
 21
49.547426
 31
0.0
  0
LINE
  5
166
100
AcDbEntity
  8
0
100
AcDbLine
 10
200.03743
 20
57.547426
 30
0.0
 11
217.126603
 21
56.547426
 31
0.0
  0
LINE
  5
167
100
AcDbEntity
  8
1
100
AcDbLine
 10
190.0
 20
69.445141
 30
0.0
 11
190.0
 21
37.586723
 31
0.0
  0
LINE
  5
168
100
AcDbEntity
  8
0
100
AcDbLine
 10
200.03743
 20
57.547426
 30
0.0
 11
200.03743
 21
48.547426
 31
0.0
  0
LINE
  5
169
100
AcDbEntity
  8
1
100
AcDbLine
 10
222.0
 20
62.183296
 30
0.0
 11
222.0
 21
43.911556
 31
0.0
  0
LINE
  5
16A
100
AcDbEntity
  8
0
100
AcDbLine
 10
217.126603
 20
56.547426
 30
0.0
 11
217.126603
 21
49.547426
 31
0.0
  0
CIRCLE
  5
176
100
AcDbEntity
  8
0
100
AcDbCircle
 10
222.0
 20
53.047426
 30
0.0
 40
2.5
  0
CIRCLE
  5
177
100
AcDbEntity
  8
0
100
AcDbCircle
 10
222.0
 20
53.047426
 30
0.0
 40
2.0
  0
CIRCLE
  5
178
100
AcDbEntity
  8
0
100
AcDbCircle
 10
158.0
 20
53.047426
 30
0.0
 40
2.5
  0
LINE
  5
17A
100
AcDbEntity
  8
0
100
AcDbLine
 10
162.873397
 20
56.547426
 30
0.0
 11
162.873397
 21
49.547426
 31
0.0
  0
LINE
  5
17B
100
AcDbEntity
  8
1
100
AcDbLine
 10
158.0
 20
62.183296
 30
0.0
 11
158.0
 21
43.911556
 31
0.0
  0
LINE
  5
17C
100
AcDbEntity
  8
0
100
AcDbLine
 10
179.96257
 20
57.547426
 30
0.0
 11
179.96257
 21
48.547426
 31
0.0
  0
ARC
  5
17D
100
AcDbEntity
  8
0
100
AcDbCircle
 10
158.0
 20
53.047426
 30
0.0
 40
6.0
100
AcDbArc
 50
35.685335
 51
324.314665
  0
LINE
  5
17E
100
AcDbEntity
  8
0
100
AcDbLine
 10
179.96257
 20
48.547426
 30
0.0
 11
162.873397
 21
49.547426
 31
0.0
  0
LINE
  5
17F
100
AcDbEntity
  8
0
100
AcDbLine
 10
179.96257
 20
57.547426
 30
0.0
 11
162.873397
 21
56.547426
 31
0.0
  0
CIRCLE
  5
180
100
AcDbEntity
  8
0
100
AcDbCircle
 10
158.0
 20
53.047426
 30
0.0
 40
2.0
  0
ARC
  5
181
100
AcDbEntity
  8
0
100
AcDbCircle
 10
190.0
 20
53.047426
 30
0.0
 40
11.0
100
AcDbArc
 50
204.14774
 51
335.85226
  0
LINE
  5
1AD
100
AcDbEntity
  8
1
100
AcDbLine
 10
73.992239
 20
141.021463
 30
0.0
 11
73.992239
 21
107.021463
 31
0.0
  0
ARC
  5
1AE
100
AcDbEntity
  8
0
100
AcDbCircle
 10
73.992239
 20
123.409137
 30
0.0
 40
6.0
100
AcDbArc
 50
131.810315
 51
48.189685
  0
LINE
  5
1AF
100
AcDbEntity
  8
0
100
AcDbLine
 10
77.992239
 20
127.881273
 30
0.0
 11
69.992239
 21
127.881273
 31
0.0
  0
LINE
  5
1B1
100
AcDbEntity
  8
1
100
AcDbLine
 10
58.829034
 20
123.409137
 30
0.0
 11
89.690024
 21
123.409137
 31
0.0
  0
LINE
  5
1B2
100
AcDbEntity
  8
0
100
AcDbLine
 10
67.667683
 20
114.409137
 30
0.0
 11
80.316794
 21
114.409137
 31
0.0
  0
ARC
  5
1B3
100
AcDbEntity
  8
0
100
AcDbCircle
 10
73.992239
 20
123.409137
 30
0.0
 40
11.0
100
AcDbArc
 50
125.096801
 51
234.903199
  0
ARC
  5
1B6
100
AcDbEntity
  8
0
100
AcDbCircle
 10
73.992239
 20
123.409137
 30
0.0
 40
11.0
100
AcDbArc
 50
305.096801
 51
54.903199
  0
LINE
  5
1BC
100
AcDbEntity
  8
1
100
AcDbLine
 10
73.992239
 20
141.021463
 30
0.0
 11
73.992239
 21
171.21503
 31
0.0
  0
CIRCLE
  5
1BE
100
AcDbEntity
  8
0
100
AcDbCircle
 10
190.0
 20
53.047426
 30
0.0
 40
4.0
  0
CIRCLE
  5
1BF
100
AcDbEntity
  8
0
100
AcDbCircle
 10
190.0
 20
53.047426
 30
0.0
 40
6.324555
  0
LINE
  5
1C6
100
AcDbEntity
  8
2
100
AcDbLine
 10
155.5
 20
117.954781
 30
0.0
 11
155.5
 21
127.881273
 31
0.0
  0
LINE
  5
1C7
100
AcDbEntity
  8
2
100
AcDbLine
 10
155.5
 20
127.881273
 30
0.0
 11
156.0
 21
127.881273
 31
0.0
  0
LINE
  5
1C8
100
AcDbEntity
  8
2
100
AcDbLine
 10
156.0
 20
127.881273
 30
0.0
 11
156.0
 21
117.752282
 31
0.0
  0
LINE
  5
1C9
100
AcDbEntity
  8
2
100
AcDbLine
 10
160.0
 20
127.881273
 30
0.0
 11
160.0
 21
117.752282
 31
0.0
  0
LINE
  5
1CA
100
AcDbEntity
  8
2
100
AcDbLine
 10
160.5
 20
117.954781
 30
0.0
 11
160.5
 21
127.881273
 31
0.0
  0
LINE
  5
1CB
100
AcDbEntity
  8
2
100
AcDbLine
 10
219.5
 20
117.954781
 30
0.0
 11
219.5
 21
127.881273
 31
0.0
  0
LINE
  5
1CC
100
AcDbEntity
  8
2
100
AcDbLine
 10
220.0
 20
127.881273
 30
0.0
 11
220.0
 21
117.752282
 31
0.0
  0
LINE
  5
1CD
100
AcDbEntity
  8
2
100
AcDbLine
 10
224.0
 20
127.881273
 30
0.0
 11
224.0
 21
117.752282
 31
0.0
  0
LINE
  5
1CE
100
AcDbEntity
  8
2
100
AcDbLine
 10
224.5
 20
117.954781
 30
0.0
 11
224.5
 21
127.881273
 31
0.0
  0
LINE
  5
1CF
100
AcDbEntity
  8
2
100
AcDbLine
 10
76.492239
 20
117.954781
 30
0.0
 11
76.492239
 21
127.881273
 31
0.0
  0
LINE
  5
1D0
100
AcDbEntity
  8
2
100
AcDbLine
 10
75.992239
 20
127.881273
 30
0.0
 11
75.992239
 21
117.752282
 31
0.0
  0
LINE
  5
1D1
100
AcDbEntity
  8
2
100
AcDbLine
 10
71.992239
 20
127.881273
 30
0.0
 11
71.992239
 21
117.752282
 31
0.0
  0
LINE
  5
1D2
100
AcDbEntity
  8
2
100
AcDbLine
 10
71.492239
 20
117.954781
 30
0.0
 11
71.492239
 21
127.881273
 31
0.0
  0
LINE
  5
1D3
100
AcDbEntity
  8
0
100
AcDbLine
 10
67.667683
 20
132.409137
 30
0.0
 11
80.316794
 21
132.409137
 31
0.0
  0
ENDSEC
  0
SECTION
  2
OBJECTS
  0
DICTIONARY
  5
C6
100
AcDbDictionary
  3
ACAD_GROUP
350
C7
  3
ACAD_MLINESTYLE
350
D4
  0
DICTIONARY
  5
C7
102
{ACAD_REACTORS
330
C6
102
}
100
AcDbDictionary
  0
DICTIONARY
  5
D4
102
{ACAD_REACTORS
330
C6
102
}
100
AcDbDictionary
  3
STANDARD
350
D5
  0
MLINESTYLE
  5
D5
102
{ACAD_REACTORS
330
D4
102
}
100
AcDbMlineStyle
  2
STANDARD
 70
     0
  3

 62
   256
 51
90.0
 52
90.0
 71
     2
 49
0.5
 62
   256
  6
BYLAYER
 49
-0.5
 62
   256
  6
BYLAYER
  0
ENDSEC
  0
EOF
