  0
SECTION
  2
HEADER
  9
$ACADVER
  1
AC1009
  9
$INSBASE
 10
0.0
 20
0.0
 30
0.0
  9
$EXTMIN
 10
43.075562446698882
 20
44.980774606788493
 30
-0.0015258207003583
  9
$EXTMAX
 10
336.9026192369667
 20
242.0137029886406
 30
0.0000000349246037
  9
$LIMMIN
 10
0.0
 20
0.0
  9
$LIMMAX
 10
375.0
 20
270.0
  9
$ORTHOMODE
 70
     1
  9
$REGENMODE
 70
     1
  9
$FILLMODE
 70
     1
  9
$QTEXTMODE
 70
     0
  9
$MIRRTEXT
 70
     0
  9
$DRAGMODE
 70
     2
  9
$LTSCALE
 40
10.0
  9
$OSMODE
 70
   231
  9
$ATTMODE
 70
     1
  9
$TEXTSIZE
 40
5.0
  9
$TRACEWID
 40
0.05
  9
$TEXTSTYLE
  7
STANDARD
  9
$CLAYER
  8
0
  9
$CELTYPE
  6
BYLAYER
  9
$CECOLOR
 62
   256
  9
$DIMSCALE
 40
1.0
  9
$DIMASZ
 40
3.0
  9
$DIMEXO
 40
2.0
  9
$DIMDLI
 40
0.38
  9
$DIMRND
 40
0.0
  9
$DIMDLE
 40
0.0
  9
$DIMEXE
 40
2.0
  9
$DIMTP
 40
0.0
  9
$DIMTM
 40
0.0
  9
$DIMTXT
 40
3.2000000000000002
  9
$DIMCEN
 40
0.0
  9
$DIMTSZ
 40
0.0
  9
$DIMTOL
 70
     0
  9
$DIMLIM
 70
     0
  9
$DIMTIH
 70
     0
  9
$DIMTOH
 70
     0
  9
$DIMSE1
 70
     0
  9
$DIMSE2
 70
     0
  9
$DIMTAD
 70
     1
  9
$DIMZIN
 70
     0
  9
$DIMBLK
  1

  9
$DIMASO
 70
     1
  9
$DIMSHO
 70
     0
  9
$DIMPOST
  1

  9
$DIMAPOST
  1

  9
$DIMALT
 70
     0
  9
$DIMALTD
 70
     2
  9
$DIMALTF
 40
25.399999999999999
  9
$DIMLFAC
 40
1.0
  9
$DIMTOFL
 70
     1
  9
$DIMTVP
 40
1.6000000000000001
  9
$DIMTIX
 70
     1
  9
$DIMSOXD
 70
     0
  9
$DIMSAH
 70
     0
  9
$DIMBLK1
  1

  9
$DIMBLK2
  1

  9
$DIMSTYLE
  2
STANDARD
  9
$DIMCLRD
 70
     0
  9
$DIMCLRE
 70
     0
  9
$DIMCLRT
 70
     0
  9
$DIMTFAC
 40
1.0
  9
$DIMGAP
 40
0.09
  9
$LUNITS
 70
     2
  9
$LUPREC
 70
     4
  9
$SKETCHINC
 40
0.1
  9
$FILLETRAD
 40
1.5
  9
$AUNITS
 70
     0
  9
$AUPREC
 70
     4
  9
$MENU
  1
E:\r13\win\SUPPORT\ACAD
  9
$ELEVATION
 40
0.0
  9
$PELEVATION
 40
0.0
  9
$THICKNESS
 40
0.0
  9
$LIMCHECK
 70
     0
  9
$BLIPMODE
 70
     1
  9
$CHAMFERA
 40
0.0
  9
$CHAMFERB
 40
0.0
  9
$SKPOLY
 70
     0
  9
$TDCREATE
 40
2449839.7903240742
  9
$TDUPDATE
 40
2453236.764614074
  9
$TDINDWG
 40
0.0001463079
  9
$TDUSRTIMER
 40
0.0001463079
  9
$USRTIMER
 70
     1
  9
$ANGBASE
 50
0.0
  9
$ANGDIR
 70
     0
  9
$PDMODE
 70
     0
  9
$PDSIZE
 40
0.0
  9
$PLINEWID
 40
0.0
  9
$COORDS
 70
     0
  9
$SPLFRAME
 70
     0
  9
$SPLINETYPE
 70
     6
  9
$SPLINESEGS
 70
     8
  9
$ATTDIA
 70
     0
  9
$ATTREQ
 70
     1
  9
$HANDLING
 70
-16383
  9
$HANDSEED
  5
196
  9
$SURFTAB1
 70
     6
  9
$SURFTAB2
 70
     6
  9
$SURFTYPE
 70
     6
  9
$SURFU
 70
     6
  9
$SURFV
 70
     6
  9
$UCSNAME
  2

  9
$UCSORG
 10
0.0
 20
0.0
 30
0.0
  9
$UCSXDIR
 10
1.0
 20
0.0
 30
0.0
  9
$UCSYDIR
 10
0.0
 20
1.0
 30
0.0
  9
$PUCSNAME
  2

  9
$PUCSORG
 10
0.0
 20
0.0
 30
0.0
  9
$PUCSXDIR
 10
1.0
 20
0.0
 30
0.0
  9
$PUCSYDIR
 10
0.0
 20
1.0
 30
0.0
  9
$USERI1
 70
     0
  9
$USERI2
 70
     1
  9
$USERI3
 70
     1
  9
$USERI4
 70
     0
  9
$USERI5
 70
     0
  9
$USERR1
 40
0.0
  9
$USERR2
 40
0.0
  9
$USERR3
 40
0.0
  9
$USERR4
 40
0.0
  9
$USERR5
 40
0.0
  9
$WORLDVIEW
 70
     1
  9
$SHADEDGE
 70
     3
  9
$SHADEDIF
 70
    70
  9
$TILEMODE
 70
     1
  9
$MAXACTVP
 70
    16
  9
$PLIMCHECK
 70
     0
  9
$PEXTMIN
 10
1.0000000000000000E+020
 20
1.0000000000000000E+020
 30
1.0000000000000000E+020
  9
$PEXTMAX
 10
-1.0000000000000000E+020
 20
-1.0000000000000000E+020
 30
-1.0000000000000000E+020
  9
$PLIMMIN
 10
0.0
 20
0.0
  9
$PLIMMAX
 10
12.0
 20
9.0
  9
$UNITMODE
 70
     0
  9
$VISRETAIN
 70
     0
  9
$PLINEGEN
 70
     0
  9
$PSLTSCALE
 70
     0
  0
ENDSEC
  0
SECTION
  2
TABLES
  0
TABLE
  2
VPORT
 70
     3
  0
VPORT
  2
*ACTIVE
 70
     0
 10
0.0
 20
0.0
 11
1.0
 21
1.0
 12
189.98909084183279
 22
143.49723879771449
 13
0.0
 23
0.0
 14
10.0
 24
10.0
 15
10.0
 25
10.0
 16
0.0
 26
0.0
 36
1.0
 17
0.0
 27
0.0
 37
0.0
 40
349.96318647740611
 41
0.9407114624505929
 42
50.0
 43
0.0
 44
0.0
 50
0.0
 51
0.0
 71
     0
 72
   500
 73
     1
 74
     0
 75
     0
 76
     0
 77
     0
 78
     2
  0
ENDTAB
  0
TABLE
  2
LTYPE
 70
     3
  0
LTYPE
  2
CONTINUOUS
 70
     0
  3
Solid Line
 72
    65
 73
     0
 40
0.0
  0
LTYPE
  2
CENTER
 70
     0
  3
____ _ ____ _ ____ _ ____ _ ____ _ ____ _ ____
 72
    65
 73
     4
 40
2.0
 49
1.25
 49
-0.25
 49
0.25
 49
-0.25
  0
LTYPE
  2
HIDDEN
 70
     0
  3
_ _ _ _ _ _ _ _ _ _ _ _ _ _ _ _ _ _ _ _ _ _ _
 72
    65
 73
     2
 40
0.375
 49
0.25
 49
-0.125
  0
ENDTAB
  0
TABLE
  2
LAYER
 70
     3
  0
LAYER
  2
0
 70
     0
 62
     7
  6
CONTINUOUS
  0
LAYER
  2
1
 70
     0
 62
     1
  6
CENTER
  0
LAYER
  2
2
 70
     0
 62
     2
  6
HIDDEN
  0
ENDTAB
  0
TABLE
  2
STYLE
 70
     1
  0
STYLE
  2
STANDARD
 70
     0
 40
0.0
 41
1.0
 50
0.0
 71
     0
 42
5.0
  3
TXT
  4
BIGFONT
  0
ENDTAB
  0
TABLE
  2
VIEW
 70
     1
  0
VIEW
  2
ALL
 70
     0
 40
270.0
 10
220.99159663865541
 20
135.0
 41
0.0
 11
0.0
 21
0.0
 31
1.0
 12
0.0
 22
0.0
 32
0.0
 42
0.0
 43
0.0
 44
0.0
 50
0.0
 71
     0
  0
ENDTAB
  0
TABLE
  2
UCS
 70
     0
  0
ENDTAB
  0
TABLE
  2
APPID
 70
     1
  0
APPID
  2
ACAD
 70
     0
  0
ENDTAB
  0
TABLE
  2
DIMSTYLE
 70
     1
  0
DIMSTYLE
  2
STANDARD
 70
     0
  3

  4

  5

  6

  7

 40
1.0
 41
0.18
 42
0.0625
 43
0.38
 44
0.18
 45
0.0
 46
0.0
 47
0.0
 48
0.0
140
0.18
141
0.09
142
0.0
143
25.399999999999999
144
1.0
145
0.0
146
1.0
147
0.09
 71
     0
 72
     0
 73
     1
 74
     1
 75
     0
 76
     0
 77
     0
 78
     0
170
     0
171
     2
172
     0
173
     0
174
     0
175
     0
176
     0
177
     0
178
     0
  0
ENDTAB
  0
ENDSEC
  0
SECTION
  2
BLOCKS
  0
BLOCK
  8
0
  2
$MODEL_SPACE
 70
     0
 10
0.0
 20
0.0
 30
0.0
  3
$MODEL_SPACE
  1

  0
ENDBLK
  5
13E
  8
0
  0
BLOCK
 67
     1
  8
0
  2
$PAPER_SPACE
 70
     0
 10
0.0
 20
0.0
 30
0.0
  3
$PAPER_SPACE
  1

  0
ENDBLK
  5
13C
 67
     1
  8
0
  0
ENDSEC
  0
SECTION
  2
ENTITIES
  0
LINE
  5
35
  8
0
 10
152.0
 20
51.0
 30
0.0
 11
151.0
 21
50.0
 31
0.0
  0
LINE
  5
36
  8
0
 10
152.0
 20
51.0
 30
0.0
 11
152.0
 21
60.0
 31
0.0
  0
LINE
  5
37
  8
0
 10
155.25
 20
60.0
 30
0.0
 11
124.75
 21
60.0
 31
0.0
  0
LINE
  5
38
  8
0
 10
128.0
 20
51.0
 30
0.0
 11
128.0
 21
60.0
 31
0.0
  0
LINE
  5
39
  8
0
 10
128.0
 20
51.0
 30
0.0
 11
129.0
 21
50.0
 31
0.0
  0
LINE
  5
3A
  8
0
 10
129.0
 20
50.0
 30
0.0
 11
151.0
 21
50.0
 31
0.0
  0
LINE
  5
3B
  8
0
 10
152.0
 20
51.0
 30
0.0
 11
128.0
 21
51.0
 31
0.0
  0
LINE
  5
3C
  8
0
 10
124.66268088722791
 20
61.190257028197351
 30
0.0
 11
249.6537201026388
 21
75.136621483893151
 31
0.0
  0
LINE
  5
3D
  8
0
 10
126.7499999999993
 20
90.800000000000011
 30
0.0
 11
124.75
 21
88.800000000000637
 31
0.0
  0
LINE
  5
3E
  8
0
 10
124.75
 20
88.800000000000637
 30
0.0
 11
122.99972861389701
 21
62.781684645803352
 31
0.0
  0
ARC
  5
3F
  8
0
 10
124.4963460753897
 20
62.681006078296832
 30
0.0
 40
1.5000000000000011
 50
176.15146871555891
 51
276.36661546787622
  0
LINE
  5
40
  8
0
 10
124.75
 20
60.0
 30
0.0
 11
124.75
 21
61.200000000000038
 31
0.0
  0
LINE
  5
41
  8
0
 10
250.01951468923619
 20
90.520926942123239
 30
0.0
 11
250.98373003407579
 21
76.732005095972923
 31
0.0
  0
ARC
  5
42
  8
0
 10
249.48738395868611
 20
76.627370385356755
 30
0.0
 40
1.5
 50
276.36666666666662
 51
3.9999999999999671
  0
LINE
  5
43
  8
0
 10
229.98048531076361
 20
90.520926942123239
 30
0.0
 11
229.92970979096131
 21
89.794803179421237
 31
0.0
  0
LINE
  5
44
  8
0
 10
153.2500000000006
 20
90.800000000000011
 30
0.0
 11
155.25
 21
88.800000000000637
 31
0.0
  0
LINE
  5
45
  8
0
 10
153.2500000000006
 20
90.800000000000011
 30
0.0
 11
126.7499999999993
 21
90.800000000000011
 31
0.0
  0
LINE
  5
46
  8
0
 10
155.25
 20
88.800000000000637
 30
0.0
 11
124.75
 21
88.800000000000708
 31
0.0
  0
LINE
  5
47
  8
0
 10
155.25
 20
88.800000000000637
 30
0.0
 11
155.3520643981181
 21
87.282781745873535
 31
0.0
  0
ARC
  5
48
  8
0
 10
156.84868185961079
 20
87.383460313379999
 30
0.0
 40
1.5
 50
183.8485312844409
 51
273.0652635807154
  0
CIRCLE
  5
49
  8
0
 10
140.0
 20
220.00000077137679
 30
0.0
 40
15.25
  0
CIRCLE
  5
4A
  8
0
 10
140.0
 20
220.00000077137679
 30
0.0
 40
13.24999999999884
  0
LINE
  5
4B
  8
0
 10
141.0199999999999
 20
236.9693731816929
 30
0.0
 11
237.3119408607337
 21
231.1814290372036
 31
0.0
  0
LINE
  5
4C
  8
1
 10
140.0
 20
242.0000007713767
 30
0.0
 11
140.0
 21
198.00000077137659
 31
0.0
  0
LINE
  5
4D
  8
1
 10
117.9999999999998
 20
220.00000077137679
 30
0.0
 11
256.49999999999989
 21
220.00000077137679
 31
0.0
  0
LINE
  5
4E
  8
1
 10
239.99999999999989
 20
236.5000007713771
 30
0.0
 11
239.99999999999989
 21
203.50000077137659
 31
0.0
  0
LINE
  5
4F
  8
0
 10
234.85392329998021
 20
230.28435270027919
 30
0.0
 11
140.80062499999991
 21
235.22896986351739
 31
0.0
  0
LINE
  5
50
  8
0
 10
148.23504764036099
 20
232.83536170751611
 30
0.0
 11
232.1700372159932
 21
228.4226893445738
 31
0.0
  0
LINE
  5
51
  8
0
 10
148.23504764036099
 20
207.16463983523741
 30
0.0
 11
232.17003721599201
 21
211.5773121981797
 31
0.0
  0
LINE
  5
52
  8
0
 10
234.8539232999789
 20
209.7156488424742
 30
0.0
 11
140.80062499999991
 21
204.7710316792361
 31
0.0
  0
LINE
  5
53
  8
0
 10
141.0199999999999
 20
203.03062836106059
 30
0.0
 11
237.31194086073589
 21
208.81857250555001
 31
0.0
  0
ARC
  5
54
  8
0
 10
140.0
 20
220.00000077137679
 30
0.0
 40
17.0
 50
86.560187232484765
 51
273.43981276751521
  0
LINE
  5
55
  8
0
 10
140.80062499999991
 20
83.01907149333482
 30
0.0
 11
240.52499999999341
 21
88.359315848975825
 31
0.0
  0
LINE
  5
56
  8
0
 10
230.2797545258415
 20
90.800000000000011
 30
0.0
 11
249.7202454741583
 21
90.799999999999955
 31
0.0
  0
LINE
  5
57
  8
0
 10
155.25
 20
60.0
 30
0.0
 11
155.57441529012809
 21
64.639354792698242
 31
0.0
  0
ARC
  5
58
  8
0
 10
140.10562019503149
 20
97.881603470699986
 30
0.0
 40
14.87877308305802
 50
272.67732676260601
 51
303.11885029500797
  0
CIRCLE
  5
59
  8
0
 10
240.0
 20
220.00000077137679
 30
0.0
 40
11.5
  0
LINE
  5
5A
  8
0
 10
234.0
 20
91.100000000000264
 30
0.0
 11
234.0
 21
90.800000000000011
 31
0.0
  0
LINE
  5
5B
  8
0
 10
246.0
 20
90.800000000000011
 30
0.0
 11
246.0
 21
91.100000000000264
 31
0.0
  0
LINE
  5
5C
  8
0
 10
228.5
 20
117.8
 30
0.0
 11
230.4306889212599
 21
92.025302901180169
 31
0.0
  0
ARC
  5
5D
  8
0
 10
231.427895190508
 20
92.10000000000025
 30
0.0
 40
1.0
 50
184.28381852627271
 51
269.99999999999989
  0
ARC
  5
5E
  8
0
 10
248.5721048094918
 20
92.10000000000025
 30
0.0
 40
1.0
 50
270.00000000000011
 51
355.7161814737272
  0
LINE
  5
5F
  8
0
 10
251.5
 20
117.8
 30
0.0
 11
249.56931107873999
 21
92.025302901180169
 31
0.0
  0
LINE
  5
60
  8
0
 10
231.427895190508
 20
91.100000000000264
 30
0.0
 11
248.5721048094918
 21
91.100000000000264
 31
0.0
  0
LINE
  5
61
  8
0
 10
228.5
 20
117.8
 30
0.0
 11
251.5
 21
117.7999999999997
 31
0.0
  0
ARC
  5
62
  8
0
 10
230.5
 20
152.8505047794394
 30
0.0
 40
1.9999999999994751
 50
101.4151577427304
 51
180.0
  0
ARC
  5
63
  8
0
 10
249.4999999999998
 20
152.8505047794394
 30
0.0
 40
1.9999999999994751
 50
360.0
 51
78.584842257269514
  0
ARC
  5
64
  8
0
 10
240.0
 20
105.8
 30
0.0
 40
50.0
 50
78.584842257269713
 51
101.4151577427303
  0
LINE
  5
65
  8
0
 10
229.49999999999989
 20
152.8505047794394
 30
0.0
 11
250.49999999999989
 21
152.8505047794394
 31
0.0
  0
LINE
  5
66
  8
0
 10
228.50000000000051
 20
152.8505047794394
 30
0.0
 11
228.5
 21
117.8000000000001
 31
0.0
  0
LINE
  5
67
  8
0
 10
251.4999999999994
 20
152.8505047794394
 30
0.0
 11
251.5
 21
117.7999999999997
 31
0.0
  0
LINE
  5
68
  8
1
 10
239.99999999999989
 20
69.028441516272665
 30
0.0
 11
240.0
 21
160.8000000000001
 31
0.0
  0
LINE
  5
69
  8
1
 10
140.0
 20
95.800000000000011
 30
0.0
 11
140.0
 21
45.0
 31
0.0
  0
ARC
  5
6A
  8
0
 10
249.7202454741583
 20
90.5
 30
0.0
 40
0.3
 50
3.9999999999999041
 51
90.0
  0
ARC
  5
6B
  8
0
 10
230.2797545258415
 20
90.5
 30
0.0
 40
0.3
 50
90.0
 51
175.99999999999901
  0
LINE
  5
6C
  8
0
 10
234.4282744555525
 20
90.035701501005889
 30
0.0
 11
148.23504764036099
 21
85.420050683496612
 31
0.0
  0
CIRCLE
  5
6D
  8
0
 10
140.0
 20
220.00000077137679
 30
0.0
 40
10.5
  0
LINE
  5
6E
  8
2
 10
127.5
 20
87.0
 30
0.0
 11
152.5
 21
87.000000000000057
 31
0.0
  0
LINE
  5
6F
  8
2
 10
127.5
 20
87.0
 30
0.0
 11
127.5
 21
60.0
 31
0.0
  0
LINE
  5
70
  8
2
 10
152.5
 20
87.0
 30
0.0
 11
152.5
 21
60.0
 31
0.0
  0
LINE
  5
71
  8
2
 10
134.0
 20
86.000000000000028
 30
0.0
 11
134.0
 21
51.0
 31
0.0
  0
LINE
  5
72
  8
2
 10
146.0
 20
86.000000000000028
 30
0.0
 11
146.0
 21
51.0
 31
0.0
  0
LINE
  5
73
  8
2
 10
129.5
 20
87.800000000000011
 30
0.0
 11
150.5
 21
87.800000000000011
 31
0.0
  0
LINE
  5
74
  8
2
 10
129.5
 20
87.800000000000011
 30
0.0
 11
129.5
 21
87.0
 31
0.0
  0
LINE
  5
75
  8
2
 10
150.5
 20
87.800000000000011
 30
0.0
 11
150.5
 21
87.0
 31
0.0
  0
LINE
  5
76
  8
2
 10
150.5
 20
87.800000000000011
 30
0.0
 11
150.70978043583051
 21
90.800000000000011
 31
0.0
  0
LINE
  5
77
  8
2
 10
129.5
 20
87.800000000000011
 30
0.0
 11
129.2902195641694
 21
90.800000000000011
 31
0.0
  0
CIRCLE
  5
78
  8
0
 10
140.0
 20
220.00000077137679
 30
0.0
 40
10.72376502684247
  0
CIRCLE
  5
79
  8
0
 10
140.0
 20
220.00000077137679
 30
0.0
 40
5.99999922862321
  0
LINE
  5
7A
  8
2
 10
133.0
 20
87.000000000000014
 30
0.0
 11
134.0
 21
86.000000000000028
 31
0.0
  0
LINE
  5
7B
  8
2
 10
147.0
 20
87.000000000000014
 30
0.0
 11
146.0
 21
86.000000000000028
 31
0.0
  0
LINE
  5
7C
  8
2
 10
146.0
 20
51.0
 30
0.0
 11
147.0
 21
50.0
 31
0.0
  0
LINE
  5
7D
  8
2
 10
134.0
 20
51.0
 30
0.0
 11
133.0
 21
50.0
 31
0.0
  0
LINE
  5
7E
  8
2
 10
134.0
 20
86.000000000000028
 30
0.0
 11
146.0
 21
86.0
 31
0.0
  0
LINE
  5
7F
  8
2
 10
134.0
 20
51.0
 30
0.0
 11
146.0
 21
51.0
 31
0.0
  0
LINE
  5
80
  8
1
 10
320.0
 20
45.0
 30
0.0
 11
320.0
 21
160.80000000000001
 31
0.0
  0
LINE
  5
81
  8
0
 10
310.00000000000023
 20
90.799999999999997
 30
0.0
 11
329.9999999999996
 21
90.799999999999997
 31
0.0
  0
LINE
  5
82
  8
0
 10
314.0
 20
91.100000000000264
 30
0.0
 11
314.0
 21
90.800000000000011
 31
0.0
  0
LINE
  5
83
  8
0
 10
314.0
 20
90.800000000000011
 30
0.0
 11
326.0
 21
90.800000000000011
 31
0.0
  0
LINE
  5
84
  8
0
 10
326.0
 20
90.800000000000011
 30
0.0
 11
326.0
 21
91.100000000000264
 31
0.0
  0
LINE
  5
85
  8
0
 10
308.49999999999989
 20
117.8
 30
0.0
 11
310.4306889212599
 21
92.025302901180169
 31
0.0
  0
ARC
  5
86
  8
0
 10
311.42789519050808
 20
92.10000000000025
 30
0.0
 40
1.0
 50
184.28381852627271
 51
269.99999999999989
  0
ARC
  5
87
  8
0
 10
328.5721048094918
 20
92.10000000000025
 30
0.0
 40
1.0
 50
270.00000000000011
 51
355.7161814737272
  0
LINE
  5
88
  8
0
 10
331.49999999999989
 20
117.8
 30
0.0
 11
329.56931107873999
 21
92.025302901180169
 31
0.0
  0
LINE
  5
89
  8
0
 10
311.42789519050808
 20
91.100000000000264
 30
0.0
 11
328.5721048094918
 21
91.100000000000264
 31
0.0
  0
LINE
  5
8A
  8
0
 10
308.49999999999989
 20
117.8
 30
0.0
 11
331.49999999999989
 21
117.7999999999997
 31
0.0
  0
ARC
  5
8B
  8
0
 10
310.49999999999989
 20
152.8505047794394
 30
0.0
 40
1.9999999999994751
 50
101.4151577427304
 51
180.0
  0
ARC
  5
8C
  8
0
 10
329.49999999999989
 20
152.8505047794394
 30
0.0
 40
1.9999999999994751
 50
360.0
 51
78.584842257269514
  0
ARC
  5
8D
  8
0
 10
320.0
 20
105.8
 30
0.0
 40
50.0
 50
78.584842257269713
 51
101.4151577427303
  0
LINE
  5
8E
  8
0
 10
309.5
 20
152.8505047794394
 30
0.0
 11
330.5
 21
152.8505047794394
 31
0.0
  0
LINE
  5
8F
  8
0
 10
308.50000000000051
 20
152.8505047794394
 30
0.0
 11
308.49999999999989
 21
117.8000000000001
 31
0.0
  0
LINE
  5
90
  8
0
 10
331.49999999999937
 20
152.8505047794394
 30
0.0
 11
331.49999999999989
 21
117.7999999999997
 31
0.0
  0
LINE
  5
91
  8
0
 10
333.25000000000063
 20
90.799999999999997
 30
0.0
 11
335.25
 21
88.800000000000622
 31
0.0
  0
LINE
  5
92
  8
0
 10
304.74999999999989
 20
60.0
 30
0.0
 11
304.74999999999989
 21
62.901578443418089
 31
0.0
  0
LINE
  5
93
  8
0
 10
335.25
 20
60.0
 30
0.0
 11
335.25
 21
62.901578443418089
 31
0.0
  0
LINE
  5
94
  8
0
 10
335.25
 20
88.800000000000622
 30
0.0
 11
336.88452720599719
 21
64.502257010924552
 31
0.0
  0
LINE
  5
95
  8
0
 10
332.0
 20
51.0
 30
0.0
 11
331.0
 21
50.0
 31
0.0
  0
LINE
  5
96
  8
0
 10
332.0
 20
51.0
 30
0.0
 11
332.0
 21
60.0
 31
0.0
  0
LINE
  5
97
  8
0
 10
335.25
 20
60.0
 30
0.0
 11
304.74999999999989
 21
60.0
 31
0.0
  0
LINE
  5
98
  8
0
 10
308.0
 20
51.0
 30
0.0
 11
308.0
 21
60.0
 31
0.0
  0
LINE
  5
99
  8
0
 10
308.0
 20
51.0
 30
0.0
 11
309.0
 21
50.0
 31
0.0
  0
LINE
  5
9A
  8
0
 10
309.0
 20
50.0
 30
0.0
 11
331.0
 21
50.0
 31
0.0
  0
LINE
  5
9B
  8
0
 10
332.0
 20
51.0
 30
0.0
 11
308.0
 21
51.0
 31
0.0
  0
LINE
  5
9C
  8
0
 10
306.74999999999932
 20
90.799999999999997
 30
0.0
 11
304.74999999999989
 21
88.800000000000622
 31
0.0
  0
LINE
  5
9D
  8
0
 10
304.74999999999989
 20
88.800000000000622
 30
0.0
 11
303.1154727940023
 21
64.502257010924581
 31
0.0
  0
LINE
  5
9E
  8
0
 10
333.25000000000063
 20
90.799999999999997
 30
0.0
 11
306.74999999999932
 21
90.799999999999997
 31
0.0
  0
LINE
  5
9F
  8
0
 10
335.25
 20
88.800000000000622
 30
0.0
 11
330.13985362388672
 21
88.800000000000637
 31
0.0
  0
ARC
  5
A0
  8
0
 10
329.72024547415839
 20
90.5
 30
0.0
 40
0.3
 50
3.9999999999999041
 51
90.0
  0
LINE
  5
A1
  8
0
 10
330.0195146892363
 20
90.520926942123239
 30
0.0
 11
331.05840491219118
 21
75.664104586283486
 31
0.0
  0
LINE
  5
A2
  8
0
 10
309.9804853107637
 20
90.520926942123239
 30
0.0
 11
308.94159508780871
 21
75.664104586283614
 31
0.0
  0
ARC
  5
A3
  8
0
 10
310.27975452584161
 20
90.5
 30
0.0
 40
0.3
 50
90.0
 51
176.0
  0
ARC
  5
A4
  8
0
 10
320.0
 20
37.656901469686979
 30
0.0
 40
37.306651260320798
 50
77.360508933254778
 51
102.63949106674529
  0
LINE
  5
A5
  8
0
 10
309.86014637611339
 20
88.800000000000708
 30
0.0
 11
304.74999999999989
 21
88.800000000000708
 31
0.0
  0
LINE
  5
A6
  8
0
 10
309.81518461035472
 20
88.157016793572524
 30
0.0
 11
304.7710309078592
 21
83.019071493334778
 31
0.0
  0
LINE
  5
A7
  8
0
 10
310.4379411631985
 20
74.059469875667432
 30
0.0
 11
311.83671379240519
 21
74.059469875667418
 31
0.0
  0
ARC
  5
A8
  8
0
 10
310.4379411631985
 20
75.559469875667432
 30
0.0
 40
1.5
 50
176.0
 51
269.9999999999996
  0
ARC
  5
A9
  8
0
 10
329.5620588368015
 20
75.559469875667304
 30
0.0
 40
1.5
 50
269.9999999999996
 51
3.9999999999998912
  0
LINE
  5
AA
  8
0
 10
328.16328620759481
 20
74.059469875667332
 30
0.0
 11
329.5620588368015
 21
74.059469875667304
 31
0.0
  0
LINE
  5
AB
  8
0
 10
311.83671379240451
 20
74.059469875667475
 30
0.0
 11
305.96600035361269
 21
62.901578443418089
 31
0.0
  0
LINE
  5
AC
  8
0
 10
304.61209025549499
 20
62.901578443418089
 30
0.0
 11
305.9660003536128
 21
62.901578443418089
 31
0.0
  0
ARC
  5
AD
  8
0
 10
335.3879097445045
 20
64.401578443418089
 30
0.0
 40
1.5
 50
270.0
 51
3.8485312844399391
  0
ARC
  5
AE
  8
0
 10
304.61209025549499
 20
64.401578443418089
 30
0.0
 40
1.5
 50
176.15146871555899
 51
269.99999999999989
  0
ARC
  5
AF
  8
0
 10
320.00000000000011
 20
24.230282686740249
 30
0.0
 40
51.065942331172572
 50
80.847986693320962
 51
99.152013306679166
  0
LINE
  5
B0
  8
0
 10
308.44680303422052
 20
74.059469875667475
 30
0.0
 11
303.84942670603601
 21
65.321685877538613
 31
0.0
  0
LINE
  5
B1
  8
0
 10
331.55319696577942
 20
74.059469875667475
 30
0.0
 11
336.15057329396387
 21
65.321685877538613
 31
0.0
  0
LINE
  5
B2
  8
0
 10
328.16328620759538
 20
74.059469875667475
 30
0.0
 11
334.0339996463872
 21
62.901578443418089
 31
0.0
  0
LINE
  5
B3
  8
0
 10
334.03399964638709
 20
62.901578443418089
 30
0.0
 11
335.3879097445045
 21
62.901578443418089
 31
0.0
  0
LINE
  5
B4
  8
0
 10
330.18481538964528
 20
88.157016793572524
 30
0.0
 11
335.2289690921408
 21
83.019071493334778
 31
0.0
  0
ARC
  5
B5
  8
0
 10
240.79033326969051
 20
101.2488497735138
 30
0.0
 40
12.892264600752361
 50
240.43051167949901
 51
268.820723091601
  0
LINE
  5
B6
  8
0
 10
73.24999922862213
 20
90.800000000000026
 30
0.0
 11
46.749999228624283
 21
90.800000000000011
 31
0.0
  0
LINE
  5
B7
  8
0
 10
75.24999922862321
 20
88.800000000000736
 30
0.0
 11
44.771030236480307
 21
88.800000000000736
 31
0.0
  0
LINE
  5
B8
  8
1
 10
59.99999922862321
 20
160.8000000000001
 30
0.0
 11
59.999999228623203
 21
45.0
 31
0.0
  0
ARC
  5
B9
  8
0
 10
59.999999228623217
 20
146.0249728832157
 30
0.0
 40
84.843966804918907
 50
259.34261990512618
 51
280.65811983696892
  0
LINE
  5
BA
  8
0
 10
44.771030236480307
 20
88.800000000000736
 30
0.0
 11
43.090224384967769
 21
64.220973261268838
 31
0.0
  0
LINE
  5
BB
  8
0
 10
75.249999228623238
 20
88.800000000000736
 30
0.0
 11
76.910913790446472
 21
64.219962576249245
 31
0.0
  0
LINE
  5
BC
  8
0
 10
46.74999922862429
 20
90.800000000000011
 30
0.0
 11
44.771030236480307
 21
88.800000000000708
 31
0.0
  0
LINE
  5
BD
  8
0
 10
73.249999228622144
 20
90.800000000000011
 30
0.0
 11
75.249999228623238
 21
88.800000000000708
 31
0.0
  0
ARC
  5
BE
  8
0
 10
44.586729385799799
 20
64.118636647661077
 30
0.0
 40
1.5
 50
176.0879905015403
 51
259.34261990512698
  0
ARC
  5
BF
  8
0
 10
75.41432655755959
 20
64.118835654215417
 30
0.0
 40
1.5
 50
280.6581198369679
 51
3.8656960456739902
  0
LINE
  5
C0
  8
0
 10
75.24999922862321
 20
60.0
 30
0.0
 11
44.74999922862321
 21
60.0
 31
0.0
  0
LINE
  5
C1
  8
0
 10
44.74999922862321
 20
62.562788612767939
 30
0.0
 11
44.74999922862321
 21
60.0
 31
0.0
  0
LINE
  5
C2
  8
0
 10
75.24999922862321
 20
62.562788612767939
 30
0.0
 11
75.24999922862321
 21
60.0
 31
0.0
  0
LINE
  5
C3
  8
0
 10
71.99999922862321
 20
51.0
 30
0.0
 11
47.99999922862321
 21
51.0
 31
0.0
  0
LINE
  5
C4
  8
0
 10
48.99999922862321
 20
50.0
 30
0.0
 11
70.99999922862321
 21
50.0
 31
0.0
  0
LINE
  5
C5
  8
0
 10
47.99999922862321
 20
51.0
 30
0.0
 11
48.99999922862321
 21
50.0
 31
0.0
  0
LINE
  5
C6
  8
0
 10
47.99999922862321
 20
51.0
 30
0.0
 11
47.99999922862321
 21
60.0
 31
0.0
  0
LINE
  5
C7
  8
0
 10
71.99999922862321
 20
51.0
 30
0.0
 11
71.99999922862321
 21
60.0
 31
0.0
  0
LINE
  5
C8
  8
0
 10
71.99999922862321
 20
51.0
 30
0.0
 11
70.99999922862321
 21
50.0
 31
0.0
  0
LINE
  5
C9
  8
0
 10
71.49999922862267
 20
152.8505047794394
 30
0.0
 11
71.499999228623238
 21
117.7999999999997
 31
0.0
  0
LINE
  5
CA
  8
0
 10
48.4999992286238
 20
152.8505047794394
 30
0.0
 11
48.499999228623231
 21
117.8000000000001
 31
0.0
  0
LINE
  5
CB
  8
0
 10
49.499999228623238
 20
152.8505047794394
 30
0.0
 11
70.499999228623238
 21
152.8505047794394
 31
0.0
  0
ARC
  5
CC
  8
0
 10
59.999999228623238
 20
105.8
 30
0.0
 40
50.0
 50
78.584842257269713
 51
101.4151577427303
  0
ARC
  5
CD
  8
0
 10
69.499999228623125
 20
152.8505047794394
 30
0.0
 40
1.9999999999994751
 50
360.0
 51
78.584842257269514
  0
ARC
  5
CE
  8
0
 10
50.499999228623238
 20
152.8505047794394
 30
0.0
 40
1.9999999999994751
 50
101.4151577427304
 51
180.0
  0
LINE
  5
CF
  8
0
 10
48.499999228623231
 20
117.8
 30
0.0
 11
71.499999228623238
 21
117.7999999999997
 31
0.0
  0
LINE
  5
D0
  8
0
 10
51.42789441913132
 20
91.100000000000264
 30
0.0
 11
68.5721040381151
 21
91.100000000000264
 31
0.0
  0
LINE
  5
D1
  8
0
 10
71.499999228623238
 20
117.8
 30
0.0
 11
69.569310307363281
 21
92.025302901180197
 31
0.0
  0
ARC
  5
D2
  8
0
 10
68.5721040381151
 20
92.100000000000264
 30
0.0
 40
1.0
 50
270.00000000000011
 51
355.7161814737272
  0
ARC
  5
D3
  8
0
 10
51.42789441913132
 20
92.100000000000264
 30
0.0
 40
1.0
 50
184.28381852627271
 51
269.99999999999989
  0
LINE
  5
D4
  8
0
 10
48.499999228623231
 20
117.8
 30
0.0
 11
50.430688149883203
 21
92.025302901180197
 31
0.0
  0
LINE
  5
D5
  8
0
 10
65.999999228623224
 20
90.800000000000026
 30
0.0
 11
65.999999228623224
 21
91.100000000000264
 31
0.0
  0
LINE
  5
D6
  8
0
 10
53.999999228623238
 20
91.100000000000264
 30
0.0
 11
53.999999228623238
 21
90.800000000000026
 31
0.0
  0
ENDSEC
  0
EOF
