  0
SECTION
  2
HEADER
  9
$ACADVER
  1
AC1014
  9
$ACADMAINTVER
 70
     0
  9
$DWGCODEPAGE
  3
ANSI_932
  9
$INSBASE
 10
0.0
 20
0.0
 30
0.0
  9
$EXTMIN
 10
6.0
 20
0.0
 30
0.0
  9
$EXTMAX
 10
372.0
 20
264.0
 30
0.0
  9
$LIMMIN
 10
0.0
 20
0.0
  9
$LIMMAX
 10
375.0
 20
265.0
  9
$ORTHOMODE
 70
     1
  9
$REGENMODE
 70
     1
  9
$FILLMODE
 70
     1
  9
$QTEXTMODE
 70
     0
  9
$MIRRTEXT
 70
     1
  9
$DRAGMODE
 70
     2
  9
$LTSCALE
 40
1.0
  9
$OSMODE
 70
    33
  9
$ATTMODE
 70
     1
  9
$TEXTSIZE
 40
5.0
  9
$TRACEWID
 40
0.05
  9
$TEXTSTYLE
  7
BIGFONT
  9
$CLAYER
  8
0
  9
$CELTYPE
  6
BYLAYER
  9
$CECOLOR
 62
   256
  9
$CELTSCALE
 40
1.0
  9
$DELOBJ
 70
     1
  9
$DISPSILH
 70
     0
  9
$DIMSCALE
 40
1.0
  9
$DIMASZ
 40
0.18
  9
$DIMEXO
 40
0.0625
  9
$DIMDLI
 40
0.38
  9
$DIMRND
 40
0.0
  9
$DIMDLE
 40
0.0
  9
$DIMEXE
 40
0.18
  9
$DIMTP
 40
0.0
  9
$DIMTM
 40
0.0
  9
$DIMTXT
 40
0.18
  9
$DIMCEN
 40
0.09
  9
$DIMTSZ
 40
0.0
  9
$DIMTOL
 70
     0
  9
$DIMLIM
 70
     0
  9
$DIMTIH
 70
     1
  9
$DIMTOH
 70
     1
  9
$DIMSE1
 70
     0
  9
$DIMSE2
 70
     0
  9
$DIMTAD
 70
     0
  9
$DIMZIN
 70
     0
  9
$DIMBLK
  1

  9
$DIMASO
 70
     1
  9
$DIMSHO
 70
     1
  9
$DIMPOST
  1

  9
$DIMAPOST
  1

  9
$DIMALT
 70
     0
  9
$DIMALTD
 70
     2
  9
$DIMALTF
 40
25.4
  9
$DIMLFAC
 40
1.0
  9
$DIMTOFL
 70
     0
  9
$DIMTVP
 40
0.0
  9
$DIMTIX
 70
     0
  9
$DIMSOXD
 70
     0
  9
$DIMSAH
 70
     0
  9
$DIMBLK1
  1

  9
$DIMBLK2
  1

  9
$DIMSTYLE
  2
STANDARD
  9
$DIMCLRD
 70
     0
  9
$DIMCLRE
 70
     0
  9
$DIMCLRT
 70
     0
  9
$DIMTFAC
 40
1.0
  9
$DIMGAP
 40
0.09
  9
$DIMJUST
 70
     0
  9
$DIMSD1
 70
     0
  9
$DIMSD2
 70
     0
  9
$DIMTOLJ
 70
     1
  9
$DIMTZIN
 70
     0
  9
$DIMALTZ
 70
     0
  9
$DIMALTTZ
 70
     0
  9
$DIMFIT
 70
     5
  9
$DIMUPT
 70
     0
  9
$DIMUNIT
 70
     2
  9
$DIMDEC
 70
     4
  9
$DIMTDEC
 70
     4
  9
$DIMALTU
 70
     2
  9
$DIMALTTD
 70
     2
  9
$DIMTXSTY
  7
BIGFONT
  9
$DIMAUNIT
 70
     0
  9
$LUNITS
 70
     2
  9
$LUPREC
 70
     4
  9
$SKETCHINC
 40
0.1
  9
$FILLETRAD
 40
0.0
  9
$AUNITS
 70
     0
  9
$AUPREC
 70
     0
  9
$MENU
  1
acad
  9
$ELEVATION
 40
0.0
  9
$PELEVATION
 40
0.0
  9
$THICKNESS
 40
0.0
  9
$LIMCHECK
 70
     0
  9
$BLIPMODE
 70
     1
  9
$CHAMFERA
 40
0.0
  9
$CHAMFERB
 40
0.0
  9
$CHAMFERC
 40
0.0
  9
$CHAMFERD
 40
0.0
  9
$SKPOLY
 70
     0
  9
$TDCREATE
 40
2450683.570243055
  9
$TDUPDATE
 40
2453550.758730278
  9
$TDINDWG
 40
0.0014670139
  9
$TDUSRTIMER
 40
0.0014670139
  9
$USRTIMER
 70
     1
  9
$ANGBASE
 50
0.0
  9
$ANGDIR
 70
     0
  9
$PDMODE
 70
     0
  9
$PDSIZE
 40
0.0
  9
$PLINEWID
 40
0.0
  9
$COORDS
 70
     2
  9
$SPLFRAME
 70
     0
  9
$SPLINETYPE
 70
     6
  9
$SPLINESEGS
 70
     8
  9
$ATTDIA
 70
     0
  9
$ATTREQ
 70
     1
  9
$HANDLING
 70
     1
  9
$HANDSEED
  5
11F
  9
$SURFTAB1
 70
     6
  9
$SURFTAB2
 70
     6
  9
$SURFTYPE
 70
     6
  9
$SURFU
 70
     6
  9
$SURFV
 70
     6
  9
$UCSNAME
  2

  9
$UCSORG
 10
0.0
 20
0.0
 30
0.0
  9
$UCSXDIR
 10
1.0
 20
0.0
 30
0.0
  9
$UCSYDIR
 10
0.0
 20
1.0
 30
0.0
  9
$PUCSNAME
  2

  9
$PUCSORG
 10
0.0
 20
0.0
 30
0.0
  9
$PUCSXDIR
 10
1.0
 20
0.0
 30
0.0
  9
$PUCSYDIR
 10
0.0
 20
1.0
 30
0.0
  9
$USERI1
 70
     0
  9
$USERI2
 70
     0
  9
$USERI3
 70
     0
  9
$USERI4
 70
     0
  9
$USERI5
 70
     0
  9
$USERR1
 40
0.0
  9
$USERR2
 40
0.0
  9
$USERR3
 40
0.0
  9
$USERR4
 40
0.0
  9
$USERR5
 40
0.0
  9
$WORLDVIEW
 70
     1
  9
$SHADEDGE
 70
     3
  9
$SHADEDIF
 70
    70
  9
$TILEMODE
 70
     1
  9
$MAXACTVP
 70
    16
  9
$PINSBASE
 10
0.0
 20
0.0
 30
0.0
  9
$PLIMCHECK
 70
     0
  9
$PEXTMIN
 10
1.000000E+20
 20
1.000000E+20
 30
1.000000E+20
  9
$PEXTMAX
 10
-1.000000E+20
 20
-1.000000E+20
 30
-1.000000E+20
  9
$PLIMMIN
 10
0.0
 20
0.0
  9
$PLIMMAX
 10
12.0
 20
9.0
  9
$UNITMODE
 70
     0
  9
$VISRETAIN
 70
     0
  9
$PLINEGEN
 70
     0
  9
$PSLTSCALE
 70
     1
  9
$TREEDEPTH
 70
  3020
  9
$PICKSTYLE
 70
     1
  9
$CMLSTYLE
  2
STANDARD
  9
$CMLJUST
 70
     0
  9
$CMLSCALE
 40
1.0
  9
$PROXYGRAPHICS
 70
     1
  9
$MEASUREMENT
 70
     0
  0
ENDSEC
  0
SECTION
  2
CLASSES
  0
CLASS
  1
DICTIONARYVAR
  2
AcDbDictionaryVar
  3
"AutoCAD"
 90
        0
280
     0
281
     0
  0
CLASS
  1
LWPOLYLINE
  2
AcDbPolyline
  3
"AutoCAD"
 90
        0
280
     0
281
     1
  0
ENDSEC
  0
SECTION
  2
TABLES
  0
TABLE
  2
VPORT
  5
F0
100
AcDbSymbolTable
 70
     3
  0
VPORT
  5
11E
100
AcDbSymbolTableRecord
100
AcDbViewportTableRecord
  2
*ACTIVE
 70
     0
 10
0.0
 20
0.0
 11
1.0
 21
1.0
 12
175.899782
 22
134.864119
 13
0.0
 23
0.0
 14
0.5
 24
0.5
 15
1.0
 25
1.0
 16
0.0
 26
0.0
 36
1.0
 17
0.0
 27
0.0
 37
0.0
 40
250.406732
 41
1.434944
 42
50.0
 43
0.0
 44
0.0
 50
0.0
 51
0.0
 71
     0
 72
   100
 73
     1
 74
     1
 75
     0
 76
     0
 77
     0
 78
     0
  0
ENDTAB
  0
TABLE
  2
LTYPE
  5
ED
100
AcDbSymbolTable
 70
     4
  0
LTYPE
  5
F9
100
AcDbSymbolTableRecord
100
AcDbLinetypeTableRecord
  2
BYBLOCK
 70
     0
  3

 72
    65
 73
     0
 40
0.0
  0
LTYPE
  5
FA
100
AcDbSymbolTableRecord
100
AcDbLinetypeTableRecord
  2
BYLAYER
 70
     0
  3

 72
    65
 73
     0
 40
0.0
  0
LTYPE
  5
FB
100
AcDbSymbolTableRecord
100
AcDbLinetypeTableRecord
  2
CONTINUOUS
 70
     0
  3
Solid line
 72
    65
 73
     0
 40
0.0
  0
LTYPE
  5
105
100
AcDbSymbolTableRecord
100
AcDbLinetypeTableRecord
  2
TENSEN1
 70
     0
  3

 72
    65
 73
     2
 40
0.4
 49
0.3
 74
     0
 49
-0.1
 74
     0
  0
LTYPE
  5
106
100
AcDbSymbolTableRecord
100
AcDbLinetypeTableRecord
  2
ITTEN1
 70
     0
  3

 72
    65
 73
     4
 40
8.2
 49
5.0
 74
     0
 49
-1.0
 74
     0
 49
1.2
 74
     0
 49
-1.0
 74
     0
  0
LTYPE
  5
107
100
AcDbSymbolTableRecord
100
AcDbLinetypeTableRecord
  2
TENSEN2
 70
     0
  3

 72
    65
 73
     2
 40
2.1
 49
1.5
 74
     0
 49
-0.6
 74
     0
  0
ENDTAB
  0
TABLE
  2
LAYER
  5
EA
100
AcDbSymbolTable
 70
     4
  0
LAYER
  5
F6
100
AcDbSymbolTableRecord
100
AcDbLayerTableRecord
  2
0
 70
     0
 62
     7
  6
CONTINUOUS
  0
LAYER
  5
10B
100
AcDbSymbolTableRecord
100
AcDbLayerTableRecord
  2
1
 70
     0
 62
     1
  6
ITTEN1
  0
LAYER
  5
10C
100
AcDbSymbolTableRecord
100
AcDbLayerTableRecord
  2
2
 70
     0
 62
     2
  6
TENSEN2
  0
LAYER
  5
10D
100
AcDbSymbolTableRecord
100
AcDbLayerTableRecord
  2
3
 70
     0
 62
     3
  6
CONTINUOUS
  0
ENDTAB
  0
TABLE
  2
STYLE
  5
EB
100
AcDbSymbolTable
 70
     2
  0
STYLE
  5
F7
100
AcDbSymbolTableRecord
100
AcDbTextStyleTableRecord
  2
STANDARD
 70
     0
 40
0.0
 41
1.0
 50
0.0
 71
     0
 42
0.2
  3
txt
  4

  0
STYLE
  5
104
100
AcDbSymbolTableRecord
100
AcDbTextStyleTableRecord
  2
BIGFONT
 70
     0
 40
5.0
 41
1.0
 50
0.0
 71
     0
 42
5.0
  3

  4
bigfont
  0
ENDTAB
  0
TABLE
  2
VIEW
  5
EE
100
AcDbSymbolTable
 70
     0
  0
ENDTAB
  0
TABLE
  2
UCS
  5
EF
100
AcDbSymbolTable
 70
     0
  0
ENDTAB
  0
TABLE
  2
APPID
  5
F1
100
AcDbSymbolTable
 70
     1
  0
APPID
  5
F8
100
AcDbSymbolTableRecord
100
AcDbRegAppTableRecord
  2
ACAD
 70
     0
  0
ENDTAB
  0
TABLE
  2
DIMSTYLE
  5
F2
100
AcDbSymbolTable
 70
     1
  0
DIMSTYLE
105
10A
100
AcDbSymbolTableRecord
100
AcDbDimStyleTableRecord
  2
STANDARD
 70
     0
  3

  4

  5

  6

  7

 40
1.0
 41
0.18
 42
0.0625
 43
0.38
 44
0.18
 45
0.0
 46
0.0
 47
0.0
 48
0.0
140
0.18
141
0.09
142
0.0
143
25.4
144
1.0
145
0.0
146
1.0
147
0.09
 71
     0
 72
     0
 73
     1
 74
     1
 75
     0
 76
     0
 77
     0
 78
     0
170
     0
171
     2
172
     0
173
     0
174
     0
175
     0
176
     0
177
     0
178
     0
270
     2
271
     4
272
     4
273
     2
274
     2
340
104
275
     0
280
     0
281
     0
282
     0
283
     1
284
     0
285
     0
286
     0
287
     5
288
     0
  0
ENDTAB
  0
TABLE
  2
BLOCK_RECORD
  5
E9
100
AcDbSymbolTable
 70
     0
  0
BLOCK_RECORD
  5
FF
100
AcDbSymbolTableRecord
100
AcDbBlockTableRecord
  2
*MODEL_SPACE
  0
BLOCK_RECORD
  5
FC
100
AcDbSymbolTableRecord
100
AcDbBlockTableRecord
  2
*PAPER_SPACE
  0
ENDTAB
  0
ENDSEC
  0
SECTION
  2
BLOCKS
  0
BLOCK
  5
110
100
AcDbEntity
  8
0
100
AcDbBlockBegin
  2
*MODEL_SPACE
 70
     0
 10
0.0
 20
0.0
 30
0.0
  3
*MODEL_SPACE
  1

  0
ENDBLK
  5
111
100
AcDbEntity
  8
0
100
AcDbBlockEnd
  0
BLOCK
  5
10E
100
AcDbEntity
 67
     1
  8
0
100
AcDbBlockBegin
  2
*PAPER_SPACE
 70
     0
 10
0.0
 20
0.0
 30
0.0
  3
*PAPER_SPACE
  1

  0
ENDBLK
  5
10F
100
AcDbEntity
 67
     1
  8
0
100
AcDbBlockEnd
  0
ENDSEC
  0
SECTION
  2
ENTITIES
  0
CIRCLE
  5
3E
100
AcDbEntity
  8
0
100
AcDbCircle
 10
130.5
 20
192.211788
 30
0.0
 40
15.5
  0
LINE
  5
3F
100
AcDbEntity
  8
1
100
AcDbLine
 10
210.5
 20
179.211788
 30
0.0
 11
210.5
 21
205.211788
 31
0.0
  0
LINE
  5
43
100
AcDbEntity
  8
1
100
AcDbLine
 10
130.5
 20
213.211788
 30
0.0
 11
130.5
 21
172.211788
 31
0.0
  0
LINE
  5
44
100
AcDbEntity
  8
1
100
AcDbLine
 10
110.0
 20
192.211788
 30
0.0
 11
224.0
 21
192.211788
 31
0.0
  0
LINE
  5
45
100
AcDbEntity
  8
1
100
AcDbLine
 10
130.5
 20
69.0
 30
0.0
 11
130.5
 21
30.5
 31
0.0
  0
LINE
  5
46
100
AcDbEntity
  8
1
100
AcDbLine
 10
110.0
 20
50.0
 30
0.0
 11
224.0
 21
50.0
 31
0.0
  0
LINE
  5
47
100
AcDbEntity
  8
1
100
AcDbLine
 10
210.5
 20
61.5
 30
0.0
 11
210.5
 21
38.0
 31
0.0
  0
CIRCLE
  5
48
100
AcDbEntity
  8
0
100
AcDbCircle
 10
130.5
 20
50.0
 30
0.0
 40
15.5
  0
ARC
  5
49
100
AcDbEntity
  8
0
100
AcDbCircle
 10
210.5
 20
50.0
 30
0.0
 40
8.0
100
AcDbArc
 50
270.0
 51
90.0
  0
LINE
  5
4A
100
AcDbEntity
  8
0
100
AcDbLine
 10
210.5
 20
42.0
 30
0.0
 11
141.0
 21
38.5
 31
0.0
  0
LINE
  5
4B
100
AcDbEntity
  8
0
100
AcDbLine
 10
210.5
 20
58.0
 30
0.0
 11
141.0
 21
61.5
 31
0.0
  0
CIRCLE
  5
4C
100
AcDbEntity
  8
0
100
AcDbCircle
 10
130.5
 20
50.0
 30
0.0
 40
15.0
  0
CIRCLE
  5
4D
100
AcDbEntity
  8
0
100
AcDbCircle
 10
130.5
 20
50.0
 30
0.0
 40
12.0
  0
LINE
  5
4E
100
AcDbEntity
  8
0
100
AcDbLine
 10
154.5
 20
50.0
 30
0.0
 11
154.5
 21
57.5
 31
0.0
  0
LINE
  5
4F
100
AcDbEntity
  8
0
100
AcDbLine
 10
154.5
 20
50.0
 30
0.0
 11
154.5
 21
42.5
 31
0.0
  0
LINE
  5
50
100
AcDbEntity
  8
0
100
AcDbLine
 10
198.5
 20
50.0
 30
0.0
 11
198.5
 21
55.0
 31
0.0
  0
LINE
  5
51
100
AcDbEntity
  8
0
100
AcDbLine
 10
198.5
 20
50.0
 30
0.0
 11
198.5
 21
45.0
 31
0.0
  0
LINE
  5
52
100
AcDbEntity
  8
0
100
AcDbLine
 10
198.5
 20
45.0
 30
0.0
 11
154.5
 21
42.5
 31
0.0
  0
LINE
  5
53
100
AcDbEntity
  8
0
100
AcDbLine
 10
198.5
 20
55.0
 30
0.0
 11
154.5
 21
57.5
 31
0.0
  0
CIRCLE
  5
55
100
AcDbEntity
  8
0
100
AcDbCircle
 10
210.5
 20
50.0
 30
0.0
 40
4.0
  0
CIRCLE
  5
56
100
AcDbEntity
  8
0
100
AcDbCircle
 10
210.5
 20
50.0
 30
0.0
 40
3.0
  0
LINE
  5
57
100
AcDbEntity
  8
0
100
AcDbLine
 10
158.5
 20
44.0
 30
0.0
 11
158.5
 21
56.0
 31
0.0
  0
LINE
  5
58
100
AcDbEntity
  8
0
100
AcDbLine
 10
158.5
 20
56.0
 30
0.0
 11
194.5
 21
54.0
 31
0.0
  0
LINE
  5
59
100
AcDbEntity
  8
0
100
AcDbLine
 10
194.5
 20
54.0
 30
0.0
 11
194.5
 21
46.0
 31
0.0
  0
LINE
  5
5A
100
AcDbEntity
  8
0
100
AcDbLine
 10
194.5
 20
46.0
 30
0.0
 11
158.5
 21
44.0
 31
0.0
  0
LINE
  5
5B
100
AcDbEntity
  8
0
100
AcDbLine
 10
158.5
 20
44.0
 30
0.0
 11
154.5
 21
42.5
 31
0.0
  0
LINE
  5
5C
100
AcDbEntity
  8
0
100
AcDbLine
 10
158.5
 20
56.0
 30
0.0
 11
154.5
 21
57.5
 31
0.0
  0
LINE
  5
5D
100
AcDbEntity
  8
0
100
AcDbLine
 10
194.5
 20
54.0
 30
0.0
 11
198.5
 21
55.0
 31
0.0
  0
LINE
  5
5E
100
AcDbEntity
  8
0
100
AcDbLine
 10
194.5
 20
46.0
 30
0.0
 11
198.5
 21
45.0
 31
0.0
  0
LINE
  5
5F
100
AcDbEntity
  8
3
100
AcDbLine
 10
164.0
 20
53.0
 30
0.0
 11
161.5
 21
47.0
 31
0.0
  0
LINE
  5
60
100
AcDbEntity
  8
3
100
AcDbLine
 10
161.5
 20
47.0
 30
0.0
 11
162.5
 21
47.0
 31
0.0
  0
LINE
  5
61
100
AcDbEntity
  8
3
100
AcDbLine
 10
162.5
 20
47.0
 30
0.0
 11
163.5
 21
49.0
 31
0.0
  0
LINE
  5
62
100
AcDbEntity
  8
3
100
AcDbLine
 10
163.5
 20
49.0
 30
0.0
 11
165.5
 21
49.0
 31
0.0
  0
LINE
  5
63
100
AcDbEntity
  8
3
100
AcDbLine
 10
165.5
 20
49.0
 30
0.0
 11
166.5
 21
47.0
 31
0.0
  0
LINE
  5
64
100
AcDbEntity
  8
3
100
AcDbLine
 10
166.5
 20
47.0
 30
0.0
 11
167.5
 21
47.0
 31
0.0
  0
LINE
  5
65
100
AcDbEntity
  8
3
100
AcDbLine
 10
167.5
 20
47.0
 30
0.0
 11
165.0
 21
53.0
 31
0.0
  0
LINE
  5
66
100
AcDbEntity
  8
3
100
AcDbLine
 10
165.0
 20
53.0
 30
0.0
 11
164.0
 21
53.0
 31
0.0
  0
LINE
  5
67
100
AcDbEntity
  8
3
100
AcDbLine
 10
164.5
 20
52.0
 30
0.0
 11
164.0
 21
50.0
 31
0.0
  0
LINE
  5
68
100
AcDbEntity
  8
3
100
AcDbLine
 10
164.0
 20
50.0
 30
0.0
 11
165.0
 21
50.0
 31
0.0
  0
LINE
  5
69
100
AcDbEntity
  8
3
100
AcDbLine
 10
165.0
 20
50.0
 30
0.0
 11
164.5
 21
52.0
 31
0.0
  0
LINE
  5
6A
100
AcDbEntity
  8
3
100
AcDbLine
 10
168.5
 20
51.5
 30
0.0
 11
168.5
 21
48.5
 31
0.0
  0
LINE
  5
6B
100
AcDbEntity
  8
3
100
AcDbLine
 10
169.5
 20
51.0
 30
0.0
 11
169.5
 21
49.0
 31
0.0
  0
ARC
  5
6C
100
AcDbEntity
  8
3
100
AcDbCircle
 10
170.6875
 20
50.6875
 30
0.0
 40
2.333519
100
AcDbArc
 50
7.696052
 51
159.623565
  0
ARC
  5
6D
100
AcDbEntity
  8
3
100
AcDbCircle
 10
170.75
 20
50.75
 30
0.0
 40
1.274755
100
AcDbArc
 50
11.309932
 51
168.690068
  0
ARC
  5
6E
100
AcDbEntity
  8
3
100
AcDbCircle
 10
170.6875
 20
49.3125
 30
0.0
 40
2.333519
100
AcDbArc
 50
200.376435
 51
352.303948
  0
ARC
  5
6F
100
AcDbEntity
  8
3
100
AcDbCircle
 10
170.75
 20
49.25
 30
0.0
 40
1.274755
100
AcDbArc
 50
191.309932
 51
348.690068
  0
LINE
  5
70
100
AcDbEntity
  8
3
100
AcDbLine
 10
172.0
 20
51.0
 30
0.0
 11
173.0
 21
51.0
 31
0.0
  0
LINE
  5
71
100
AcDbEntity
  8
3
100
AcDbLine
 10
172.0
 20
49.0
 30
0.0
 11
173.0
 21
49.0
 31
0.0
  0
LINE
  5
72
100
AcDbEntity
  8
3
100
AcDbLine
 10
174.5
 20
53.0
 30
0.0
 11
174.5
 21
47.0
 31
0.0
  0
LINE
  5
73
100
AcDbEntity
  8
3
100
AcDbLine
 10
174.5
 20
47.0
 30
0.0
 11
175.5
 21
47.0
 31
0.0
  0
LINE
  5
74
100
AcDbEntity
  8
3
100
AcDbLine
 10
175.5
 20
47.0
 30
0.0
 11
175.5
 21
50.0
 31
0.0
  0
LINE
  5
75
100
AcDbEntity
  8
3
100
AcDbLine
 10
175.5
 20
50.0
 30
0.0
 11
178.0
 21
50.0
 31
0.0
  0
LINE
  5
76
100
AcDbEntity
  8
3
100
AcDbLine
 10
178.0
 20
50.0
 30
0.0
 11
178.0
 21
47.0
 31
0.0
  0
LINE
  5
77
100
AcDbEntity
  8
3
100
AcDbLine
 10
178.0
 20
47.0
 30
0.0
 11
179.0
 21
47.0
 31
0.0
  0
LINE
  5
78
100
AcDbEntity
  8
3
100
AcDbLine
 10
179.0
 20
47.0
 30
0.0
 11
179.0
 21
53.0
 31
0.0
  0
LINE
  5
79
100
AcDbEntity
  8
3
100
AcDbLine
 10
179.0
 20
53.0
 30
0.0
 11
178.0
 21
53.0
 31
0.0
  0
LINE
  5
7A
100
AcDbEntity
  8
3
100
AcDbLine
 10
178.0
 20
53.0
 30
0.0
 11
178.0
 21
51.0
 31
0.0
  0
LINE
  5
7B
100
AcDbEntity
  8
3
100
AcDbLine
 10
178.0
 20
51.0
 30
0.0
 11
175.5
 21
51.0
 31
0.0
  0
LINE
  5
7C
100
AcDbEntity
  8
3
100
AcDbLine
 10
175.5
 20
51.0
 30
0.0
 11
175.5
 21
53.0
 31
0.0
  0
LINE
  5
7D
100
AcDbEntity
  8
3
100
AcDbLine
 10
175.5
 20
53.0
 30
0.0
 11
174.5
 21
53.0
 31
0.0
  0
ARC
  5
7E
100
AcDbEntity
  8
3
100
AcDbCircle
 10
183.0
 20
51.3
 30
0.0
 40
1.7
100
AcDbArc
 50
331.927513
 51
208.072487
  0
ARC
  5
7F
100
AcDbEntity
  8
3
100
AcDbCircle
 10
183.0
 20
49.071429
 30
0.0
 40
2.071429
100
AcDbArc
 50
136.397181
 51
43.602819
  0
CIRCLE
  5
80
100
AcDbEntity
  8
3
100
AcDbCircle
 10
183.0
 20
51.5
 30
0.0
 40
0.707107
  0
CIRCLE
  5
81
100
AcDbEntity
  8
3
100
AcDbCircle
 10
183.0
 20
49.0
 30
0.0
 40
1.118034
  0
LINE
  5
82
100
AcDbEntity
  8
3
100
AcDbLine
 10
186.5
 20
51.5
 30
0.0
 11
186.5
 21
48.5
 31
0.0
  0
LINE
  5
83
100
AcDbEntity
  8
3
100
AcDbLine
 10
190.0
 20
51.5
 30
0.0
 11
190.0
 21
48.5
 31
0.0
  0
ARC
  5
84
100
AcDbEntity
  8
3
100
AcDbCircle
 10
188.25
 20
51.25
 30
0.0
 40
1.767767
100
AcDbArc
 50
8.130102
 51
171.869898
  0
ARC
  5
85
100
AcDbEntity
  8
3
100
AcDbCircle
 10
188.25
 20
48.75
 30
0.0
 40
1.767767
100
AcDbArc
 50
188.130102
 51
351.869898
  0
LINE
  5
86
100
AcDbEntity
  8
3
100
AcDbLine
 10
187.5
 20
51.0
 30
0.0
 11
187.5
 21
49.0
 31
0.0
  0
LINE
  5
87
100
AcDbEntity
  8
3
100
AcDbLine
 10
189.0
 20
51.0
 30
0.0
 11
189.0
 21
49.0
 31
0.0
  0
ARC
  5
88
100
AcDbEntity
  8
3
100
AcDbCircle
 10
188.25
 20
50.75
 30
0.0
 40
0.790569
100
AcDbArc
 50
18.434949
 51
161.565051
  0
ARC
  5
89
100
AcDbEntity
  8
3
100
AcDbCircle
 10
188.25
 20
48.75
 30
0.0
 40
0.790569
100
AcDbArc
 50
161.565051
 51
18.434949
  0
LINE
  5
8A
100
AcDbEntity
  8
0
100
AcDbLine
 10
115.0
 20
111.0
 30
0.0
 11
115.0
 21
128.5
 31
0.0
  0
LINE
  5
8B
100
AcDbEntity
  8
0
100
AcDbLine
 10
115.5
 20
129.0
 30
0.0
 11
145.5
 21
129.0
 31
0.0
  0
LINE
  5
8C
100
AcDbEntity
  8
0
100
AcDbLine
 10
146.0
 20
128.5
 30
0.0
 11
146.0
 21
125.0
 31
0.0
  0
LINE
  5
8D
100
AcDbEntity
  8
0
100
AcDbLine
 10
141.0
 20
125.0
 30
0.0
 11
218.5
 21
125.0
 31
0.0
  0
LINE
  5
8E
100
AcDbEntity
  8
0
100
AcDbLine
 10
219.5
 20
124.0
 30
0.0
 11
219.5
 21
111.0
 31
0.0
  0
LINE
  5
8F
100
AcDbEntity
  8
0
100
AcDbLine
 10
115.0
 20
111.0
 30
0.0
 11
219.5
 21
111.0
 31
0.0
  0
LINE
  5
90
100
AcDbEntity
  8
0
100
AcDbLine
 10
219.5
 20
124.0
 30
0.0
 11
218.5
 21
125.0
 31
0.0
  0
LINE
  5
91
100
AcDbEntity
  8
0
100
AcDbLine
 10
146.0
 20
128.5
 30
0.0
 11
145.5
 21
129.0
 31
0.0
  0
LINE
  5
92
100
AcDbEntity
  8
0
100
AcDbLine
 10
115.0
 20
128.5
 30
0.0
 11
115.5
 21
129.0
 31
0.0
  0
LINE
  5
93
100
AcDbEntity
  8
0
100
AcDbLine
 10
219.5
 20
124.0
 30
0.0
 11
141.0
 21
124.0
 31
0.0
  0
LINE
  5
94
100
AcDbEntity
  8
0
100
AcDbLine
 10
141.0
 20
125.0
 30
0.0
 11
141.0
 21
111.0
 31
0.0
  0
LINE
  5
95
100
AcDbEntity
  8
0
100
AcDbLine
 10
115.5
 20
111.0
 30
0.0
 11
115.5
 21
102.0
 31
0.0
  0
LINE
  5
96
100
AcDbEntity
  8
0
100
AcDbLine
 10
115.5
 20
102.0
 30
0.0
 11
145.5
 21
102.0
 31
0.0
  0
LINE
  5
97
100
AcDbEntity
  8
0
100
AcDbLine
 10
145.5
 20
102.0
 30
0.0
 11
145.5
 21
111.0
 31
0.0
  0
LINE
  5
98
100
AcDbEntity
  8
0
100
AcDbLine
 10
118.5
 20
102.0
 30
0.0
 11
118.5
 21
90.0
 31
0.0
  0
LINE
  5
99
100
AcDbEntity
  8
0
100
AcDbLine
 10
118.5
 20
90.0
 30
0.0
 11
142.5
 21
90.0
 31
0.0
  0
LINE
  5
9A
100
AcDbEntity
  8
0
100
AcDbLine
 10
142.5
 20
90.0
 30
0.0
 11
142.5
 21
102.0
 31
0.0
  0
LINE
  5
9B
100
AcDbEntity
  8
1
100
AcDbLine
 10
130.5
 20
85.5
 30
0.0
 11
130.5
 21
137.5
 31
0.0
  0
LINE
  5
9C
100
AcDbEntity
  8
1
100
AcDbLine
 10
210.0
 20
105.5
 30
0.0
 11
210.0
 21
137.498348
 31
0.0
  0
LINE
  5
A9
100
AcDbEntity
  8
2
100
AcDbLine
 10
154.5
 20
111.0
 30
0.0
 11
158.5
 21
121.0
 31
0.0
  0
LINE
  5
AA
100
AcDbEntity
  8
2
100
AcDbLine
 10
158.5
 20
121.0
 30
0.0
 11
194.5
 21
121.0
 31
0.0
  0
LINE
  5
AB
100
AcDbEntity
  8
2
100
AcDbLine
 10
194.5
 20
121.0
 30
0.0
 11
198.5
 21
111.0
 31
0.0
  0
LINE
  5
AC
100
AcDbEntity
  8
1
100
AcDbLine
 10
57.5
 20
86.0
 30
0.0
 11
57.5
 21
136.878529
 31
0.0
  0
LINE
  5
AD
100
AcDbEntity
  8
0
100
AcDbLine
 10
42.5
 20
129.0
 30
0.0
 11
72.5
 21
129.0
 31
0.0
  0
LINE
  5
AE
100
AcDbEntity
  8
0
100
AcDbLine
 10
42.5
 20
102.0
 30
0.0
 11
72.5
 21
102.0
 31
0.0
  0
LINE
  5
AF
100
AcDbEntity
  8
0
100
AcDbLine
 10
45.5
 20
90.0
 30
0.0
 11
69.5
 21
90.0
 31
0.0
  0
LINE
  5
B0
100
AcDbEntity
  8
0
100
AcDbLine
 10
45.5
 20
102.0
 30
0.0
 11
45.5
 21
90.0
 31
0.0
  0
LINE
  5
B1
100
AcDbEntity
  8
0
100
AcDbLine
 10
42.0
 20
111.0
 30
0.0
 11
42.0
 21
128.5
 31
0.0
  0
LINE
  5
B2
100
AcDbEntity
  8
0
100
AcDbLine
 10
42.5
 20
111.0
 30
0.0
 11
42.5
 21
102.0
 31
0.0
  0
LINE
  5
B3
100
AcDbEntity
  8
0
100
AcDbLine
 10
42.0
 20
128.5
 30
0.0
 11
42.5
 21
129.0
 31
0.0
  0
LINE
  5
B4
100
AcDbEntity
  8
0
100
AcDbLine
 10
69.5
 20
90.0
 30
0.0
 11
69.5
 21
102.0
 31
0.0
  0
LINE
  5
B5
100
AcDbEntity
  8
0
100
AcDbLine
 10
72.5
 20
102.0
 30
0.0
 11
72.5
 21
111.0
 31
0.0
  0
LINE
  5
B6
100
AcDbEntity
  8
0
100
AcDbLine
 10
73.0
 20
128.5
 30
0.0
 11
72.5
 21
129.0
 31
0.0
  0
LINE
  5
B7
100
AcDbEntity
  8
0
100
AcDbLine
 10
42.0
 20
111.0
 30
0.0
 11
73.0
 21
111.0
 31
0.0
  0
LINE
  5
B8
100
AcDbEntity
  8
0
100
AcDbLine
 10
73.0
 20
111.0
 30
0.0
 11
73.0
 21
128.5
 31
0.0
  0
LINE
  5
C5
100
AcDbEntity
  8
1
100
AcDbLine
 10
301.0
 20
86.0
 30
0.0
 11
301.0
 21
136.878529
 31
0.0
  0
LINE
  5
C6
100
AcDbEntity
  8
0
100
AcDbLine
 10
289.0
 20
102.0
 30
0.0
 11
289.0
 21
90.0
 31
0.0
  0
LINE
  5
C7
100
AcDbEntity
  8
0
100
AcDbLine
 10
313.0
 20
90.0
 30
0.0
 11
313.0
 21
102.0
 31
0.0
  0
LINE
  5
C8
100
AcDbEntity
  8
0
100
AcDbLine
 10
289.0
 20
90.0
 30
0.0
 11
313.0
 21
90.0
 31
0.0
  0
LINE
  5
C9
100
AcDbEntity
  8
0
100
AcDbLine
 10
285.5
 20
111.0
 30
0.0
 11
316.5
 21
111.0
 31
0.0
  0
LINE
  5
CA
100
AcDbEntity
  8
0
100
AcDbLine
 10
286.0
 20
129.0
 30
0.0
 11
294.0
 21
129.0
 31
0.0
  0
LINE
  5
CB
100
AcDbEntity
  8
0
100
AcDbLine
 10
286.0
 20
102.0
 30
0.0
 11
316.0
 21
102.0
 31
0.0
  0
LINE
  5
CC
100
AcDbEntity
  8
0
100
AcDbLine
 10
285.5
 20
111.0
 30
0.0
 11
285.5
 21
128.5
 31
0.0
  0
LINE
  5
CD
100
AcDbEntity
  8
0
100
AcDbLine
 10
286.0
 20
111.0
 30
0.0
 11
286.0
 21
102.0
 31
0.0
  0
LINE
  5
CE
100
AcDbEntity
  8
0
100
AcDbLine
 10
285.5
 20
128.5
 30
0.0
 11
286.0
 21
129.0
 31
0.0
  0
LINE
  5
CF
100
AcDbEntity
  8
0
100
AcDbLine
 10
316.5
 20
111.0
 30
0.0
 11
316.5
 21
128.5
 31
0.0
  0
LINE
  5
D0
100
AcDbEntity
  8
0
100
AcDbLine
 10
316.0
 20
102.0
 30
0.0
 11
316.0
 21
111.0
 31
0.0
  0
LINE
  5
D1
100
AcDbEntity
  8
0
100
AcDbLine
 10
316.5
 20
128.5
 30
0.0
 11
316.0
 21
129.0
 31
0.0
  0
LINE
  5
D2
100
AcDbEntity
  8
0
100
AcDbLine
 10
289.5
 20
111.0
 30
0.0
 11
289.5
 21
124.0
 31
0.0
  0
LINE
  5
D3
100
AcDbEntity
  8
0
100
AcDbLine
 10
312.5
 20
111.0
 30
0.0
 11
312.5
 21
124.0
 31
0.0
  0
LINE
  5
D4
100
AcDbEntity
  8
0
100
AcDbLine
 10
289.5
 20
124.0
 30
0.0
 11
312.5
 21
124.0
 31
0.0
  0
LINE
  5
D5
100
AcDbEntity
  8
0
100
AcDbLine
 10
312.5
 20
124.0
 30
0.0
 11
311.5
 21
125.0
 31
0.0
  0
LINE
  5
D6
100
AcDbEntity
  8
0
100
AcDbLine
 10
311.5
 20
125.0
 30
0.0
 11
290.5
 21
125.0
 31
0.0
  0
LINE
  5
D7
100
AcDbEntity
  8
0
100
AcDbLine
 10
290.5
 20
125.0
 30
0.0
 11
289.5
 21
124.0
 31
0.0
  0
LINE
  5
E4
100
AcDbEntity
  8
0
100
AcDbLine
 10
308.0
 20
129.0
 30
0.0
 11
316.0
 21
129.0
 31
0.0
  0
LINE
  5
118
100
AcDbEntity
  8
0
100
AcDbLine
 10
294.0
 20
129.0
 30
0.0
 11
308.0
 21
129.0
 31
0.0
  0
CIRCLE
  5
119
100
AcDbEntity
  8
0
100
AcDbCircle
 10
210.5
 20
192.211788
 30
0.0
 40
3.0
  0
CIRCLE
  5
11A
100
AcDbEntity
  8
0
100
AcDbCircle
 10
210.5
 20
192.211788
 30
0.0
 40
4.0
  0
ARC
  5
11B
100
AcDbEntity
  8
0
100
AcDbCircle
 10
210.5
 20
192.211788
 30
0.0
 40
8.0
100
AcDbArc
 50
270.0
 51
90.0
  0
LINE
  5
11C
100
AcDbEntity
  8
0
100
AcDbLine
 10
210.5
 20
200.211788
 30
0.0
 11
141.0
 21
203.711788
 31
0.0
  0
LINE
  5
11D
100
AcDbEntity
  8
0
100
AcDbLine
 10
210.5
 20
184.211788
 30
0.0
 11
141.0
 21
180.711788
 31
0.0
  0
ENDSEC
  0
SECTION
  2
OBJECTS
  0
DICTIONARY
  5
F4
100
AcDbDictionary
  3
ACAD_GROUP
350
F5
  3
ACAD_MLINESTYLE
350
102
  3
ACDBVARIABLEDICTIONARY
350
112
  0
DICTIONARY
  5
F5
102
{ACAD_REACTORS
330
F4
102
}
100
AcDbDictionary
  0
DICTIONARY
  5
102
102
{ACAD_REACTORS
330
F4
102
}
100
AcDbDictionary
  3
STANDARD
350
103
  0
DICTIONARY
  5
112
102
{ACAD_REACTORS
330
F4
102
}
100
AcDbDictionary
  3
DIMADEC
350
113
  0
MLINESTYLE
  5
103
102
{ACAD_REACTORS
330
102
102
}
100
AcDbMlineStyle
  2
STANDARD
 70
     0
  3

 62
   256
 51
90.0
 52
90.0
 71
     2
 49
0.5
 62
   256
  6
BYLAYER
 49
-0.5
 62
   256
  6
BYLAYER
  0
DICTIONARYVAR
  5
113
102
{ACAD_REACTORS
330
112
102
}
100
DictionaryVariables
280
     0
  1
0
  0
ENDSEC
  0
EOF
