  0
SECTION
  2
HEADER
  9
$ACADVER
  1
AC1014
  9
$ACADMAINTVER
 70
     0
  9
$DWGCODEPAGE
  3
ANSI_932
  9
$INSBASE
 10
0.0
 20
0.0
 30
0.0
  9
$EXTMIN
 10
0.0
 20
0.0
 30
0.0
  9
$EXTMAX
 10
450.0
 20
350.0
 30
0.0
  9
$LIMMIN
 10
0.0
 20
0.0
  9
$LIMMAX
 10
450.0
 20
350.0
  9
$ORTHOMODE
 70
     0
  9
$REGENMODE
 70
     1
  9
$FILLMODE
 70
     1
  9
$QTEXTMODE
 70
     0
  9
$MIRRTEXT
 70
     1
  9
$DRAGMODE
 70
     2
  9
$LTSCALE
 40
1.0
  9
$OSMODE
 70
    33
  9
$ATTMODE
 70
     1
  9
$TEXTSIZE
 40
5.0
  9
$TRACEWID
 40
0.05
  9
$TEXTSTYLE
  7
BIGFONT
  9
$CLAYER
  8
0
  9
$CELTYPE
  6
BYLAYER
  9
$CECOLOR
 62
   256
  9
$CELTSCALE
 40
1.0
  9
$DELOBJ
 70
     1
  9
$DISPSILH
 70
     0
  9
$DIMSCALE
 40
1.0
  9
$DIMASZ
 40
0.18
  9
$DIMEXO
 40
0.0625
  9
$DIMDLI
 40
0.38
  9
$DIMRND
 40
0.0
  9
$DIMDLE
 40
0.0
  9
$DIMEXE
 40
0.18
  9
$DIMTP
 40
0.0
  9
$DIMTM
 40
0.0
  9
$DIMTXT
 40
0.18
  9
$DIMCEN
 40
0.09
  9
$DIMTSZ
 40
0.0
  9
$DIMTOL
 70
     0
  9
$DIMLIM
 70
     0
  9
$DIMTIH
 70
     1
  9
$DIMTOH
 70
     1
  9
$DIMSE1
 70
     0
  9
$DIMSE2
 70
     0
  9
$DIMTAD
 70
     0
  9
$DIMZIN
 70
     0
  9
$DIMBLK
  1

  9
$DIMASO
 70
     1
  9
$DIMSHO
 70
     1
  9
$DIMPOST
  1

  9
$DIMAPOST
  1

  9
$DIMALT
 70
     0
  9
$DIMALTD
 70
     2
  9
$DIMALTF
 40
25.4
  9
$DIMLFAC
 40
1.0
  9
$DIMTOFL
 70
     0
  9
$DIMTVP
 40
0.0
  9
$DIMTIX
 70
     0
  9
$DIMSOXD
 70
     0
  9
$DIMSAH
 70
     0
  9
$DIMBLK1
  1

  9
$DIMBLK2
  1

  9
$DIMSTYLE
  2
STANDARD
  9
$DIMCLRD
 70
     0
  9
$DIMCLRE
 70
     0
  9
$DIMCLRT
 70
     0
  9
$DIMTFAC
 40
1.0
  9
$DIMGAP
 40
0.09
  9
$DIMJUST
 70
     0
  9
$DIMSD1
 70
     0
  9
$DIMSD2
 70
     0
  9
$DIMTOLJ
 70
     1
  9
$DIMTZIN
 70
     0
  9
$DIMALTZ
 70
     0
  9
$DIMALTTZ
 70
     0
  9
$DIMFIT
 70
     5
  9
$DIMUPT
 70
     0
  9
$DIMUNIT
 70
     2
  9
$DIMDEC
 70
     4
  9
$DIMTDEC
 70
     4
  9
$DIMALTU
 70
     2
  9
$DIMALTTD
 70
     2
  9
$DIMTXSTY
  7
BIGFONT
  9
$DIMAUNIT
 70
     0
  9
$LUNITS
 70
     2
  9
$LUPREC
 70
     4
  9
$SKETCHINC
 40
0.1
  9
$FILLETRAD
 40
0.0
  9
$AUNITS
 70
     0
  9
$AUPREC
 70
     0
  9
$MENU
  1
acad
  9
$ELEVATION
 40
0.0
  9
$PELEVATION
 40
0.0
  9
$THICKNESS
 40
0.0
  9
$LIMCHECK
 70
     0
  9
$BLIPMODE
 70
     1
  9
$CHAMFERA
 40
0.0
  9
$CHAMFERB
 40
0.0
  9
$CHAMFERC
 40
0.0
  9
$CHAMFERD
 40
0.0
  9
$SKPOLY
 70
     0
  9
$TDCREATE
 40
2450683.571099537
  9
$TDUPDATE
 40
2453550.762050231
  9
$TDINDWG
 40
0.0008315278
  9
$TDUSRTIMER
 40
0.0008315278
  9
$USRTIMER
 70
     1
  9
$ANGBASE
 50
0.0
  9
$ANGDIR
 70
     0
  9
$PDMODE
 70
     0
  9
$PDSIZE
 40
0.0
  9
$PLINEWID
 40
0.0
  9
$COORDS
 70
     2
  9
$SPLFRAME
 70
     0
  9
$SPLINETYPE
 70
     6
  9
$SPLINESEGS
 70
     8
  9
$ATTDIA
 70
     0
  9
$ATTREQ
 70
     1
  9
$HANDLING
 70
     1
  9
$HANDSEED
  5
133
  9
$SURFTAB1
 70
     6
  9
$SURFTAB2
 70
     6
  9
$SURFTYPE
 70
     6
  9
$SURFU
 70
     6
  9
$SURFV
 70
     6
  9
$UCSNAME
  2

  9
$UCSORG
 10
0.0
 20
0.0
 30
0.0
  9
$UCSXDIR
 10
1.0
 20
0.0
 30
0.0
  9
$UCSYDIR
 10
0.0
 20
1.0
 30
0.0
  9
$PUCSNAME
  2

  9
$PUCSORG
 10
0.0
 20
0.0
 30
0.0
  9
$PUCSXDIR
 10
1.0
 20
0.0
 30
0.0
  9
$PUCSYDIR
 10
0.0
 20
1.0
 30
0.0
  9
$USERI1
 70
     0
  9
$USERI2
 70
     0
  9
$USERI3
 70
     0
  9
$USERI4
 70
     0
  9
$USERI5
 70
     0
  9
$USERR1
 40
0.0
  9
$USERR2
 40
0.0
  9
$USERR3
 40
0.0
  9
$USERR4
 40
0.0
  9
$USERR5
 40
0.0
  9
$WORLDVIEW
 70
     1
  9
$SHADEDGE
 70
     3
  9
$SHADEDIF
 70
    70
  9
$TILEMODE
 70
     1
  9
$MAXACTVP
 70
    16
  9
$PINSBASE
 10
0.0
 20
0.0
 30
0.0
  9
$PLIMCHECK
 70
     0
  9
$PEXTMIN
 10
1.000000E+20
 20
1.000000E+20
 30
1.000000E+20
  9
$PEXTMAX
 10
-1.000000E+20
 20
-1.000000E+20
 30
-1.000000E+20
  9
$PLIMMIN
 10
0.0
 20
0.0
  9
$PLIMMAX
 10
12.0
 20
9.0
  9
$UNITMODE
 70
     0
  9
$VISRETAIN
 70
     0
  9
$PLINEGEN
 70
     0
  9
$PSLTSCALE
 70
     1
  9
$TREEDEPTH
 70
  3020
  9
$PICKSTYLE
 70
     1
  9
$CMLSTYLE
  2
STANDARD
  9
$CMLJUST
 70
     0
  9
$CMLSCALE
 40
1.0
  9
$PROXYGRAPHICS
 70
     1
  9
$MEASUREMENT
 70
     0
  0
ENDSEC
  0
SECTION
  2
CLASSES
  0
CLASS
  1
DICTIONARYVAR
  2
AcDbDictionaryVar
  3
"AutoCAD"
 90
        0
280
     0
281
     0
  0
CLASS
  1
LWPOLYLINE
  2
AcDbPolyline
  3
"AutoCAD"
 90
        0
280
     0
281
     1
  0
ENDSEC
  0
SECTION
  2
TABLES
  0
TABLE
  2
VPORT
  5
108
100
AcDbSymbolTable
 70
     3
  0
VPORT
  5
132
100
AcDbSymbolTableRecord
100
AcDbViewportTableRecord
  2
*ACTIVE
 70
     0
 10
0.0
 20
0.0
 11
1.0
 21
1.0
 12
227.295943
 22
182.895629
 13
0.0
 23
0.0
 14
0.5
 24
0.5
 15
1.0
 25
1.0
 16
0.0
 26
0.0
 36
1.0
 17
0.0
 27
0.0
 37
0.0
 40
346.323377
 41
1.434944
 42
50.0
 43
0.0
 44
0.0
 50
0.0
 51
0.0
 71
     0
 72
   100
 73
     1
 74
     1
 75
     0
 76
     0
 77
     0
 78
     0
  0
ENDTAB
  0
TABLE
  2
LTYPE
  5
105
100
AcDbSymbolTable
 70
     4
  0
LTYPE
  5
111
100
AcDbSymbolTableRecord
100
AcDbLinetypeTableRecord
  2
BYBLOCK
 70
     0
  3

 72
    65
 73
     0
 40
0.0
  0
LTYPE
  5
112
100
AcDbSymbolTableRecord
100
AcDbLinetypeTableRecord
  2
BYLAYER
 70
     0
  3

 72
    65
 73
     0
 40
0.0
  0
LTYPE
  5
113
100
AcDbSymbolTableRecord
100
AcDbLinetypeTableRecord
  2
CONTINUOUS
 70
     0
  3
Solid line
 72
    65
 73
     0
 40
0.0
  0
LTYPE
  5
11D
100
AcDbSymbolTableRecord
100
AcDbLinetypeTableRecord
  2
TENSEN1
 70
     0
  3

 72
    65
 73
     2
 40
0.4
 49
0.3
 74
     0
 49
-0.1
 74
     0
  0
LTYPE
  5
11E
100
AcDbSymbolTableRecord
100
AcDbLinetypeTableRecord
  2
ITTEN1
 70
     0
  3

 72
    65
 73
     4
 40
8.2
 49
5.0
 74
     0
 49
-1.0
 74
     0
 49
1.2
 74
     0
 49
-1.0
 74
     0
  0
LTYPE
  5
11F
100
AcDbSymbolTableRecord
100
AcDbLinetypeTableRecord
  2
TENSEN2
 70
     0
  3

 72
    65
 73
     2
 40
2.1
 49
1.5
 74
     0
 49
-0.6
 74
     0
  0
ENDTAB
  0
TABLE
  2
LAYER
  5
102
100
AcDbSymbolTable
 70
     4
  0
LAYER
  5
10E
100
AcDbSymbolTableRecord
100
AcDbLayerTableRecord
  2
0
 70
     0
 62
     7
  6
CONTINUOUS
  0
LAYER
  5
123
100
AcDbSymbolTableRecord
100
AcDbLayerTableRecord
  2
1
 70
     0
 62
     1
  6
ITTEN1
  0
LAYER
  5
124
100
AcDbSymbolTableRecord
100
AcDbLayerTableRecord
  2
2
 70
     0
 62
     2
  6
TENSEN2
  0
LAYER
  5
125
100
AcDbSymbolTableRecord
100
AcDbLayerTableRecord
  2
3
 70
     0
 62
     3
  6
CONTINUOUS
  0
ENDTAB
  0
TABLE
  2
STYLE
  5
103
100
AcDbSymbolTable
 70
     2
  0
STYLE
  5
10F
100
AcDbSymbolTableRecord
100
AcDbTextStyleTableRecord
  2
STANDARD
 70
     0
 40
0.0
 41
1.0
 50
0.0
 71
     0
 42
0.2
  3
txt
  4

  0
STYLE
  5
11C
100
AcDbSymbolTableRecord
100
AcDbTextStyleTableRecord
  2
BIGFONT
 70
     0
 40
5.0
 41
1.0
 50
0.0
 71
     0
 42
5.0
  3

  4
bigfont
  0
ENDTAB
  0
TABLE
  2
VIEW
  5
106
100
AcDbSymbolTable
 70
     0
  0
ENDTAB
  0
TABLE
  2
UCS
  5
107
100
AcDbSymbolTable
 70
     0
  0
ENDTAB
  0
TABLE
  2
APPID
  5
109
100
AcDbSymbolTable
 70
     1
  0
APPID
  5
110
100
AcDbSymbolTableRecord
100
AcDbRegAppTableRecord
  2
ACAD
 70
     0
  0
ENDTAB
  0
TABLE
  2
DIMSTYLE
  5
10A
100
AcDbSymbolTable
 70
     1
  0
DIMSTYLE
105
122
100
AcDbSymbolTableRecord
100
AcDbDimStyleTableRecord
  2
STANDARD
 70
     0
  3

  4

  5

  6

  7

 40
1.0
 41
0.18
 42
0.0625
 43
0.38
 44
0.18
 45
0.0
 46
0.0
 47
0.0
 48
0.0
140
0.18
141
0.09
142
0.0
143
25.4
144
1.0
145
0.0
146
1.0
147
0.09
 71
     0
 72
     0
 73
     1
 74
     1
 75
     0
 76
     0
 77
     0
 78
     0
170
     0
171
     2
172
     0
173
     0
174
     0
175
     0
176
     0
177
     0
178
     0
270
     2
271
     4
272
     4
273
     2
274
     2
340
11C
275
     0
280
     0
281
     0
282
     0
283
     1
284
     0
285
     0
286
     0
287
     5
288
     0
  0
ENDTAB
  0
TABLE
  2
BLOCK_RECORD
  5
101
100
AcDbSymbolTable
 70
     0
  0
BLOCK_RECORD
  5
117
100
AcDbSymbolTableRecord
100
AcDbBlockTableRecord
  2
*MODEL_SPACE
  0
BLOCK_RECORD
  5
114
100
AcDbSymbolTableRecord
100
AcDbBlockTableRecord
  2
*PAPER_SPACE
  0
ENDTAB
  0
ENDSEC
  0
SECTION
  2
BLOCKS
  0
BLOCK
  5
128
100
AcDbEntity
  8
0
100
AcDbBlockBegin
  2
*MODEL_SPACE
 70
     0
 10
0.0
 20
0.0
 30
0.0
  3
*MODEL_SPACE
  1

  0
ENDBLK
  5
129
100
AcDbEntity
  8
0
100
AcDbBlockEnd
  0
BLOCK
  5
126
100
AcDbEntity
 67
     1
  8
0
100
AcDbBlockBegin
  2
*PAPER_SPACE
 70
     0
 10
0.0
 20
0.0
 30
0.0
  3
*PAPER_SPACE
  1

  0
ENDBLK
  5
127
100
AcDbEntity
 67
     1
  8
0
100
AcDbBlockEnd
  0
ENDSEC
  0
SECTION
  2
ENTITIES
  0
CIRCLE
  5
3E
100
AcDbEntity
  8
0
100
AcDbCircle
 10
139.5
 20
309.5
 30
0.0
 40
21.5
  0
LINE
  5
3F
100
AcDbEntity
  8
1
100
AcDbLine
 10
111.5
 20
309.5
 30
0.0
 11
319.0
 21
309.5
 31
0.0
  0
LINE
  5
40
100
AcDbEntity
  8
1
100
AcDbLine
 10
139.5
 20
338.5
 30
0.0
 11
139.5
 21
282.0
 31
0.0
  0
LINE
  5
41
100
AcDbEntity
  8
1
100
AcDbLine
 10
299.5
 20
294.5
 30
0.0
 11
299.5
 21
325.5
 31
0.0
  0
ARC
  5
42
100
AcDbEntity
  8
0
100
AcDbCircle
 10
299.5
 20
309.5
 30
0.0
 40
12.0
100
AcDbArc
 50
267.614056
 51
90.0
  0
LINE
  5
43
100
AcDbEntity
  8
0
100
AcDbLine
 10
299.5
 20
321.5
 30
0.0
 11
149.5
 21
328.5
 31
0.0
  0
LINE
  5
44
100
AcDbEntity
  8
0
100
AcDbLine
 10
299.5
 20
297.5
 30
0.0
 11
149.5
 21
290.5
 31
0.0
  0
LINE
  5
46
100
AcDbEntity
  8
0
100
AcDbLine
 10
299.5
 20
48.5
 30
0.0
 11
149.5
 21
41.5
 31
0.0
  0
LINE
  5
47
100
AcDbEntity
  8
0
100
AcDbLine
 10
299.5
 20
72.5
 30
0.0
 11
149.5
 21
79.5
 31
0.0
  0
LINE
  5
48
100
AcDbEntity
  8
1
100
AcDbLine
 10
111.5
 20
60.5
 30
0.0
 11
319.0
 21
60.5
 31
0.0
  0
LINE
  5
49
100
AcDbEntity
  8
1
100
AcDbLine
 10
139.5
 20
89.5
 30
0.0
 11
139.5
 21
33.0
 31
0.0
  0
CIRCLE
  5
4A
100
AcDbEntity
  8
0
100
AcDbCircle
 10
139.5
 20
60.5
 30
0.0
 40
21.5
  0
LINE
  5
4B
100
AcDbEntity
  8
1
100
AcDbLine
 10
299.5
 20
45.5
 30
0.0
 11
299.5
 21
76.5
 31
0.0
  0
ARC
  5
4C
100
AcDbEntity
  8
0
100
AcDbCircle
 10
299.5
 20
60.5
 30
0.0
 40
12.0
100
AcDbArc
 50
270.0
 51
90.0
  0
CIRCLE
  5
4D
100
AcDbEntity
  8
0
100
AcDbCircle
 10
299.5
 20
60.5
 30
0.0
 40
5.0
  0
CIRCLE
  5
4E
100
AcDbEntity
  8
0
100
AcDbCircle
 10
299.5
 20
60.5
 30
0.0
 40
4.0
  0
CIRCLE
  5
4F
100
AcDbEntity
  8
0
100
AcDbCircle
 10
139.5
 20
60.5
 30
0.0
 40
20.0
  0
CIRCLE
  5
50
100
AcDbEntity
  8
0
100
AcDbCircle
 10
139.5
 20
60.5
 30
0.0
 40
18.0
  0
LINE
  5
51
100
AcDbEntity
  8
0
100
AcDbLine
 10
174.0
 20
60.5
 30
0.0
 11
174.0
 21
69.5
 31
0.0
  0
LINE
  5
52
100
AcDbEntity
  8
0
100
AcDbLine
 10
174.0
 20
60.5
 30
0.0
 11
174.0
 21
51.5
 31
0.0
  0
LINE
  5
53
100
AcDbEntity
  8
0
100
AcDbLine
 10
281.5
 20
60.5
 30
0.0
 11
281.5
 21
68.0
 31
0.0
  0
LINE
  5
54
100
AcDbEntity
  8
0
100
AcDbLine
 10
281.5
 20
60.5
 30
0.0
 11
281.5
 21
53.0
 31
0.0
  0
LINE
  5
55
100
AcDbEntity
  8
0
100
AcDbLine
 10
281.5
 20
68.0
 30
0.0
 11
174.0
 21
69.5
 31
0.0
  0
LINE
  5
56
100
AcDbEntity
  8
0
100
AcDbLine
 10
281.5
 20
53.0
 30
0.0
 11
174.0
 21
51.5
 31
0.0
  0
LINE
  5
57
100
AcDbEntity
  8
0
100
AcDbLine
 10
179.5
 20
67.5
 30
0.0
 11
179.5
 21
53.5
 31
0.0
  0
LINE
  5
58
100
AcDbEntity
  8
0
100
AcDbLine
 10
179.5
 20
53.5
 30
0.0
 11
276.5
 21
55.0
 31
0.0
  0
LINE
  5
59
100
AcDbEntity
  8
0
100
AcDbLine
 10
276.5
 20
55.0
 30
0.0
 11
276.5
 21
66.0
 31
0.0
  0
LINE
  5
5A
100
AcDbEntity
  8
0
100
AcDbLine
 10
276.5
 20
66.0
 30
0.0
 11
179.5
 21
67.5
 31
0.0
  0
LINE
  5
5B
100
AcDbEntity
  8
0
100
AcDbLine
 10
281.5
 20
68.0
 30
0.0
 11
276.5
 21
66.0
 31
0.0
  0
LINE
  5
5C
100
AcDbEntity
  8
0
100
AcDbLine
 10
281.5
 20
53.0
 30
0.0
 11
276.5
 21
55.0
 31
0.0
  0
LINE
  5
5D
100
AcDbEntity
  8
0
100
AcDbLine
 10
174.0
 20
69.5
 30
0.0
 11
179.5
 21
67.5
 31
0.0
  0
LINE
  5
5E
100
AcDbEntity
  8
0
100
AcDbLine
 10
174.0
 20
51.5
 30
0.0
 11
179.5
 21
53.5
 31
0.0
  0
LINE
  5
5F
100
AcDbEntity
  8
3
100
AcDbLine
 10
199.5
 20
56.5
 30
0.0
 11
200.5
 21
56.5
 31
0.0
  0
LINE
  5
60
100
AcDbEntity
  8
3
100
AcDbLine
 10
202.0
 20
58.5
 30
0.0
 11
205.5
 21
58.5
 31
0.0
  0
LINE
  5
61
100
AcDbEntity
  8
3
100
AcDbLine
 10
205.5
 20
58.5
 30
0.0
 11
206.0
 21
58.5
 31
0.0
  0
LINE
  5
62
100
AcDbEntity
  8
3
100
AcDbLine
 10
207.5
 20
56.5
 30
0.0
 11
208.5
 21
56.5
 31
0.0
  0
LINE
  5
63
100
AcDbEntity
  8
3
100
AcDbLine
 10
208.5
 20
56.5
 30
0.0
 11
204.5
 21
64.5
 31
0.0
  0
LINE
  5
64
100
AcDbEntity
  8
3
100
AcDbLine
 10
204.5
 20
64.5
 30
0.0
 11
203.5
 21
64.5
 31
0.0
  0
LINE
  5
65
100
AcDbEntity
  8
3
100
AcDbLine
 10
203.5
 20
64.5
 30
0.0
 11
199.5
 21
56.5
 31
0.0
  0
LINE
  5
66
100
AcDbEntity
  8
3
100
AcDbLine
 10
202.5
 20
59.5
 30
0.0
 11
205.5
 21
59.5
 31
0.0
  0
LINE
  5
67
100
AcDbEntity
  8
3
100
AcDbLine
 10
205.5
 20
59.5
 30
0.0
 11
204.0
 21
62.5
 31
0.0
  0
LINE
  5
68
100
AcDbEntity
  8
3
100
AcDbLine
 10
204.0
 20
62.5
 30
0.0
 11
202.5
 21
59.5
 31
0.0
  0
LINE
  5
69
100
AcDbEntity
  8
3
100
AcDbLine
 10
202.0
 20
58.5
 30
0.0
 11
201.0
 21
56.5
 31
0.0
  0
LINE
  5
6A
100
AcDbEntity
  8
3
100
AcDbLine
 10
201.0
 20
56.5
 30
0.0
 11
200.0
 21
56.5
 31
0.0
  0
LINE
  5
6B
100
AcDbEntity
  8
3
100
AcDbLine
 10
206.0
 20
58.5
 30
0.0
 11
207.0
 21
56.5
 31
0.0
  0
LINE
  5
6C
100
AcDbEntity
  8
3
100
AcDbLine
 10
207.0
 20
56.5
 30
0.0
 11
208.0
 21
56.5
 31
0.0
  0
LINE
  5
6D
100
AcDbEntity
  8
3
100
AcDbLine
 10
210.0
 20
62.0
 30
0.0
 11
210.0
 21
59.0
 31
0.0
  0
LINE
  5
6E
100
AcDbEntity
  8
3
100
AcDbLine
 10
211.5
 20
61.5
 30
0.0
 11
211.5
 21
59.5
 31
0.0
  0
ARC
  5
6F
100
AcDbEntity
  8
3
100
AcDbCircle
 10
213.0
 20
61.45
 30
0.0
 40
3.05
100
AcDbArc
 50
10.388858
 51
169.611142
  0
ARC
  5
70
100
AcDbEntity
  8
3
100
AcDbCircle
 10
213.05
 20
61.45
 30
0.0
 40
1.550806
100
AcDbArc
 50
20.772255
 51
178.15239
  0
ARC
  5
71
100
AcDbEntity
  8
3
100
AcDbCircle
 10
213.05
 20
59.55
 30
0.0
 40
1.550806
100
AcDbArc
 50
181.84761
 51
339.227745
  0
ARC
  5
72
100
AcDbEntity
  8
3
100
AcDbCircle
 10
213.0
 20
59.55
 30
0.0
 40
3.05
100
AcDbArc
 50
190.388858
 51
349.611142
  0
LINE
  5
73
100
AcDbEntity
  8
3
100
AcDbLine
 10
216.0
 20
62.0
 30
0.0
 11
214.5
 21
62.0
 31
0.0
  0
LINE
  5
74
100
AcDbEntity
  8
3
100
AcDbLine
 10
216.0
 20
59.0
 30
0.0
 11
214.5
 21
59.0
 31
0.0
  0
LINE
  5
75
100
AcDbEntity
  8
3
100
AcDbLine
 10
218.0
 20
64.5
 30
0.0
 11
218.0
 21
56.5
 31
0.0
  0
LINE
  5
76
100
AcDbEntity
  8
3
100
AcDbLine
 10
218.0
 20
56.5
 30
0.0
 11
219.5
 21
56.5
 31
0.0
  0
LINE
  5
77
100
AcDbEntity
  8
3
100
AcDbLine
 10
219.5
 20
56.5
 30
0.0
 11
219.5
 21
60.0
 31
0.0
  0
LINE
  5
78
100
AcDbEntity
  8
3
100
AcDbLine
 10
219.5
 20
60.0
 30
0.0
 11
223.0
 21
60.0
 31
0.0
  0
LINE
  5
79
100
AcDbEntity
  8
3
100
AcDbLine
 10
223.0
 20
60.0
 30
0.0
 11
223.0
 21
56.5
 31
0.0
  0
LINE
  5
7A
100
AcDbEntity
  8
3
100
AcDbLine
 10
223.0
 20
56.5
 30
0.0
 11
224.5
 21
56.5
 31
0.0
  0
LINE
  5
7B
100
AcDbEntity
  8
3
100
AcDbLine
 10
224.5
 20
56.5
 30
0.0
 11
224.5
 21
64.5
 31
0.0
  0
LINE
  5
7C
100
AcDbEntity
  8
3
100
AcDbLine
 10
224.5
 20
64.5
 30
0.0
 11
223.0
 21
64.5
 31
0.0
  0
LINE
  5
7D
100
AcDbEntity
  8
3
100
AcDbLine
 10
223.0
 20
64.5
 30
0.0
 11
223.0
 21
61.5
 31
0.0
  0
LINE
  5
7E
100
AcDbEntity
  8
3
100
AcDbLine
 10
223.0
 20
61.5
 30
0.0
 11
219.5
 21
61.5
 31
0.0
  0
LINE
  5
7F
100
AcDbEntity
  8
3
100
AcDbLine
 10
219.5
 20
61.5
 30
0.0
 11
219.5
 21
64.5
 31
0.0
  0
LINE
  5
80
100
AcDbEntity
  8
3
100
AcDbLine
 10
219.5
 20
64.5
 30
0.0
 11
218.0
 21
64.5
 31
0.0
  0
LINE
  5
81
100
AcDbEntity
  8
3
100
AcDbLine
 10
226.5
 20
61.5
 30
0.0
 11
226.5
 21
59.5
 31
0.0
  0
LINE
  5
82
100
AcDbEntity
  8
3
100
AcDbLine
 10
226.5
 20
59.5
 30
0.0
 11
233.5
 21
59.5
 31
0.0
  0
LINE
  5
83
100
AcDbEntity
  8
3
100
AcDbLine
 10
233.5
 20
59.5
 30
0.0
 11
233.5
 21
61.5
 31
0.0
  0
LINE
  5
84
100
AcDbEntity
  8
3
100
AcDbLine
 10
233.5
 20
61.5
 30
0.0
 11
226.5
 21
61.5
 31
0.0
  0
LINE
  5
85
100
AcDbEntity
  8
3
100
AcDbLine
 10
235.5
 20
63.0
 30
0.0
 11
237.0
 21
64.5
 31
0.0
  0
LINE
  5
86
100
AcDbEntity
  8
3
100
AcDbLine
 10
237.0
 20
64.5
 30
0.0
 11
238.5
 21
64.5
 31
0.0
  0
LINE
  5
87
100
AcDbEntity
  8
3
100
AcDbLine
 10
238.5
 20
64.5
 30
0.0
 11
238.5
 21
56.5
 31
0.0
  0
LINE
  5
88
100
AcDbEntity
  8
3
100
AcDbLine
 10
238.5
 20
56.5
 30
0.0
 11
237.0
 21
56.5
 31
0.0
  0
LINE
  5
89
100
AcDbEntity
  8
3
100
AcDbLine
 10
237.0
 20
56.5
 30
0.0
 11
237.0
 21
62.5
 31
0.0
  0
LINE
  5
8A
100
AcDbEntity
  8
3
100
AcDbLine
 10
237.0
 20
62.5
 30
0.0
 11
236.5
 21
62.5
 31
0.0
  0
LINE
  5
8B
100
AcDbEntity
  8
3
100
AcDbLine
 10
236.5
 20
62.5
 30
0.0
 11
235.5
 21
63.0
 31
0.0
  0
LINE
  5
8C
100
AcDbEntity
  8
3
100
AcDbLine
 10
248.5
 20
62.0
 30
0.0
 11
248.5
 21
59.0
 31
0.0
  0
LINE
  5
8D
100
AcDbEntity
  8
3
100
AcDbLine
 10
250.0
 20
61.5
 30
0.0
 11
250.0
 21
59.5
 31
0.0
  0
LINE
  5
8E
100
AcDbEntity
  8
3
100
AcDbLine
 10
253.0
 20
61.5
 30
0.0
 11
253.0
 21
59.5
 31
0.0
  0
LINE
  5
8F
100
AcDbEntity
  8
3
100
AcDbLine
 10
254.5
 20
62.0
 30
0.0
 11
254.5
 21
59.0
 31
0.0
  0
ARC
  5
90
100
AcDbEntity
  8
3
100
AcDbCircle
 10
251.5
 20
61.45
 30
0.0
 40
3.05
100
AcDbArc
 50
10.388858
 51
169.611142
  0
ARC
  5
91
100
AcDbEntity
  8
3
100
AcDbCircle
 10
251.5
 20
59.55
 30
0.0
 40
3.05
100
AcDbArc
 50
190.388858
 51
349.611142
  0
ARC
  5
92
100
AcDbEntity
  8
3
100
AcDbCircle
 10
251.5
 20
61.5
 30
0.0
 40
1.5
100
AcDbArc
 50
0.0
 51
180.0
  0
ARC
  5
93
100
AcDbEntity
  8
3
100
AcDbCircle
 10
251.5
 20
59.5
 30
0.0
 40
1.5
100
AcDbArc
 50
180.0
 51
0.0
  0
LINE
  5
94
100
AcDbEntity
  8
0
100
AcDbLine
 10
118.0
 20
143.0
 30
0.0
 11
118.0
 21
166.0
 31
0.0
  0
LINE
  5
95
100
AcDbEntity
  8
0
100
AcDbLine
 10
119.0
 20
167.0
 30
0.0
 11
160.0
 21
167.0
 31
0.0
  0
LINE
  5
96
100
AcDbEntity
  8
0
100
AcDbLine
 10
118.0
 20
143.0
 30
0.0
 11
161.0
 21
143.0
 31
0.0
  0
LINE
  5
97
100
AcDbEntity
  8
0
100
AcDbLine
 10
119.5
 20
143.0
 30
0.0
 11
119.5
 21
128.0
 31
0.0
  0
LINE
  5
98
100
AcDbEntity
  8
0
100
AcDbLine
 10
119.5
 20
128.0
 30
0.0
 11
159.5
 21
128.0
 31
0.0
  0
LINE
  5
99
100
AcDbEntity
  8
0
100
AcDbLine
 10
159.5
 20
128.0
 30
0.0
 11
159.5
 21
143.0
 31
0.0
  0
LINE
  5
9A
100
AcDbEntity
  8
0
100
AcDbLine
 10
161.0
 20
166.0
 30
0.0
 11
160.0
 21
167.0
 31
0.0
  0
LINE
  5
9B
100
AcDbEntity
  8
0
100
AcDbLine
 10
118.0
 20
166.0
 30
0.0
 11
119.0
 21
167.0
 31
0.0
  0
LINE
  5
9C
100
AcDbEntity
  8
0
100
AcDbLine
 10
121.5
 20
128.0
 30
0.0
 11
121.5
 21
113.0
 31
0.0
  0
LINE
  5
9D
100
AcDbEntity
  8
0
100
AcDbLine
 10
121.5
 20
113.0
 30
0.0
 11
157.5
 21
113.0
 31
0.0
  0
LINE
  5
9E
100
AcDbEntity
  8
0
100
AcDbLine
 10
157.5
 20
113.0
 30
0.0
 11
157.5
 21
128.0
 31
0.0
  0
LINE
  5
9F
100
AcDbEntity
  8
0
100
AcDbLine
 10
161.0
 20
143.0
 30
0.0
 11
299.5
 21
143.0
 31
0.0
  0
LINE
  5
A0
100
AcDbEntity
  8
0
100
AcDbLine
 10
299.5
 20
143.0
 30
0.0
 11
311.5
 21
143.0
 31
0.0
  0
LINE
  5
A1
100
AcDbEntity
  8
0
100
AcDbLine
 10
311.5
 20
143.0
 30
0.0
 11
311.5
 21
161.5
 31
0.0
  0
LINE
  5
A2
100
AcDbEntity
  8
0
100
AcDbLine
 10
310.0
 20
163.0
 30
0.0
 11
161.0
 21
163.0
 31
0.0
  0
LINE
  5
A3
100
AcDbEntity
  8
0
100
AcDbLine
 10
311.5
 20
161.5
 30
0.0
 11
310.0
 21
163.0
 31
0.0
  0
LINE
  5
A4
100
AcDbEntity
  8
0
100
AcDbLine
 10
311.5
 20
161.5
 30
0.0
 11
161.0
 21
161.5
 31
0.0
  0
LINE
  5
A5
100
AcDbEntity
  8
0
100
AcDbLine
 10
161.0
 20
163.0
 30
0.0
 11
149.5
 21
163.0
 31
0.0
  0
LINE
  5
A6
100
AcDbEntity
  8
0
100
AcDbLine
 10
149.5
 20
163.0
 30
0.0
 11
149.5
 21
143.0
 31
0.0
  0
LINE
  5
A7
100
AcDbEntity
  8
0
100
AcDbLine
 10
161.0
 20
161.5
 30
0.0
 11
149.5
 21
161.5
 31
0.0
  0
LINE
  5
A8
100
AcDbEntity
  8
0
100
AcDbLine
 10
161.0
 20
163.0
 30
0.0
 11
161.0
 21
166.0
 31
0.0
  0
LINE
  5
A9
100
AcDbEntity
  8
1
100
AcDbLine
 10
139.5
 20
106.5
 30
0.0
 11
139.5
 21
181.5
 31
0.0
  0
LINE
  5
AA
100
AcDbEntity
  8
1
100
AcDbLine
 10
299.5
 20
136.5
 30
0.0
 11
299.5
 21
180.966848
 31
0.0
  0
LINE
  5
B7
100
AcDbEntity
  8
1
100
AcDbLine
 10
48.5
 20
106.0
 30
0.0
 11
48.5
 21
184.395792
 31
0.0
  0
LINE
  5
B8
100
AcDbEntity
  8
0
100
AcDbLine
 10
28.0
 20
167.0
 30
0.0
 11
69.0
 21
167.0
 31
0.0
  0
LINE
  5
B9
100
AcDbEntity
  8
0
100
AcDbLine
 10
27.0
 20
143.0
 30
0.0
 11
70.0
 21
143.0
 31
0.0
  0
LINE
  5
BA
100
AcDbEntity
  8
0
100
AcDbLine
 10
28.5
 20
128.0
 30
0.0
 11
68.5
 21
128.0
 31
0.0
  0
LINE
  5
BB
100
AcDbEntity
  8
0
100
AcDbLine
 10
30.5
 20
113.0
 30
0.0
 11
66.5
 21
113.0
 31
0.0
  0
LINE
  5
BC
100
AcDbEntity
  8
0
100
AcDbLine
 10
30.5
 20
128.0
 30
0.0
 11
30.5
 21
113.0
 31
0.0
  0
LINE
  5
BD
100
AcDbEntity
  8
0
100
AcDbLine
 10
27.0
 20
143.0
 30
0.0
 11
27.0
 21
166.0
 31
0.0
  0
LINE
  5
BE
100
AcDbEntity
  8
0
100
AcDbLine
 10
28.5
 20
143.0
 30
0.0
 11
28.5
 21
128.0
 31
0.0
  0
LINE
  5
BF
100
AcDbEntity
  8
0
100
AcDbLine
 10
27.0
 20
166.0
 30
0.0
 11
28.0
 21
167.0
 31
0.0
  0
LINE
  5
C0
100
AcDbEntity
  8
0
100
AcDbLine
 10
66.5
 20
113.0
 30
0.0
 11
66.5
 21
128.0
 31
0.0
  0
LINE
  5
C1
100
AcDbEntity
  8
0
100
AcDbLine
 10
68.5
 20
128.0
 30
0.0
 11
68.5
 21
143.0
 31
0.0
  0
LINE
  5
C2
100
AcDbEntity
  8
0
100
AcDbLine
 10
70.0
 20
163.0
 30
0.0
 11
70.0
 21
166.0
 31
0.0
  0
LINE
  5
C3
100
AcDbEntity
  8
0
100
AcDbLine
 10
70.0
 20
166.0
 30
0.0
 11
69.0
 21
167.0
 31
0.0
  0
LINE
  5
C4
100
AcDbEntity
  8
0
100
AcDbLine
 10
70.0
 20
143.0
 30
0.0
 11
70.0
 21
163.5
 31
0.0
  0
LINE
  5
D1
100
AcDbEntity
  8
1
100
AcDbLine
 10
392.5
 20
106.0
 30
0.0
 11
392.5
 21
180.966848
 31
0.0
  0
LINE
  5
D2
100
AcDbEntity
  8
0
100
AcDbLine
 10
374.5
 20
113.0
 30
0.0
 11
410.5
 21
113.0
 31
0.0
  0
LINE
  5
D3
100
AcDbEntity
  8
0
100
AcDbLine
 10
372.5
 20
128.0
 30
0.0
 11
412.5
 21
128.0
 31
0.0
  0
LINE
  5
D4
100
AcDbEntity
  8
0
100
AcDbLine
 10
371.0
 20
143.0
 30
0.0
 11
414.0
 21
143.0
 31
0.0
  0
LINE
  5
D5
100
AcDbEntity
  8
0
100
AcDbLine
 10
372.0
 20
167.0
 30
0.0
 11
384.0
 21
167.0
 31
0.0
  0
LINE
  5
D6
100
AcDbEntity
  8
0
100
AcDbLine
 10
374.5
 20
128.0
 30
0.0
 11
374.5
 21
113.0
 31
0.0
  0
LINE
  5
D7
100
AcDbEntity
  8
0
100
AcDbLine
 10
371.0
 20
143.0
 30
0.0
 11
371.0
 21
166.0
 31
0.0
  0
LINE
  5
D8
100
AcDbEntity
  8
0
100
AcDbLine
 10
372.5
 20
143.0
 30
0.0
 11
372.5
 21
128.0
 31
0.0
  0
LINE
  5
D9
100
AcDbEntity
  8
0
100
AcDbLine
 10
371.0
 20
166.0
 30
0.0
 11
372.0
 21
167.0
 31
0.0
  0
LINE
  5
DA
100
AcDbEntity
  8
0
100
AcDbLine
 10
410.5
 20
113.0
 30
0.0
 11
410.5
 21
128.0
 31
0.0
  0
LINE
  5
DB
100
AcDbEntity
  8
0
100
AcDbLine
 10
414.0
 20
143.0
 30
0.0
 11
414.0
 21
163.5
 31
0.0
  0
LINE
  5
DC
100
AcDbEntity
  8
0
100
AcDbLine
 10
412.5
 20
128.0
 30
0.0
 11
412.5
 21
143.0
 31
0.0
  0
LINE
  5
DD
100
AcDbEntity
  8
0
100
AcDbLine
 10
414.0
 20
166.0
 30
0.0
 11
413.0
 21
167.0
 31
0.0
  0
LINE
  5
DE
100
AcDbEntity
  8
0
100
AcDbLine
 10
414.0
 20
163.0
 30
0.0
 11
414.0
 21
166.0
 31
0.0
  0
LINE
  5
EB
100
AcDbEntity
  8
0
100
AcDbLine
 10
401.0
 20
167.0
 30
0.0
 11
413.0
 21
167.0
 31
0.0
  0
LINE
  5
EC
100
AcDbEntity
  8
0
100
AcDbLine
 10
411.5
 20
143.0
 30
0.0
 11
411.5
 21
161.5
 31
0.0
  0
LINE
  5
ED
100
AcDbEntity
  8
0
100
AcDbLine
 10
373.5
 20
143.0
 30
0.0
 11
373.5
 21
161.5
 31
0.0
  0
LINE
  5
EE
100
AcDbEntity
  8
0
100
AcDbLine
 10
410.0
 20
163.0
 30
0.0
 11
375.0
 21
163.0
 31
0.0
  0
LINE
  5
EF
100
AcDbEntity
  8
0
100
AcDbLine
 10
373.5
 20
161.5
 30
0.0
 11
375.0
 21
163.0
 31
0.0
  0
LINE
  5
F0
100
AcDbEntity
  8
0
100
AcDbLine
 10
411.5
 20
161.5
 30
0.0
 11
410.0
 21
163.0
 31
0.0
  0
LINE
  5
F1
100
AcDbEntity
  8
0
100
AcDbLine
 10
373.5
 20
161.5
 30
0.0
 11
411.5
 21
161.5
 31
0.0
  0
LINE
  5
F2
100
AcDbEntity
  8
2
100
AcDbLine
 10
174.0
 20
143.0
 30
0.0
 11
179.5
 21
156.5
 31
0.0
  0
LINE
  5
F3
100
AcDbEntity
  8
2
100
AcDbLine
 10
179.5
 20
156.5
 30
0.0
 11
276.5
 21
156.5
 31
0.0
  0
LINE
  5
F4
100
AcDbEntity
  8
2
100
AcDbLine
 10
276.5
 20
156.5
 30
0.0
 11
281.5
 21
143.0
 31
0.0
  0
ARC
  5
F5
100
AcDbEntity
  8
3
100
AcDbCircle
 10
243.25
 20
61.25
 30
0.0
 40
3.259601
100
AcDbArc
 50
4.398705
 51
147.528808
  0
ARC
  5
F6
100
AcDbEntity
  8
3
100
AcDbCircle
 10
247.75
 20
60.25
 30
0.0
 40
7.754031
100
AcDbArc
 50
159.227745
 51
200.772255
  0
ARC
  5
F7
100
AcDbEntity
  8
3
100
AcDbCircle
 10
243.25
 20
61.25
 30
0.0
 40
1.767767
100
AcDbArc
 50
8.130102
 51
188.130102
  0
CIRCLE
  5
F8
100
AcDbEntity
  8
3
100
AcDbCircle
 10
243.0
 20
59.0
 30
0.0
 40
1.118034
  0
LINE
  5
F9
100
AcDbEntity
  8
3
100
AcDbLine
 10
245.0
 20
61.5
 30
0.0
 11
246.5
 21
61.5
 31
0.0
  0
ARC
  5
FA
100
AcDbEntity
  8
3
100
AcDbCircle
 10
243.083333
 20
60.25
 30
0.0
 40
3.773077
100
AcDbArc
 50
226.789911
 51
300.529706
  0
ARC
  5
FB
100
AcDbEntity
  8
3
100
AcDbCircle
 10
243.461538
 20
59.019231
 30
0.0
 40
2.538534
100
AcDbArc
 50
307.303948
 51
77.753667
  0
ARC
  5
FC
100
AcDbEntity
  8
3
100
AcDbCircle
 10
243.5
 20
57.5
 30
0.0
 40
4.031129
100
AcDbArc
 50
82.874984
 51
119.744881
  0
LINE
  5
12F
100
AcDbEntity
  8
0
100
AcDbLine
 10
384.0
 20
167.0
 30
0.0
 11
401.0
 21
167.0
 31
0.0
  0
CIRCLE
  5
130
100
AcDbEntity
  8
0
100
AcDbCircle
 10
299.5
 20
309.5
 30
0.0
 40
5.0
  0
CIRCLE
  5
131
100
AcDbEntity
  8
0
100
AcDbCircle
 10
299.5
 20
309.5
 30
0.0
 40
4.0
  0
ENDSEC
  0
SECTION
  2
OBJECTS
  0
DICTIONARY
  5
10C
100
AcDbDictionary
  3
ACAD_GROUP
350
10D
  3
ACAD_MLINESTYLE
350
11A
  3
ACDBVARIABLEDICTIONARY
350
12A
  0
DICTIONARY
  5
10D
102
{ACAD_REACTORS
330
10C
102
}
100
AcDbDictionary
  0
DICTIONARY
  5
11A
102
{ACAD_REACTORS
330
10C
102
}
100
AcDbDictionary
  3
STANDARD
350
11B
  0
DICTIONARY
  5
12A
102
{ACAD_REACTORS
330
10C
102
}
100
AcDbDictionary
  3
DIMADEC
350
12B
  0
MLINESTYLE
  5
11B
102
{ACAD_REACTORS
330
11A
102
}
100
AcDbMlineStyle
  2
STANDARD
 70
     0
  3

 62
   256
 51
90.0
 52
90.0
 71
     2
 49
0.5
 62
   256
  6
BYLAYER
 49
-0.5
 62
   256
  6
BYLAYER
  0
DICTIONARYVAR
  5
12B
102
{ACAD_REACTORS
330
12A
102
}
100
DictionaryVariables
280
     0
  1
0
  0
ENDSEC
  0
EOF
